  0
SECTION
  2
HEADER
  9
$ACADVER
  1
AC1009
  9
$INSBASE
 10
0
 20
0
 30
0
  9
$EXTMIN
 10
0
 20
0
  9
$EXTMAX
 10
420
 20
297
  9
$LIMMIN
 10
0
 20
0
  9
$LIMMAX
 10
420
 20
297
  9
$LTSCALE
 40
1
  0
ENDSEC
  0
SECTION
  2
TABLES
  0
TABLE
  2
LTYPE
 70
     9
  0
LTYPE
  2
CONTINUOUS
 70
    64
  3
実線
 72
    65
 73
     0
 40
0.0
  0
LTYPE
  2
DASHED1
 70
    64
  3
--  --  --  --  --  --  --  --  
 72
    65
 73
     2
 40
2.5
 49
1.25
 49
-1.25
  0
LTYPE
  2
DASHED2
 70
    64
  3
----    ----    ----    ----    
 72
    65
 73
     2
 40
5.0
 49
2.5
 49
-2.5
  0
LTYPE
  2
DASHED3
 70
    64
  3
------  ------  ------  ------  
 72
    65
 73
     2
 40
5.0
 49
3.75
 49
-1.25
  0
LTYPE
  2
CENTER1
 70
    64
  3
----- - ----- - ----- - ----- - 
 72
    65
 73
     4
 40
10.0
 49
6.25
 49
-1.25
 49
1.25
 49
-1.25
  0
LTYPE
  2
CENTER2
 70
    64
  3
----------  --  ----------  --  
 72
    65
 73
     4
 40
20.0
 49
12.5
 49
-2.5
 49
2.5
 49
-2.5
  0
LTYPE
  2
PHANTOM1
 70
    64
  3
--- - - --- - - --- - - --- - - 
 72
    65
 73
     6
 40
10.0
 49
3.25
 49
-1.25
 49
1.25
 49
-1.25
 49
1.25
 49
-1.25
  0
LTYPE
  2
PHANTOM2
 70
    64
  3
--------  -  -  --------  -  -  
 72
    65
 73
     6
 40
20.0
 49
10.0
 49
-2.5
 49
1.25
 49
-2.5
 49
1.25
 49
-2.5
  0
LTYPE
  2
DOT
 70
    64
  3
-   -   -   -   -   -   -   -   
 72
    65
 73
     2
 40
2.5
 49
0.625
 49
-1.875
  0
LTYPE
  2
DUMMY
 70
    64
  3
ダミー
 72
    65
 73
     0
 40
0.0
  0
LTYPE
  2
RAND1
 70
    64
  3
ランダム線1
 72
    65
 73
     4
 40
10.0
 49
1.0
 49
-2.0
 49
3.0
 49
-4.0
  0
LTYPE
  2
RAND2
 70
    64
  3
ランダム線2
 72
    65
 73
     4
 40
14.0
 49
2.0
 49
-3.0
 49
4.0
 49
-5.0
  0
LTYPE
  2
RAND3
 70
    64
  3
ランダム線3
 72
    65
 73
     4
 40
18.0
 49
3.0
 49
-4.0
 49
5.0
 49
-6.0
  0
LTYPE
  2
RAND4
 70
    64
  3
ランダム線4
 72
    65
 73
     4
 40
22.0
 49
4.0
 49
-5.0
 49
6.0
 49
-7.0
  0
LTYPE
  2
RAND5
 70
    64
  3
ランダム線5
 72
    65
 73
     4
 40
26.0
 49
5.0
 49
-6.0
 49
7.0
 49
-8.0
  0
LTYPE
  2
LONG1
 70
    64
  3
----------  --  ----------  --  
 72
    65
 73
     4
 40
40.0
 49
32.5
 49
-2.5
 49
2.5
 49
-2.5
  0
LTYPE
  2
LONG2
 70
    64
  3
--------  -  -  --------  -  -  
 72
    65
 73
     6
 40
40.0
 49
30.0
 49
-2.5
 49
1.25
 49
-2.5
 49
1.25
 49
-2.5
  0
LTYPE
  2
LONG3
 70
    64
  3
+++++++++++++++..+++++++++++++++
 72
    65
 73
     2
 40
40.0
 49
37.5
 49
-2.5
  0
LTYPE
  2
LONG4
 70
    64
  3
+++++++++++++++..+++++++++++++++
 72
    65
 73
     2
 40
80.0
 49
75.0
 49
-5.0
  0
LTYPE
  2
LONG5
 70
    64
  3
----------  --  ----------  --  
 72
    65
 73
     4
 40
60.0
 49
37.5
 49
-7.5
 49
7.5
 49
-7.5
  0
LTYPE
  2
dashed
 70
   64
  3
-------   -------------   ------
 72
   65
 73
    2
 40
7.5
 49
6
 49
-1.5
  0
LTYPE
  2
dashed_spaced
 70
   64
  3
----        --------        ----
 72
   65
 73
    2
 40
12
 49
6
 49
-6
  0
LTYPE
  2
long_dashed_dotted
 70
   64
  3
------------- --- --------------
 72
   65
 73
    4
 40
15.25
 49
12
 49
-1.5
 49
0.25
 49
-1.5
  0
LTYPE
  2
long_dashed_double-dotted
 70
   64
  3
----------- --- --- ------------
 72
   65
 73
    6
 40
17
 49
12
 49
-1.5
 49
0.25
 49
-1.5
 49
0.25
 49
-1.5
  0
LTYPE
  2
long_dashed_triplicate-dotted
 70
   64
  3
--------- --- --- --- ----------
 72
   65
 73
    8
 40
18.75
 49
12
 49
-1.5
 49
0.25
 49
-1.5
 49
0.25
 49
-1.5
 49
0.25
 49
-1.5
  0
LTYPE
  2
dotted
 70
   64
  3
   -       -       -       -    
 72
   65
 73
    2
 40
1.75
 49
0.25
 49
-1.5
  0
LTYPE
  2
chain
 70
   64
  3
-------------- -- --------------
 72
   65
 73
    4
 40
18.5
 49
12
 49
-1.5
 49
3.5
 49
-1.5
  0
LTYPE
  2
chain_double_dash
 70
   64
  3
------------ -- -- -------------
 72
   65
 73
    6
 40
23.5
 49
12
 49
-1.5
 49
3.5
 49
-1.5
 49
3.5
 49
-1.5
  0
LTYPE
  2
dashed_dotted
 70
   64
  3
-----------     -     ----------
 72
   65
 73
    4
 40
9.25
 49
6
 49
-1.5
 49
0.25
 49
-1.5
  0
LTYPE
  2
double-dashed_dotted
 70
   64
  3
------   -----------   -   -----
 72
   65
 73
    6
 40
16.75
 49
6
 49
-1.5
 49
6
 49
-1.5
 49
0.25
 49
-1.5
  0
LTYPE
  2
dashed_double-dotted
 70
   64
  3
---------    -    -    ---------
 72
   65
 73
    6
 40
11
 49
6
 49
-1.5
 49
0.25
 49
-1.5
 49
0.25
 49
-1.5
  0
LTYPE
  2
double-dashed_double-dotted
 70
   64
  3
-----   ---------   -   -   ----
 72
   65
 73
    8
 40
18.5
 49
6
 49
-1.5
 49
6
 49
-1.5
 49
0.25
 49
-1.5
 49
0.25
 49
-1.5
  0
LTYPE
  2
dashed_triplicate-dotted
 70
   64
  3
-------    -    -    -    ------
 72
   65
 73
    8
 40
12.75
 49
6
 49
-1.5
 49
0.25
 49
-1.5
 49
0.25
 49
-1.5
 49
0.25
 49
-1.5
  0
LTYPE
  2
double-dashed_triplicate-dotted
 70
   64
  3
-----  ---------  -  -  -  -----
 72
   65
 73
   10
 40
20.25
 49
6
 49
-1.5
 49
6
 49
-1.5
 49
0.25
 49
-1.5
 49
0.25
 49
-1.5
 49
0.25
 49
-1.5
  0
LTYPE
  2
undefined
 70
   64
  3
--------------------------------
 72
   65
 73
    0
 40
0
  0
LTYPE
  2
CENTER
 70
   64
  3
----------    ----    ----------
 72
   65
 73
    4
 40
50.799999999999983
 49
31.75
 49
-6.3499999999999979
 49
6.3499999999999979
 49
-6.3499999999999979
  0
LTYPE
  2
HIDDEN
 70
   64
  3
------     -----------     -----
 72
   65
 73
    2
 40
9.524999999999995
 49
6.3499999999999979
 49
-3.174999999999998
  0
LTYPE
  2
CENTER2_19
 70
   64
  3
----------    ----    ----------
 72
   65
 73
    4
 40
28.574999999999996
 49
19.050000000000001
 49
-3.1749999999999989
 49
3.1749999999999989
 49
-3.1749999999999989
  0
LTYPE
  2
DASHED
 70
   64
  3
------     -----------     -----
 72
   65
 73
    2
 40
19.049999999999997
 49
12.699999999999999
 49
-6.3499999999999988
  0
LTYPE
  2
DASH_CENTER
 70
   64
  3
-------------  --  -------------
 72
   65
 73
    4
 40
14
 49
11
 49
-1
 49
1
 49
-1
  0
LTYPE
  2
PHANTOM
 70
   64
  3
------------  -  -  ------------
 72
   65
 73
    6
 40
13.02
 49
10
 49
-1
 49
0.01
 49
-1
 49
0.01
 49
-1
  0
ENDTAB
  0
TABLE
  2
STYLE
  5
3
100
AcDbSymbolTable
 70
     1
  0
STYLE
  5
10
100
AcDbSymbolTableRecord
100
AcDbTextStyleTableRecord
  2
STANDARD
 70
     0
 40
0.0
 41
1.0
 50
0.0
 71
     0
 42
0.2
  3
txt
  4
bigfont.shx
  0
STYLE
  5
26
100
AcDbSymbolTableRecord
100
AcDbTextStyleTableRecord
  2
TATEGAKI
 70
    68
 40
0.0
 41
1.0
 50
0.0
 71
     0
 42
1.0
  3
txt
  4
bigfont.shx
  0
ENDTAB
  0
TABLE
  2
LAYER
 70
   11
  0
LAYER
  2
_0-1_1
 70
   64
 62
    7
  6
CONTINUOUS
  0
LAYER
  2
_0-2_0
 70
   64
 62
    7
  6
CONTINUOUS
  0
LAYER
  2
_0-3_寸法線
 70
   64
 62
    7
  6
CONTINUOUS
  0
LAYER
  2
_0-4_DEFPOINTS
 70
   64
 62
    7
  6
CONTINUOUS
  0
LAYER
  2
_0-5_図面枠
 70
   64
 62
    7
  6
CONTINUOUS
  0
LAYER
  2
_0-6_細線
 70
   64
 62
    7
  6
CONTINUOUS
  0
LAYER
  2
_0-7__0-0_
 70
   64
 62
    7
  6
CONTINUOUS
  0
LAYER
  2
_0-8_中心線
 70
   64
 62
    7
  6
CONTINUOUS
  0
LAYER
  2
_0-9_文字
 70
   64
 62
    7
  6
CONTINUOUS
  0
LAYER
  2
_0-a_ADD_LINE
 70
   64
 62
    7
  6
CONTINUOUS
  0
LAYER
  2
ADD_LINE
 70
   64
 62
    7
  6
CONTINUOUS
  0
ENDTAB
  0
ENDSEC
  0
SECTION
  2
BLOCKS
  0
ENDSEC
  0
SECTION
  2
ENTITIES
  0
LINE
  8
_0-4_DEFPOINTS
  6
CONTINUOUS
 62
    4
 10
-87.020939587858038
 20
-61.494373269099782
 11
506.97906041214196
 21
-61.494373269099782
  0
LINE
  8
_0-4_DEFPOINTS
  6
CONTINUOUS
 62
    4
 10
506.97906041214196
 20
-61.494373269099782
 11
506.97906041214196
 21
358.50562673090019
  0
LINE
  8
_0-4_DEFPOINTS
  6
CONTINUOUS
 62
    4
 10
506.97906041214196
 20
358.50562673090019
 11
-87.020939587858038
 21
358.50562673090019
  0
LINE
  8
_0-4_DEFPOINTS
  6
CONTINUOUS
 62
    4
 10
-87.020939587858038
 20
358.50562673090019
 11
-87.020939587858038
 21
-61.494373269099782
  0
LINE
  8
_0-5_図面枠
  6
CONTINUOUS
 62
    6
 10
-67.185818092649924
 20
340.9521834156202
 11
487.14393834212683
 21
340.9521834156202
  0
LINE
  8
_0-5_図面枠
  6
CONTINUOUS
 62
    6
 10
487.14393834212683
 20
-43.940930486262545
 11
-67.185818092649924
 21
-43.940930486262545
  0
LINE
  8
_0-5_図面枠
  6
CONTINUOUS
 62
    6
 10
-67.185818092649924
 20
-43.940930486262545
 11
-67.185818092649924
 21
340.9521834156202
  0
LINE
  8
_0-5_図面枠
  6
CONTINUOUS
 62
    6
 10
357.14393834212677
 20
-7.9409304898623247
 11
357.14393834212677
 21
-43.940930486262545
  0
LINE
  8
_0-5_図面枠
  6
CONTINUOUS
 62
    6
 10
487.14393834212683
 20
-7.9409304898623247
 11
102.25082444024355
 21
-7.9409304898623247
  0
LINE
  8
_0-6_細線
  6
CONTINUOUS
 62
    7
 10
125.51970670233027
 20
-36.979072841962164
 11
133.92740630672665
 21
-36.979072841962164
  0
LINE
  8
_0-6_細線
  6
CONTINUOUS
 62
    7
 10
133.92740630672665
 20
-36.979072841962164
 11
133.92740630672665
 21
-28.559534420478116
  0
LINE
  8
_0-6_細線
  6
CONTINUOUS
 62
    7
 10
125.51970670233027
 20
-28.559534420478116
 11
125.51970670233027
 21
-36.979072841962164
  0
LINE
  8
_0-6_細線
  6
CONTINUOUS
 62
    7
 10
133.92740630672665
 20
-28.559534420478116
 11
125.51970670233027
 21
-28.559534420478116
  0
LINE
  8
_0-6_細線
  6
CONTINUOUS
 62
    7
 10
134.88005063164357
 20
-25.813950894230487
 11
139.18005063164335
 21
-18.366132421684227
  0
LINE
  8
_0-6_細線
  6
CONTINUOUS
 62
    7
 10
134.88005063164357
 20
-25.813950894230487
 11
143.48005063164356
 21
-25.813950894230487
  0
LINE
  8
_0-6_細線
  6
CONTINUOUS
 62
    7
 10
139.18005063164335
 20
-18.366132421684227
 11
143.48005063164356
 21
-25.813950894230487
  0
CIRCLE
  8
_0-6_細線
  6
CONTINUOUS
 62
    7
 10
145.94558955198346
 20
-16.774592465674317
 40
2.9517431670324772
  0
LINE
  8
_0-6_細線
  6
CONTINUOUS
 62
    7
 10
151.87918134688445
 20
-32.586072517603128
 11
155.50371128457556
 21
-32.586072517603128
  0
LINE
  8
_0-6_細線
  6
CONTINUOUS
 62
    7
 10
156.43632660088525
 20
-34.586072517603128
 11
157.64872651208836
 21
-37.186072517603492
  0
LINE
  8
_0-6_細線
  6
CONTINUOUS
 62
    7
 10
150.94656603057436
 20
-34.586072517603128
 11
149.73416611937117
 21
-37.186072517603492
  0
LINE
  8
_0-6_細線
  6
CONTINUOUS
 62
    7
 10
153.69144631572976
 20
-28.699657750117325
 11
155.50371128457556
 21
-32.586072517603128
  0
LINE
  8
_0-6_細線
  6
CONTINUOUS
 62
    7
 10
153.69144631572976
 20
-28.699657750117325
 11
151.87918134688445
 21
-32.586072517603128
  0
LINE
  8
_0-6_細線
  6
CONTINUOUS
 62
    7
 10
152.50148668350016
 20
-25.675816423236569
 11
147.13416611937126
 21
-37.186072517603492
  0
LINE
  8
_0-6_細線
  6
CONTINUOUS
 62
    7
 10
168.18723226169027
 20
-27.675816423236569
 11
168.33686027819687
 21
-27.757929912755657
  0
LINE
  8
_0-6_細線
  6
CONTINUOUS
 62
    7
 10
168.33686027819687
 20
-27.757929912755657
 11
168.59205318379307
 21
-27.901388978251902
  0
LINE
  8
_0-6_細線
  6
CONTINUOUS
 62
    7
 10
168.59205318379307
 20
-27.901388978251902
 11
168.83950599714197
 21
-28.050081609213152
  0
LINE
  8
_0-6_細線
  6
CONTINUOUS
 62
    7
 10
168.83950599714197
 20
-28.050081609213152
 11
169.07431992568377
 21
-28.207320188843909
  0
LINE
  8
_0-6_細線
  6
CONTINUOUS
 62
    7
 10
169.07431992568377
 20
-28.207320188843909
 11
169.29159617685553
 21
-28.376417100350949
  0
LINE
  8
_0-6_細線
  6
CONTINUOUS
 62
    7
 10
169.29159617685553
 20
-28.376417100350949
 11
169.48643595809807
 21
-28.560684726938774
  0
LINE
  8
_0-6_細線
  6
CONTINUOUS
 62
    7
 10
169.48643595809807
 20
-28.560684726938774
 11
169.58723226168996
 21
-28.675816423236569
  0
LINE
  8
_0-6_細線
  6
CONTINUOUS
 62
    7
 10
169.58723226168996
 20
-28.675816423236569
 11
169.73112953615629
 21
-28.878885482785876
  0
LINE
  8
_0-6_細線
  6
CONTINUOUS
 62
    7
 10
169.73112953615629
 20
-28.878885482785876
 11
169.92204067766698
 21
-29.267241381816888
  0
LINE
  8
_0-6_細線
  6
CONTINUOUS
 62
    7
 10
169.92204067766698
 20
-29.267241381816888
 11
170.05091422443655
 21
-29.696346695698679
  0
LINE
  8
_0-6_細線
  6
CONTINUOUS
 62
    7
 10
170.05091422443655
 20
-29.696346695698679
 11
170.12978713219104
 21
-30.157304172280504
  0
LINE
  8
_0-6_細線
  6
CONTINUOUS
 62
    7
 10
170.12978713219104
 20
-30.157304172280504
 11
170.17069635665968
 21
-30.641216559410708
  0
LINE
  8
_0-6_細線
  6
CONTINUOUS
 62
    7
 10
170.17069635665968
 20
-30.641216559410708
 11
170.18567885357038
 21
-31.139186604939454
  0
LINE
  8
_0-6_細線
  6
CONTINUOUS
 62
    7
 10
170.18567885357038
 20
-31.139186604939454
 11
170.18723226169027
 21
-31.43094447042003
  0
LINE
  8
_0-6_細線
  6
CONTINUOUS
 62
    7
 10
170.18723226169027
 20
-31.43094447042003
 11
170.18567885357038
 21
-31.722702335900152
  0
LINE
  8
_0-6_細線
  6
CONTINUOUS
 62
    7
 10
170.18567885357038
 20
-31.722702335900152
 11
170.17069635665968
 21
-32.220672381429353
  0
LINE
  8
_0-6_細線
  6
CONTINUOUS
 62
    7
 10
170.17069635665968
 20
-32.220672381429353
 11
170.12978713219104
 21
-32.704584768559556
  0
LINE
  8
_0-6_細線
  6
CONTINUOUS
 62
    7
 10
170.12978713219104
 20
-32.704584768559556
 11
170.05091422443655
 21
-33.165542245140927
  0
LINE
  8
_0-6_細線
  6
CONTINUOUS
 62
    7
 10
170.05091422443655
 20
-33.165542245140927
 11
169.92204067766698
 21
-33.594647559023173
  0
LINE
  8
_0-6_細線
  6
CONTINUOUS
 62
    7
 10
169.92204067766698
 20
-33.594647559023173
 11
169.73112953615629
 21
-33.983003458054185
  0
LINE
  8
_0-6_細線
  6
CONTINUOUS
 62
    7
 10
169.73112953615629
 20
-33.983003458054185
 11
169.58723226168996
 21
-34.186072517603492
  0
LINE
  8
_0-6_細線
  6
CONTINUOUS
 62
    7
 10
169.58723226168996
 20
-34.186072517603492
 11
169.48643595809807
 21
-34.301204213901286
  0
LINE
  8
_0-6_細線
  6
CONTINUOUS
 62
    7
 10
169.48643595809807
 20
-34.301204213901286
 11
169.29159617685553
 21
-34.485471840489112
  0
LINE
  8
_0-6_細線
  6
CONTINUOUS
 62
    7
 10
169.29159617685553
 20
-34.485471840489112
 11
169.07431992568377
 21
-34.654568751996152
  0
LINE
  8
_0-6_細線
  6
CONTINUOUS
 62
    7
 10
169.07431992568377
 20
-34.654568751996152
 11
168.83950599714197
 21
-34.811807331626909
  0
LINE
  8
_0-6_細線
  6
CONTINUOUS
 62
    7
 10
168.83950599714197
 20
-34.811807331626909
 11
168.59205318379307
 21
-34.960499962588159
  0
LINE
  8
_0-6_細線
  6
CONTINUOUS
 62
    7
 10
168.59205318379307
 20
-34.960499962588159
 11
168.33686027819687
 21
-35.103959028084404
  0
LINE
  8
_0-6_細線
  6
CONTINUOUS
 62
    7
 10
168.33686027819687
 20
-35.103959028084404
 11
168.18723226169027
 21
-35.186072517603492
  0
LINE
  8
_0-6_細線
  6
CONTINUOUS
 62
    7
 10
168.18723226169027
 20
-37.186072517603492
 11
168.31820971473897
 21
-37.152164907693617
  0
LINE
  8
_0-6_細線
  6
CONTINUOUS
 62
    7
 10
168.31820971473897
 20
-37.152164907693617
 11
168.54416444565845
 21
-37.093116066311808
  0
LINE
  8
_0-6_細線
  6
CONTINUOUS
 62
    7
 10
168.54416444565845
 20
-37.093116066311808
 11
168.77048455437927
 21
-37.03243543329981
  0
LINE
  8
_0-6_細線
  6
CONTINUOUS
 62
    7
 10
168.77048455437927
 20
-37.03243543329981
 11
168.99740129267349
 21
-36.969090229145962
  0
LINE
  8
_0-6_細線
  6
CONTINUOUS
 62
    7
 10
168.99740129267349
 20
-36.969090229145962
 11
169.22514591231374
 21
-36.902047674338149
  0
LINE
  8
_0-6_細線
  6
CONTINUOUS
 62
    7
 10
169.22514591231374
 20
-36.902047674338149
 11
169.45394966507155
 21
-36.830274989363346
  0
LINE
  8
_0-6_細線
  6
CONTINUOUS
 62
    7
 10
169.45394966507155
 20
-36.830274989363346
 11
169.58723226168996
 21
-36.786072517603401
  0
LINE
  8
_0-6_細線
  6
CONTINUOUS
 62
    7
 10
169.58723226168996
 20
-36.786072517603401
 11
169.85224074027678
 21
-36.692107051242232
  0
LINE
  8
_0-6_細線
  6
CONTINUOUS
 62
    7
 10
169.85224074027678
 20
-36.692107051242232
 11
170.30604592247147
 21
-36.507825964656234
  0
LINE
  8
_0-6_細線
  6
CONTINUOUS
 62
    7
 10
170.30604592247147
 20
-36.507825964656234
 11
170.74454577924257
 21
-36.291501492783567
  0
LINE
  8
_0-6_細線
  6
CONTINUOUS
 62
    7
 10
170.74454577924257
 20
-36.291501492783567
 11
171.15451508347473
 21
-36.038655253888095
  0
LINE
  8
_0-6_細線
  6
CONTINUOUS
 62
    7
 10
171.15451508347473
 20
-36.038655253888095
 11
171.52272860805186
 21
-35.744808866233228
  0
LINE
  8
_0-6_細線
  6
CONTINUOUS
 62
    7
 10
171.52272860805186
 20
-35.744808866233228
 11
171.83596112585946
 21
-35.405483948083287
  0
LINE
  8
_0-6_細線
  6
CONTINUOUS
 62
    7
 10
171.83596112585946
 20
-35.405483948083287
 11
171.98723226168994
 21
-35.186072517603492
  0
LINE
  8
_0-6_細線
  6
CONTINUOUS
 62
    7
 10
171.98723226168994
 20
-35.186072517603492
 11
172.03737326318355
 21
-35.099703271557331
  0
LINE
  8
_0-6_細線
  6
CONTINUOUS
 62
    7
 10
172.03737326318355
 20
-35.099703271557331
 11
172.11619185613358
 21
-34.945639054883571
  0
LINE
  8
_0-6_細線
  6
CONTINUOUS
 62
    7
 10
172.11619185613358
 20
-34.945639054883571
 11
172.18644810015365
 21
-34.786016538973485
  0
LINE
  8
_0-6_細線
  6
CONTINUOUS
 62
    7
 10
172.18644810015365
 20
-34.786016538973485
 11
172.24941834786404
 21
-34.621955339802838
  0
LINE
  8
_0-6_細線
  6
CONTINUOUS
 62
    7
 10
172.24941834786404
 20
-34.621955339802838
 11
172.30637895188624
 21
-34.454575073346945
  0
LINE
  8
_0-6_細線
  6
CONTINUOUS
 62
    7
 10
172.30637895188624
 20
-34.454575073346945
 11
172.35860626484038
 21
-34.284995355582026
  0
LINE
  8
_0-6_細線
  6
CONTINUOUS
 62
    7
 10
172.35860626484038
 20
-34.284995355582026
 11
172.38723226169009
 21
-34.186072517603492
  0
LINE
  8
_0-6_細線
  6
CONTINUOUS
 62
    7
 10
172.38723226169009
 20
-34.186072517603492
 11
172.45686259157014
 21
-33.929617855273221
  0
LINE
  8
_0-6_細線
  6
CONTINUOUS
 62
    7
 10
172.45686259157014
 20
-33.929617855273221
 11
172.56216901797438
 21
-33.485448044486105
  0
LINE
  8
_0-6_細線
  6
CONTINUOUS
 62
    7
 10
172.56216901797438
 20
-33.485448044486105
 11
172.64819598433888
 21
-33.039139777952272
  0
LINE
  8
_0-6_細線
  6
CONTINUOUS
 62
    7
 10
172.64819598433888
 20
-33.039139777952272
 11
172.71422976246436
 21
-32.591159967406469
  0
LINE
  8
_0-6_細線
  6
CONTINUOUS
 62
    7
 10
172.71422976246436
 20
-32.591159967406469
 11
172.75955662415134
 21
-32.141975524583899
  0
LINE
  8
_0-6_細線
  6
CONTINUOUS
 62
    7
 10
172.75955662415134
 20
-32.141975524583899
 11
172.78346284119993
 21
-31.692053361220218
  0
LINE
  8
_0-6_細線
  6
CONTINUOUS
 62
    7
 10
172.78346284119993
 20
-31.692053361220218
 11
172.78723226169018
 21
-31.43094447042003
  0
LINE
  8
_0-6_細線
  6
CONTINUOUS
 62
    7
 10
172.78723226169018
 20
-31.43094447042003
 11
172.78346284119993
 21
-31.169835579619843
  0
LINE
  8
_0-6_細線
  6
CONTINUOUS
 62
    7
 10
172.78346284119993
 20
-31.169835579619843
 11
172.75955662415134
 21
-30.719913416256162
  0
LINE
  8
_0-6_細線
  6
CONTINUOUS
 62
    7
 10
172.75955662415134
 20
-30.719913416256162
 11
172.71422976246436
 21
-30.270728973433592
  0
LINE
  8
_0-6_細線
  6
CONTINUOUS
 62
    7
 10
172.71422976246436
 20
-30.270728973433592
 11
172.64819598433888
 21
-29.822749162887789
  0
LINE
  8
_0-6_細線
  6
CONTINUOUS
 62
    7
 10
172.64819598433888
 20
-29.822749162887789
 11
172.56216901797438
 21
-29.376440896353955
  0
LINE
  8
_0-6_細線
  6
CONTINUOUS
 62
    7
 10
172.56216901797438
 20
-29.376440896353955
 11
172.45686259157014
 21
-28.932271085566839
  0
LINE
  8
_0-6_細線
  6
CONTINUOUS
 62
    7
 10
172.45686259157014
 20
-28.932271085566839
 11
172.38723226169009
 21
-28.675816423236569
  0
LINE
  8
_0-6_細線
  6
CONTINUOUS
 62
    7
 10
172.38723226169009
 20
-28.675816423236569
 11
172.35860626484038
 21
-28.576893585258034
  0
LINE
  8
_0-6_細線
  6
CONTINUOUS
 62
    7
 10
172.35860626484038
 20
-28.576893585258034
 11
172.30637895188624
 21
-28.407313867493116
  0
LINE
  8
_0-6_細線
  6
CONTINUOUS
 62
    7
 10
172.30637895188624
 20
-28.407313867493116
 11
172.24941834786404
 21
-28.239933601037222
  0
LINE
  8
_0-6_細線
  6
CONTINUOUS
 62
    7
 10
172.24941834786404
 20
-28.239933601037222
 11
172.18644810015365
 21
-28.075872401866576
  0
LINE
  8
_0-6_細線
  6
CONTINUOUS
 62
    7
 10
172.18644810015365
 20
-28.075872401866576
 11
172.11619185613358
 21
-27.916249885956489
  0
LINE
  8
_0-6_細線
  6
CONTINUOUS
 62
    7
 10
172.11619185613358
 20
-27.916249885956489
 11
172.03737326318355
 21
-27.762185669282729
  0
LINE
  8
_0-6_細線
  6
CONTINUOUS
 62
    7
 10
172.03737326318355
 20
-27.762185669282729
 11
171.98723226168994
 21
-27.675816423236569
  0
LINE
  8
_0-6_細線
  6
CONTINUOUS
 62
    7
 10
171.98723226168994
 20
-27.675816423236569
 11
171.83596112585946
 21
-27.456404992756774
  0
LINE
  8
_0-6_細線
  6
CONTINUOUS
 62
    7
 10
171.83596112585946
 20
-27.456404992756774
 11
171.52272860805186
 21
-27.117080074606832
  0
LINE
  8
_0-6_細線
  6
CONTINUOUS
 62
    7
 10
171.52272860805186
 20
-27.117080074606832
 11
171.15451508347473
 21
-26.823233686951966
  0
LINE
  8
_0-6_細線
  6
CONTINUOUS
 62
    7
 10
171.15451508347473
 20
-26.823233686951966
 11
170.74454577924257
 21
-26.570387448056493
  0
LINE
  8
_0-6_細線
  6
CONTINUOUS
 62
    7
 10
170.74454577924257
 20
-26.570387448056493
 11
170.30604592247147
 21
-26.354062976183826
  0
LINE
  8
_0-6_細線
  6
CONTINUOUS
 62
    7
 10
170.30604592247147
 20
-26.354062976183826
 11
169.85224074027678
 21
-26.169781889597829
  0
LINE
  8
_0-6_細線
  6
CONTINUOUS
 62
    7
 10
169.85224074027678
 20
-26.169781889597829
 11
169.58723226168996
 21
-26.07581642323666
  0
LINE
  8
_0-6_細線
  6
CONTINUOUS
 62
    7
 10
169.58723226168996
 20
-26.07581642323666
 11
169.45394966507155
 21
-26.031613951476714
  0
LINE
  8
_0-6_細線
  6
CONTINUOUS
 62
    7
 10
169.45394966507155
 20
-26.031613951476714
 11
169.22514591231374
 21
-25.959841266501911
  0
LINE
  8
_0-6_細線
  6
CONTINUOUS
 62
    7
 10
169.22514591231374
 20
-25.959841266501911
 11
168.99740129267349
 21
-25.892798711694098
  0
LINE
  8
_0-6_細線
  6
CONTINUOUS
 62
    7
 10
168.99740129267349
 20
-25.892798711694098
 11
168.77048455437927
 21
-25.829453507540251
  0
LINE
  8
_0-6_細線
  6
CONTINUOUS
 62
    7
 10
168.77048455437927
 20
-25.829453507540251
 11
168.54416444565845
 21
-25.768772874528253
  0
LINE
  8
_0-6_細線
  6
CONTINUOUS
 62
    7
 10
168.54416444565845
 20
-25.768772874528253
 11
168.31820971473897
 21
-25.709724033146443
  0
LINE
  8
_0-6_細線
  6
CONTINUOUS
 62
    7
 10
168.31820971473897
 20
-25.709724033146443
 11
168.18723226169027
 21
-25.675816423236569
  0
LINE
  8
_0-6_細線
  6
CONTINUOUS
 62
    7
 10
175.38723226169009
 20
-25.675816423236569
 11
179.45455282581838
 21
-34.398213520940857
  0
LINE
  8
_0-6_細線
  6
CONTINUOUS
 62
    7
 10
183.52187338994668
 20
-25.675816423236569
 11
179.45455282581838
 21
-34.398213520940857
  0
LINE
  8
_0-6_細線
  6
CONTINUOUS
 62
    7
 10
172.78723226169018
 20
-25.675816423236569
 11
178.15455282581866
 21
-37.186072517603492
  0
LINE
  8
_0-6_細線
  6
CONTINUOUS
 62
    7
 10
180.75455282581856
 20
-37.186072517603492
 11
186.12187338994704
 21
-25.675816423236569
  0
LINE
  8
_0-6_細線
  6
CONTINUOUS
 62
    7
 10
188.12187338994704
 20
-25.675816423236569
 11
182.75455282581856
 21
-37.186072517603492
  0
LINE
  8
_0-6_細線
  6
CONTINUOUS
 62
    7
 10
190.79274131084077
 20
-25.675816423236569
 11
196.16006187496879
 21
-37.186072517603492
  0
LINE
  8
_0-6_細線
  6
CONTINUOUS
 62
    7
 10
150.94656603057436
 20
-34.586072517603128
 11
156.43632660088525
 21
-34.586072517603128
  0
LINE
  8
_0-6_細線
  6
CONTINUOUS
 62
    7
 10
186.56695273702127
 20
-34.586072517603128
 11
192.34766196376609
 21
-34.586072517603128
  0
LINE
  8
_0-6_細線
  6
CONTINUOUS
 62
    7
 10
187.49956805333136
 20
-32.586072517603128
 11
191.41504664745594
 21
-32.586072517603128
  0
LINE
  8
_0-6_細線
  6
CONTINUOUS
 62
    7
 10
199.91315879773515
 20
-27.675816423236569
 11
205.85582635991364
 21
-37.186072517603492
  0
LINE
  8
_0-6_細線
  6
CONTINUOUS
 62
    7
 10
207.07067755298453
 20
-34.978665016961799
 11
207.07067755298453
 21
-25.675816423236569
  0
LINE
  8
_0-6_細線
  6
CONTINUOUS
 62
    7
 10
209.27067755298486
 20
-37.186072517603492
 11
209.27067755298486
 21
-25.675816423236569
  0
LINE
  8
_0-6_細線
  6
CONTINUOUS
 62
    7
 10
201.25761258131314
 20
-25.675816423236569
 11
207.07067755298453
 21
-34.978665016961799
  0
LINE
  8
_0-6_細線
  6
CONTINUOUS
 62
    7
 10
197.31315879773524
 20
-25.675816423236569
 11
197.31315879773524
 21
-37.186072517603492
  0
LINE
  8
_0-6_細線
  6
CONTINUOUS
 62
    7
 10
168.18723226169027
 20
-27.675816423236569
 11
164.18723226169027
 21
-27.675816423236569
  0
LINE
  8
_0-6_細線
  6
CONTINUOUS
 62
    7
 10
164.18723226169027
 20
-35.186072517603492
 11
168.18723226169027
 21
-35.186072517603492
  0
LINE
  8
_0-6_細線
  6
CONTINUOUS
 62
    7
 10
191.41504664745594
 20
-32.586072517603128
 11
189.45730735039365
 21
-28.387687046499735
  0
LINE
  8
_0-6_細線
  6
CONTINUOUS
 62
    7
 10
187.49956805333136
 20
-32.586072517603128
 11
189.45730735039365
 21
-28.387687046499735
  0
LINE
  8
_0-6_細線
  6
CONTINUOUS
 62
    7
 10
185.35455282581847
 20
-37.186072517603492
 11
186.56695273702127
 21
-34.586072517603128
  0
LINE
  8
_0-6_細線
  6
CONTINUOUS
 62
    7
 10
193.56006187496888
 20
-37.186072517603492
 11
192.34766196376609
 21
-34.586072517603128
  0
LINE
  8
_0-6_細線
  6
CONTINUOUS
 62
    7
 10
199.91315879773515
 20
-27.675816423236569
 11
199.91315879773515
 21
-37.186072517603492
  0
LINE
  8
_0-6_細線
  6
CONTINUOUS
 62
    7
 10
147.13416611937126
 20
-37.186072517603492
 11
149.73416611937117
 21
-37.186072517603492
  0
LINE
  8
_0-6_細線
  6
CONTINUOUS
 62
    7
 10
157.64872651208836
 20
-37.186072517603492
 11
160.24872651208835
 21
-37.186072517603492
  0
LINE
  8
_0-6_細線
  6
CONTINUOUS
 62
    7
 10
154.88140594796027
 20
-25.675816423236569
 11
160.24872651208835
 21
-37.186072517603492
  0
LINE
  8
_0-6_細線
  6
CONTINUOUS
 62
    7
 10
154.88140594796027
 20
-25.675816423236569
 11
152.50148668350016
 21
-25.675816423236569
  0
LINE
  8
_0-6_細線
  6
CONTINUOUS
 62
    7
 10
161.58723226168985
 20
-25.675816423236569
 11
161.58723226168985
 21
-37.186072517603492
  0
LINE
  8
_0-6_細線
  6
CONTINUOUS
 62
    7
 10
164.18723226169027
 20
-27.675816423236569
 11
164.18723226169027
 21
-35.186072517603492
  0
LINE
  8
_0-6_細線
  6
CONTINUOUS
 62
    7
 10
161.58723226168985
 20
-37.186072517603492
 11
168.18723226169027
 21
-37.186072517603492
  0
LINE
  8
_0-6_細線
  6
CONTINUOUS
 62
    7
 10
168.18723226169027
 20
-25.675816423236569
 11
161.58723226168985
 21
-25.675816423236569
  0
LINE
  8
_0-6_細線
  6
CONTINUOUS
 62
    7
 10
175.38723226169009
 20
-25.675816423236569
 11
172.78723226169018
 21
-25.675816423236569
  0
LINE
  8
_0-6_細線
  6
CONTINUOUS
 62
    7
 10
178.15455282581866
 20
-37.186072517603492
 11
180.75455282581856
 21
-37.186072517603492
  0
LINE
  8
_0-6_細線
  6
CONTINUOUS
 62
    7
 10
186.12187338994704
 20
-25.675816423236569
 11
183.52187338994668
 21
-25.675816423236569
  0
LINE
  8
_0-6_細線
  6
CONTINUOUS
 62
    7
 10
182.75455282581856
 20
-37.186072517603492
 11
185.35455282581847
 21
-37.186072517603492
  0
LINE
  8
_0-6_細線
  6
CONTINUOUS
 62
    7
 10
193.56006187496888
 20
-37.186072517603492
 11
196.16006187496879
 21
-37.186072517603492
  0
LINE
  8
_0-6_細線
  6
CONTINUOUS
 62
    7
 10
197.31315879773524
 20
-37.186072517603492
 11
199.91315879773515
 21
-37.186072517603492
  0
LINE
  8
_0-6_細線
  6
CONTINUOUS
 62
    7
 10
205.85582635991364
 20
-37.186072517603492
 11
209.27067755298486
 21
-37.186072517603492
  0
LINE
  8
_0-6_細線
  6
CONTINUOUS
 62
    7
 10
209.27067755298486
 20
-25.675816423236569
 11
207.07067755298453
 21
-25.675816423236569
  0
LINE
  8
_0-6_細線
  6
CONTINUOUS
 62
    7
 10
201.25761258131314
 20
-25.675816423236569
 11
197.31315879773524
 21
-25.675816423236569
  0
LINE
  8
_0-6_細線
  6
CONTINUOUS
 62
    7
 10
190.79274131084077
 20
-25.675816423236569
 11
188.12187338994704
 21
-25.675816423236569
  0
LINE
  8
_0-6_細線
  6
CONTINUOUS
 62
    7
 10
147.27884091216376
 20
-36.875816423236842
 11
149.87884091216367
 21
-36.875816423236842
  0
LINE
  8
_0-6_細線
  6
CONTINUOUS
 62
    7
 10
157.50405171929586
 20
-36.875816423236842
 11
160.10405171929577
 21
-36.875816423236842
  0
LINE
  8
_0-6_細線
  6
CONTINUOUS
 62
    7
 10
161.58723226168985
 20
-36.875816423236842
 11
169.30876837528308
 21
-36.875816423236842
  0
LINE
  8
_0-6_細線
  6
CONTINUOUS
 62
    7
 10
178.00987803302615
 20
-36.875816423236842
 11
180.89922761861067
 21
-36.875816423236842
  0
LINE
  8
_0-6_細線
  6
CONTINUOUS
 62
    7
 10
182.89922761861067
 20
-36.875816423236842
 11
185.49922761861058
 21
-36.875816423236842
  0
LINE
  8
_0-6_細線
  6
CONTINUOUS
 62
    7
 10
193.41538708217666
 20
-36.875816423236842
 11
196.01538708217709
 21
-36.875816423236842
  0
LINE
  8
_0-6_細線
  6
CONTINUOUS
 62
    7
 10
197.31315879773524
 20
-36.875816423236842
 11
199.91315879773515
 21
-36.875816423236842
  0
LINE
  8
_0-6_細線
  6
CONTINUOUS
 62
    7
 10
205.66195683530105
 20
-36.875816423236842
 11
209.27067755298486
 21
-36.875816423236842
  0
LINE
  8
_0-6_細線
  6
CONTINUOUS
 62
    7
 10
147.46536397542587
 20
-36.475816423236751
 11
150.06536397542567
 21
-36.475816423236751
  0
LINE
  8
_0-6_細線
  6
CONTINUOUS
 62
    7
 10
157.31752865603377
 20
-36.475816423236751
 11
159.91752865603416
 21
-36.475816423236751
  0
LINE
  8
_0-6_細線
  6
CONTINUOUS
 62
    7
 10
161.58723226168985
 20
-36.475816423236751
 11
170.37093076516226
 21
-36.475816423236751
  0
LINE
  8
_0-6_細線
  6
CONTINUOUS
 62
    7
 10
177.82335496976447
 20
-36.475816423236751
 11
181.08575068187264
 21
-36.475816423236751
  0
LINE
  8
_0-6_細線
  6
CONTINUOUS
 62
    7
 10
183.08575068187264
 20
-36.475816423236751
 11
185.68575068187255
 21
-36.475816423236751
  0
LINE
  8
_0-6_細線
  6
CONTINUOUS
 62
    7
 10
193.22886401891463
 20
-36.475816423236751
 11
195.82886401891454
 21
-36.475816423236751
  0
LINE
  8
_0-6_細線
  6
CONTINUOUS
 62
    7
 10
197.31315879773524
 20
-36.475816423236751
 11
199.91315879773515
 21
-36.475816423236751
  0
LINE
  8
_0-6_細線
  6
CONTINUOUS
 62
    7
 10
205.41200909453738
 20
-36.475816423236751
 11
209.27067755298486
 21
-36.475816423236751
  0
LINE
  8
_0-6_細線
  6
CONTINUOUS
 62
    7
 10
147.65188703868736
 20
-36.07581642323666
 11
150.25188703868776
 21
-36.07581642323666
  0
LINE
  8
_0-6_細線
  6
CONTINUOUS
 62
    7
 10
157.13100559277225
 20
-36.07581642323666
 11
159.73100559277216
 21
-36.07581642323666
  0
LINE
  8
_0-6_細線
  6
CONTINUOUS
 62
    7
 10
161.58723226168985
 20
-36.07581642323666
 11
171.09426131498299
 21
-36.07581642323666
  0
LINE
  8
_0-6_細線
  6
CONTINUOUS
 62
    7
 10
177.63683190650204
 20
-36.07581642323666
 11
181.27227374513478
 21
-36.07581642323666
  0
LINE
  8
_0-6_細線
  6
CONTINUOUS
 62
    7
 10
183.27227374513478
 20
-36.07581642323666
 11
185.87227374513463
 21
-36.07581642323666
  0
LINE
  8
_0-6_細線
  6
CONTINUOUS
 62
    7
 10
193.04234095565266
 20
-36.07581642323666
 11
195.64234095565257
 21
-36.07581642323666
  0
LINE
  8
_0-6_細線
  6
CONTINUOUS
 62
    7
 10
197.31315879773524
 20
-36.07581642323666
 11
199.91315879773515
 21
-36.07581642323666
  0
LINE
  8
_0-6_細線
  6
CONTINUOUS
 62
    7
 10
205.16206135377365
 20
-36.07581642323666
 11
209.27067755298486
 21
-36.07581642323666
  0
LINE
  8
_0-6_細線
  6
CONTINUOUS
 62
    7
 10
147.83841010194945
 20
-35.675816423236569
 11
150.43841010195027
 21
-35.675816423236569
  0
LINE
  8
_0-6_細線
  6
CONTINUOUS
 62
    7
 10
156.94448252951017
 20
-35.675816423236569
 11
159.54448252951005
 21
-35.675816423236569
  0
LINE
  8
_0-6_細線
  6
CONTINUOUS
 62
    7
 10
161.58723226168985
 20
-35.675816423236569
 11
171.58641587495617
 21
-35.675816423236569
  0
LINE
  8
_0-6_細線
  6
CONTINUOUS
 62
    7
 10
177.45030884323995
 20
-35.675816423236569
 11
181.45879680839727
 21
-35.675816423236569
  0
LINE
  8
_0-6_細線
  6
CONTINUOUS
 62
    7
 10
183.45879680839727
 20
-35.675816423236569
 11
186.05879680839718
 21
-35.675816423236569
  0
LINE
  8
_0-6_細線
  6
CONTINUOUS
 62
    7
 10
192.85581789239069
 20
-35.675816423236569
 11
195.45581789239054
 21
-35.675816423236569
  0
LINE
  8
_0-6_細線
  6
CONTINUOUS
 62
    7
 10
197.31315879773524
 20
-35.675816423236569
 11
199.91315879773515
 21
-35.675816423236569
  0
LINE
  8
_0-6_細線
  6
CONTINUOUS
 62
    7
 10
204.91211361300998
 20
-35.675816423236569
 11
209.27067755298486
 21
-35.675816423236569
  0
LINE
  8
_0-6_細線
  6
CONTINUOUS
 62
    7
 10
148.02493316521145
 20
-35.275816423236932
 11
150.62493316521187
 21
-35.275816423236932
  0
LINE
  8
_0-6_細線
  6
CONTINUOUS
 62
    7
 10
156.75795946624766
 20
-35.275816423236932
 11
159.35795946624765
 21
-35.275816423236932
  0
LINE
  8
_0-6_細線
  6
CONTINUOUS
 62
    7
 10
161.58723226168985
 20
-35.275816423236932
 11
171.92535917463448
 21
-35.275816423236932
  0
LINE
  8
_0-6_細線
  6
CONTINUOUS
 62
    7
 10
177.26378577997798
 20
-35.275816423236932
 11
181.64531987165878
 21
-35.275816423236932
  0
LINE
  8
_0-6_細線
  6
CONTINUOUS
 62
    7
 10
183.64531987165878
 20
-35.275816423236932
 11
186.24531987165864
 21
-35.275816423236932
  0
LINE
  8
_0-6_細線
  6
CONTINUOUS
 62
    7
 10
192.66929482912866
 20
-35.275816423236932
 11
195.26929482912897
 21
-35.275816423236932
  0
LINE
  8
_0-6_細線
  6
CONTINUOUS
 62
    7
 10
197.31315879773524
 20
-35.275816423236932
 11
199.91315879773515
 21
-35.275816423236932
  0
LINE
  8
_0-6_細線
  6
CONTINUOUS
 62
    7
 10
204.66216587224625
 20
-35.275816423236932
 11
209.27067755298486
 21
-35.275816423236932
  0
LINE
  8
_0-6_細線
  6
CONTINUOUS
 62
    7
 10
148.21145622847396
 20
-34.875816423236842
 11
150.81145622847387
 21
-34.875816423236842
  0
LINE
  8
_0-6_細線
  6
CONTINUOUS
 62
    7
 10
156.57143640298565
 20
-34.875816423236842
 11
159.17143640298607
 21
-34.875816423236842
  0
LINE
  8
_0-6_細線
  6
CONTINUOUS
 62
    7
 10
161.58723226168985
 20
-34.875816423236842
 11
164.18723226169027
 21
-34.875816423236842
  0
LINE
  8
_0-6_細線
  6
CONTINUOUS
 62
    7
 10
168.73298269671776
 20
-34.875816423236842
 11
172.14692358479465
 21
-34.875816423236842
  0
LINE
  8
_0-6_細線
  6
CONTINUOUS
 62
    7
 10
177.07726271671646
 20
-34.875816423236842
 11
181.83184293492076
 21
-34.875816423236842
  0
LINE
  8
_0-6_細線
  6
CONTINUOUS
 62
    7
 10
183.83184293492076
 20
-34.875816423236842
 11
186.43184293492078
 21
-34.875816423236842
  0
LINE
  8
_0-6_細線
  6
CONTINUOUS
 62
    7
 10
192.48277176586708
 20
-34.875816423236842
 11
195.08277176586694
 21
-34.875816423236842
  0
LINE
  8
_0-6_細線
  6
CONTINUOUS
 62
    7
 10
197.31315879773524
 20
-34.875816423236842
 11
199.91315879773515
 21
-34.875816423236842
  0
LINE
  8
_0-6_細線
  6
CONTINUOUS
 62
    7
 10
204.41221813148218
 20
-34.875816423236842
 11
207.00641061887859
 21
-34.875816423236842
  0
LINE
  8
_0-6_細線
  6
CONTINUOUS
 62
    7
 10
207.07067755298453
 20
-34.875816423236842
 11
209.27067755298486
 21
-34.875816423236842
  0
LINE
  8
_0-6_細線
  6
CONTINUOUS
 62
    7
 10
148.39797929173557
 20
-34.475816423236751
 11
158.98491333972407
 21
-34.475816423236751
  0
LINE
  8
_0-6_細線
  6
CONTINUOUS
 62
    7
 10
161.58723226168985
 20
-34.475816423236751
 11
164.18723226169027
 21
-34.475816423236751
  0
LINE
  8
_0-6_細線
  6
CONTINUOUS
 62
    7
 10
169.30180556317129
 20
-34.475816423236751
 11
172.29915038100648
 21
-34.475816423236751
  0
LINE
  8
_0-6_細線
  6
CONTINUOUS
 62
    7
 10
176.89073965345398
 20
-34.475816423236751
 11
182.01836599818284
 21
-34.475816423236751
  0
LINE
  8
_0-6_細線
  6
CONTINUOUS
 62
    7
 10
184.01836599818284
 20
-34.475816423236751
 11
194.89624870260496
 21
-34.475816423236751
  0
LINE
  8
_0-6_細線
  6
CONTINUOUS
 62
    7
 10
197.31315879773524
 20
-34.475816423236751
 11
199.91315879773515
 21
-34.475816423236751
  0
LINE
  8
_0-6_細線
  6
CONTINUOUS
 62
    7
 10
204.16227039071845
 20
-34.475816423236751
 11
206.75646287811537
 21
-34.475816423236751
  0
LINE
  8
_0-6_細線
  6
CONTINUOUS
 62
    7
 10
207.07067755298453
 20
-34.475816423236751
 11
209.27067755298486
 21
-34.475816423236751
  0
LINE
  8
_0-6_細線
  6
CONTINUOUS
 62
    7
 10
148.58450235499757
 20
-34.07581642323666
 11
158.79839027646196
 21
-34.07581642323666
  0
LINE
  8
_0-6_細線
  6
CONTINUOUS
 62
    7
 10
161.58723226168985
 20
-34.07581642323666
 11
164.18723226169027
 21
-34.07581642323666
  0
LINE
  8
_0-6_細線
  6
CONTINUOUS
 62
    7
 10
169.66536110863416
 20
-34.07581642323666
 11
172.41716803338687
 21
-34.07581642323666
  0
LINE
  8
_0-6_細線
  6
CONTINUOUS
 62
    7
 10
176.70421659019235
 20
-34.07581642323666
 11
179.30421659019174
 21
-34.07581642323666
  0
LINE
  8
_0-6_細線
  6
CONTINUOUS
 62
    7
 10
179.60488906144496
 20
-34.07581642323666
 11
182.20488906144539
 21
-34.07581642323666
  0
LINE
  8
_0-6_細線
  6
CONTINUOUS
 62
    7
 10
184.20488906144539
 20
-34.07581642323666
 11
194.70972563934248
 21
-34.07581642323666
  0
LINE
  8
_0-6_細線
  6
CONTINUOUS
 62
    7
 10
197.31315879773524
 20
-34.07581642323666
 11
199.91315879773515
 21
-34.07581642323666
  0
LINE
  8
_0-6_細線
  6
CONTINUOUS
 62
    7
 10
203.91232264995477
 20
-34.07581642323666
 11
206.50651513735124
 21
-34.07581642323666
  0
LINE
  8
_0-6_細線
  6
CONTINUOUS
 62
    7
 10
207.07067755298453
 20
-34.07581642323666
 11
209.27067755298486
 21
-34.07581642323666
  0
LINE
  8
_0-6_細線
  6
CONTINUOUS
 62
    7
 10
148.77102541826005
 20
-33.675816423236569
 11
158.61186721320036
 21
-33.675816423236569
  0
LINE
  8
_0-6_細線
  6
CONTINUOUS
 62
    7
 10
161.58723226168985
 20
-33.675816423236569
 11
164.18723226169027
 21
-33.675816423236569
  0
LINE
  8
_0-6_細線
  6
CONTINUOUS
 62
    7
 10
169.88213902930579
 20
-33.675816423236569
 11
172.51703534796815
 21
-33.675816423236569
  0
LINE
  8
_0-6_細線
  6
CONTINUOUS
 62
    7
 10
176.51769352692986
 20
-33.675816423236569
 11
179.11769352692977
 21
-33.675816423236569
  0
LINE
  8
_0-6_細線
  6
CONTINUOUS
 62
    7
 10
179.79141212470694
 20
-33.675816423236569
 11
182.39141212470696
 21
-33.675816423236569
  0
LINE
  8
_0-6_細線
  6
CONTINUOUS
 62
    7
 10
184.39141212470685
 20
-33.675816423236569
 11
194.52320257608085
 21
-33.675816423236569
  0
LINE
  8
_0-6_細線
  6
CONTINUOUS
 62
    7
 10
197.31315879773524
 20
-33.675816423236569
 11
199.91315879773515
 21
-33.675816423236569
  0
LINE
  8
_0-6_細線
  6
CONTINUOUS
 62
    7
 10
203.66237490919116
 20
-33.675816423236569
 11
206.25656739658808
 21
-33.675816423236569
  0
LINE
  8
_0-6_細線
  6
CONTINUOUS
 62
    7
 10
207.07067755298453
 20
-33.675816423236569
 11
209.27067755298486
 21
-33.675816423236569
  0
LINE
  8
_0-6_細線
  6
CONTINUOUS
 62
    7
 10
148.95754848152205
 20
-33.275816423236932
 11
158.42534414993796
 21
-33.275816423236932
  0
LINE
  8
_0-6_細線
  6
CONTINUOUS
 62
    7
 10
161.58723226168985
 20
-33.275816423236932
 11
164.18723226169027
 21
-33.275816423236932
  0
LINE
  8
_0-6_細線
  6
CONTINUOUS
 62
    7
 10
170.01779549113576
 20
-33.275816423236932
 11
172.60257600521277
 21
-33.275816423236932
  0
LINE
  8
_0-6_細線
  6
CONTINUOUS
 62
    7
 10
176.33117046366829
 20
-33.275816423236932
 11
178.93117046366825
 21
-33.275816423236932
  0
LINE
  8
_0-6_細線
  6
CONTINUOUS
 62
    7
 10
179.97793518796908
 20
-33.275816423236932
 11
182.57793518796899
 21
-33.275816423236932
  0
LINE
  8
_0-6_細線
  6
CONTINUOUS
 62
    7
 10
184.57793518796899
 20
-33.275816423236932
 11
194.33667951281876
 21
-33.275816423236932
  0
LINE
  8
_0-6_細線
  6
CONTINUOUS
 62
    7
 10
197.31315879773524
 20
-33.275816423236932
 11
199.91315879773515
 21
-33.275816423236932
  0
LINE
  8
_0-6_細線
  6
CONTINUOUS
 62
    7
 10
203.41242716842748
 20
-33.275816423236932
 11
206.00661965582384
 21
-33.275816423236932
  0
LINE
  8
_0-6_細線
  6
CONTINUOUS
 62
    7
 10
207.07067755298453
 20
-33.275816423236932
 11
209.27067755298486
 21
-33.275816423236932
  0
LINE
  8
_0-6_細線
  6
CONTINUOUS
 62
    7
 10
149.14407154478366
 20
-32.875816423236842
 11
158.23882108667587
 21
-32.875816423236842
  0
LINE
  8
_0-6_細線
  6
CONTINUOUS
 62
    7
 10
161.58723226168985
 20
-32.875816423236842
 11
164.18723226169027
 21
-32.875816423236842
  0
LINE
  8
_0-6_細線
  6
CONTINUOUS
 62
    7
 10
170.10048825064518
 20
-32.875816423236842
 11
172.67227041339657
 21
-32.875816423236842
  0
LINE
  8
_0-6_細線
  6
CONTINUOUS
 62
    7
 10
176.14464740040626
 20
-32.875816423236842
 11
178.74464740040617
 21
-32.875816423236842
  0
LINE
  8
_0-6_細線
  6
CONTINUOUS
 62
    7
 10
180.16445825123066
 20
-32.875816423236842
 11
182.76445825123045
 21
-32.875816423236842
  0
LINE
  8
_0-6_細線
  6
CONTINUOUS
 62
    7
 10
184.76445825123045
 20
-32.875816423236842
 11
194.15015644955679
 21
-32.875816423236842
  0
LINE
  8
_0-6_細線
  6
CONTINUOUS
 62
    7
 10
197.31315879773524
 20
-32.875816423236842
 11
199.91315879773515
 21
-32.875816423236842
  0
LINE
  8
_0-6_細線
  6
CONTINUOUS
 62
    7
 10
203.16247942766336
 20
-32.875816423236842
 11
205.75667191506028
 21
-32.875816423236842
  0
LINE
  8
_0-6_細線
  6
CONTINUOUS
 62
    7
 10
207.07067755298453
 20
-32.875816423236842
 11
209.27067755298486
 21
-32.875816423236842
  0
LINE
  8
_0-6_細線
  6
CONTINUOUS
 62
    7
 10
149.33059460804566
 20
-32.475816423236751
 11
151.93059460804557
 21
-32.475816423236751
  0
LINE
  8
_0-6_細線
  6
CONTINUOUS
 62
    7
 10
155.45229802341396
 20
-32.475816423236751
 11
158.05229802341387
 21
-32.475816423236751
  0
LINE
  8
_0-6_細線
  6
CONTINUOUS
 62
    7
 10
161.58723226168985
 20
-32.475816423236751
 11
164.18723226169027
 21
-32.475816423236751
  0
LINE
  8
_0-6_細線
  6
CONTINUOUS
 62
    7
 10
170.14912686359486
 20
-32.475816423236751
 11
172.72586899208744
 21
-32.475816423236751
  0
LINE
  8
_0-6_細線
  6
CONTINUOUS
 62
    7
 10
175.95812433714377
 20
-32.475816423236751
 11
178.55812433714453
 21
-32.475816423236751
  0
LINE
  8
_0-6_細線
  6
CONTINUOUS
 62
    7
 10
180.35098131449308
 20
-32.475816423236751
 11
182.95098131449254
 21
-32.475816423236751
  0
LINE
  8
_0-6_細線
  6
CONTINUOUS
 62
    7
 10
184.95098131449254
 20
-32.475816423236751
 11
187.55098131449245
 21
-32.475816423236751
  0
LINE
  8
_0-6_細線
  6
CONTINUOUS
 62
    7
 10
191.36363338629485
 20
-32.475816423236751
 11
193.96363338629425
 21
-32.475816423236751
  0
LINE
  8
_0-6_細線
  6
CONTINUOUS
 62
    7
 10
197.31315879773524
 20
-32.475816423236751
 11
199.91315879773515
 21
-32.475816423236751
  0
LINE
  8
_0-6_細線
  6
CONTINUOUS
 62
    7
 10
202.91253168690014
 20
-32.475816423236751
 11
205.50672417429655
 21
-32.475816423236751
  0
LINE
  8
_0-6_細線
  6
CONTINUOUS
 62
    7
 10
207.07067755298453
 20
-32.475816423236751
 11
209.27067755298486
 21
-32.475816423236751
  0
LINE
  8
_0-6_細線
  6
CONTINUOUS
 62
    7
 10
149.51711767130766
 20
-32.07581642323666
 11
152.11711767130765
 21
-32.07581642323666
  0
LINE
  8
_0-6_細線
  6
CONTINUOUS
 62
    7
 10
155.26577496015236
 20
-32.07581642323666
 11
157.86577496015227
 21
-32.07581642323666
  0
LINE
  8
_0-6_細線
  6
CONTINUOUS
 62
    7
 10
161.58723226168985
 20
-32.07581642323666
 11
164.18723226169027
 21
-32.07581642323666
  0
LINE
  8
_0-6_細線
  6
CONTINUOUS
 62
    7
 10
170.17505465886217
 20
-32.07581642323666
 11
172.76307192960968
 21
-32.07581642323666
  0
LINE
  8
_0-6_細線
  6
CONTINUOUS
 62
    7
 10
175.77160127388174
 20
-32.07581642323666
 11
178.37160127388165
 21
-32.07581642323666
  0
LINE
  8
_0-6_細線
  6
CONTINUOUS
 62
    7
 10
180.53750437775517
 20
-32.07581642323666
 11
183.13750437775508
 21
-32.07581642323666
  0
LINE
  8
_0-6_細線
  6
CONTINUOUS
 62
    7
 10
185.13750437775457
 20
-32.07581642323666
 11
187.73750437775487
 21
-32.07581642323666
  0
LINE
  8
_0-6_細線
  6
CONTINUOUS
 62
    7
 10
191.17711032303237
 20
-32.07581642323666
 11
193.77711032303279
 21
-32.07581642323666
  0
LINE
  8
_0-6_細線
  6
CONTINUOUS
 62
    7
 10
197.31315879773524
 20
-32.07581642323666
 11
199.91315879773515
 21
-32.07581642323666
  0
LINE
  8
_0-6_細線
  6
CONTINUOUS
 62
    7
 10
202.66258394613607
 20
-32.07581642323666
 11
205.25677643353248
 21
-32.07581642323666
  0
LINE
  8
_0-6_細線
  6
CONTINUOUS
 62
    7
 10
207.07067755298453
 20
-32.07581642323666
 11
209.27067755298486
 21
-32.07581642323666
  0
LINE
  8
_0-6_細線
  6
CONTINUOUS
 62
    7
 10
149.70364073457017
 20
-31.675816423236569
 11
152.30364073456965
 21
-31.675816423236569
  0
LINE
  8
_0-6_細線
  6
CONTINUOUS
 62
    7
 10
155.07925189688947
 20
-31.675816423236569
 11
157.67925189689026
 21
-31.675816423236569
  0
LINE
  8
_0-6_細線
  6
CONTINUOUS
 62
    7
 10
161.58723226168985
 20
-31.675816423236569
 11
164.18723226169027
 21
-31.675816423236569
  0
LINE
  8
_0-6_細線
  6
CONTINUOUS
 62
    7
 10
170.18592848851108
 20
-31.675816423236569
 11
172.78369724090385
 21
-31.675816423236569
  0
LINE
  8
_0-6_細線
  6
CONTINUOUS
 62
    7
 10
175.58507821062017
 20
-31.675816423236569
 11
178.18507821062008
 21
-31.675816423236569
  0
LINE
  8
_0-6_細線
  6
CONTINUOUS
 62
    7
 10
180.72402744101714
 20
-31.675816423236569
 11
183.32402744101705
 21
-31.675816423236569
  0
LINE
  8
_0-6_細線
  6
CONTINUOUS
 62
    7
 10
185.32402744101705
 20
-31.675816423236569
 11
187.92402744101696
 21
-31.675816423236569
  0
LINE
  8
_0-6_細線
  6
CONTINUOUS
 62
    7
 10
190.99058725977073
 20
-31.675816423236569
 11
193.59058725977076
 21
-31.675816423236569
  0
LINE
  8
_0-6_細線
  6
CONTINUOUS
 62
    7
 10
197.31315879773524
 20
-31.675816423236569
 11
199.91315879773515
 21
-31.675816423236569
  0
LINE
  8
_0-6_細線
  6
CONTINUOUS
 62
    7
 10
202.41263620537273
 20
-31.675816423236569
 11
205.00682869276915
 21
-31.675816423236569
  0
LINE
  8
_0-6_細線
  6
CONTINUOUS
 62
    7
 10
207.07067755298453
 20
-31.675816423236569
 11
209.27067755298486
 21
-31.675816423236569
  0
LINE
  8
_0-6_細線
  6
CONTINUOUS
 62
    7
 10
149.89016379783178
 20
-31.275816423236932
 11
152.49016379783217
 21
-31.275816423236932
  0
LINE
  8
_0-6_細線
  6
CONTINUOUS
 62
    7
 10
154.89272883362787
 20
-31.275816423236932
 11
157.49272883362826
 21
-31.275816423236932
  0
LINE
  8
_0-6_細線
  6
CONTINUOUS
 62
    7
 10
161.58723226168985
 20
-31.275816423236932
 11
164.18723226169027
 21
-31.275816423236932
  0
LINE
  8
_0-6_細線
  6
CONTINUOUS
 62
    7
 10
170.18640631251554
 20
-31.275816423236932
 11
172.78499280198486
 21
-31.275816423236932
  0
LINE
  8
_0-6_細線
  6
CONTINUOUS
 62
    7
 10
175.39855514735814
 20
-31.275816423236932
 11
177.99855514735805
 21
-31.275816423236932
  0
LINE
  8
_0-6_細線
  6
CONTINUOUS
 62
    7
 10
180.91055050427866
 20
-31.275816423236932
 11
183.51055050427868
 21
-31.275816423236932
  0
LINE
  8
_0-6_細線
  6
CONTINUOUS
 62
    7
 10
185.51055050427868
 20
-31.275816423236932
 11
188.11055050427899
 21
-31.275816423236932
  0
LINE
  8
_0-6_細線
  6
CONTINUOUS
 62
    7
 10
190.80406419650876
 20
-31.275816423236932
 11
193.40406419650867
 21
-31.275816423236932
  0
LINE
  8
_0-6_細線
  6
CONTINUOUS
 62
    7
 10
197.31315879773524
 20
-31.275816423236932
 11
199.91315879773515
 21
-31.275816423236932
  0
LINE
  8
_0-6_細線
  6
CONTINUOUS
 62
    7
 10
202.16268846460866
 20
-31.275816423236932
 11
204.75688095200508
 21
-31.275816423236932
  0
LINE
  8
_0-6_細線
  6
CONTINUOUS
 62
    7
 10
207.07067755298453
 20
-31.275816423236932
 11
209.27067755298486
 21
-31.275816423236932
  0
LINE
  8
_0-6_細線
  6
CONTINUOUS
 62
    7
 10
150.07668686109375
 20
-30.875816423236842
 11
152.67668686109366
 21
-30.875816423236842
  0
LINE
  8
_0-6_細線
  6
CONTINUOUS
 62
    7
 10
154.70620577036587
 20
-30.875816423236842
 11
157.30620577036575
 21
-30.875816423236842
  0
LINE
  8
_0-6_細線
  6
CONTINUOUS
 62
    7
 10
161.58723226168985
 20
-30.875816423236842
 11
164.18723226169027
 21
-30.875816423236842
  0
LINE
  8
_0-6_細線
  6
CONTINUOUS
 62
    7
 10
170.17775479675379
 20
-30.875816423236842
 11
172.76784039282688
 21
-30.875816423236842
  0
LINE
  8
_0-6_細線
  6
CONTINUOUS
 62
    7
 10
175.21203208409617
 20
-30.875816423236842
 11
177.81203208409647
 21
-30.875816423236842
  0
LINE
  8
_0-6_細線
  6
CONTINUOUS
 62
    7
 10
181.09707356754075
 20
-30.875816423236842
 11
183.69707356754066
 21
-30.875816423236842
  0
LINE
  8
_0-6_細線
  6
CONTINUOUS
 62
    7
 10
185.69707356754066
 20
-30.875816423236842
 11
188.29707356754056
 21
-30.875816423236842
  0
LINE
  8
_0-6_細線
  6
CONTINUOUS
 62
    7
 10
190.61754113324719
 20
-30.875816423236842
 11
193.21754113324664
 21
-30.875816423236842
  0
LINE
  8
_0-6_細線
  6
CONTINUOUS
 62
    7
 10
197.31315879773524
 20
-30.875816423236842
 11
199.91315879773515
 21
-30.875816423236842
  0
LINE
  8
_0-6_細線
  6
CONTINUOUS
 62
    7
 10
201.91274072384454
 20
-30.875816423236842
 11
204.50693321124135
 21
-30.875816423236842
  0
LINE
  8
_0-6_細線
  6
CONTINUOUS
 62
    7
 10
207.07067755298453
 20
-30.875816423236842
 11
209.27067755298486
 21
-30.875816423236842
  0
LINE
  8
_0-6_細線
  6
CONTINUOUS
 62
    7
 10
150.26320992435586
 20
-30.475816423236751
 11
152.86320992435566
 21
-30.475816423236751
  0
LINE
  8
_0-6_細線
  6
CONTINUOUS
 62
    7
 10
154.51968270710427
 20
-30.475816423236751
 11
157.11968270710418
 21
-30.475816423236751
  0
LINE
  8
_0-6_細線
  6
CONTINUOUS
 62
    7
 10
161.58723226168985
 20
-30.475816423236751
 11
164.18723226169027
 21
-30.475816423236751
  0
LINE
  8
_0-6_細線
  6
CONTINUOUS
 62
    7
 10
170.15671367822847
 20
-30.475816423236751
 11
172.73492498158816
 21
-30.475816423236751
  0
LINE
  8
_0-6_細線
  6
CONTINUOUS
 62
    7
 10
175.02550902083408
 20
-30.475816423236751
 11
177.62550902083399
 21
-30.475816423236751
  0
LINE
  8
_0-6_細線
  6
CONTINUOUS
 62
    7
 10
181.28359663080278
 20
-30.475816423236751
 11
183.88359663080269
 21
-30.475816423236751
  0
LINE
  8
_0-6_細線
  6
CONTINUOUS
 62
    7
 10
185.88359663080269
 20
-30.475816423236751
 11
188.48359663080254
 21
-30.475816423236751
  0
LINE
  8
_0-6_細線
  6
CONTINUOUS
 62
    7
 10
190.43101806998425
 20
-30.475816423236751
 11
193.03101806998467
 21
-30.475816423236751
  0
LINE
  8
_0-6_細線
  6
CONTINUOUS
 62
    7
 10
197.31315879773524
 20
-30.475816423236751
 11
199.91315879773515
 21
-30.475816423236751
  0
LINE
  8
_0-6_細線
  6
CONTINUOUS
 62
    7
 10
201.66279298308126
 20
-30.475816423236751
 11
204.25698547047779
 21
-30.475816423236751
  0
LINE
  8
_0-6_細線
  6
CONTINUOUS
 62
    7
 10
207.07067755298453
 20
-30.475816423236751
 11
209.27067755298486
 21
-30.475816423236751
  0
LINE
  8
_0-6_細線
  6
CONTINUOUS
 62
    7
 10
150.44973298761735
 20
-30.07581642323666
 11
153.04973298761726
 21
-30.07581642323666
  0
LINE
  8
_0-6_細線
  6
CONTINUOUS
 62
    7
 10
154.33315964384227
 20
-30.07581642323666
 11
156.93315964384217
 21
-30.07581642323666
  0
LINE
  8
_0-6_細線
  6
CONTINUOUS
 62
    7
 10
161.58723226168985
 20
-30.07581642323666
 11
164.18723226169027
 21
-30.07581642323666
  0
LINE
  8
_0-6_細線
  6
CONTINUOUS
 62
    7
 10
170.11584403322854
 20
-30.07581642323666
 11
172.68549897640997
 21
-30.07581642323666
  0
LINE
  8
_0-6_細線
  6
CONTINUOUS
 62
    7
 10
174.83898595757205
 20
-30.07581642323666
 11
177.43898595757196
 21
-30.07581642323666
  0
LINE
  8
_0-6_細線
  6
CONTINUOUS
 62
    7
 10
181.47011969406526
 20
-30.07581642323666
 11
184.07011969406517
 21
-30.07581642323666
  0
LINE
  8
_0-6_細線
  6
CONTINUOUS
 62
    7
 10
186.07011969406517
 20
-30.07581642323666
 11
188.67011969406508
 21
-30.07581642323666
  0
LINE
  8
_0-6_細線
  6
CONTINUOUS
 62
    7
 10
190.24449500672267
 20
-30.07581642323666
 11
192.84449500672258
 21
-30.07581642323666
  0
LINE
  8
_0-6_細線
  6
CONTINUOUS
 62
    7
 10
197.31315879773524
 20
-30.07581642323666
 11
199.91315879773515
 21
-30.07581642323666
  0
LINE
  8
_0-6_細線
  6
CONTINUOUS
 62
    7
 10
201.41284524231719
 20
-30.07581642323666
 11
204.00703772971406
 21
-30.07581642323666
  0
LINE
  8
_0-6_細線
  6
CONTINUOUS
 62
    7
 10
207.07067755298453
 20
-30.07581642323666
 11
209.27067755298486
 21
-30.07581642323666
  0
LINE
  8
_0-6_細線
  6
CONTINUOUS
 62
    7
 10
150.63625605087987
 20
-29.675816423236569
 11
153.23625605088026
 21
-29.675816423236569
  0
LINE
  8
_0-6_細線
  6
CONTINUOUS
 62
    7
 10
154.14663658058015
 20
-29.675816423236569
 11
156.74663658058006
 21
-29.675816423236569
  0
LINE
  8
_0-6_細線
  6
CONTINUOUS
 62
    7
 10
161.58723226168985
 20
-29.675816423236569
 11
164.18723226169027
 21
-29.675816423236569
  0
LINE
  8
_0-6_細線
  6
CONTINUOUS
 62
    7
 10
170.04474835106498
 20
-29.675816423236569
 11
172.61987435375408
 21
-29.675816423236569
  0
LINE
  8
_0-6_細線
  6
CONTINUOUS
 62
    7
 10
174.65246289431008
 20
-29.675816423236569
 11
177.25246289430999
 21
-29.675816423236569
  0
LINE
  8
_0-6_細線
  6
CONTINUOUS
 62
    7
 10
181.65664275732684
 20
-29.675816423236569
 11
184.25664275732674
 21
-29.675816423236569
  0
LINE
  8
_0-6_細線
  6
CONTINUOUS
 62
    7
 10
186.25664275732674
 20
-29.675816423236569
 11
188.85664275732717
 21
-29.675816423236569
  0
LINE
  8
_0-6_細線
  6
CONTINUOUS
 62
    7
 10
190.05797194346064
 20
-29.675816423236569
 11
192.65797194346055
 21
-29.675816423236569
  0
LINE
  8
_0-6_細線
  6
CONTINUOUS
 62
    7
 10
197.31315879773524
 20
-29.675816423236569
 11
199.91315879773515
 21
-29.675816423236569
  0
LINE
  8
_0-6_細線
  6
CONTINUOUS
 62
    7
 10
201.16289750155397
 20
-29.675816423236569
 11
203.75708998895038
 21
-29.675816423236569
  0
LINE
  8
_0-6_細線
  6
CONTINUOUS
 62
    7
 10
207.07067755298453
 20
-29.675816423236569
 11
209.27067755298486
 21
-29.675816423236569
  0
LINE
  8
_0-6_細線
  6
CONTINUOUS
 62
    7
 10
150.82277911414187
 20
-29.275816423236932
 11
153.42277911414178
 21
-29.275816423236932
  0
LINE
  8
_0-6_細線
  6
CONTINUOUS
 62
    7
 10
153.96011351731767
 20
-29.275816423236932
 11
156.56011351731766
 21
-29.275816423236932
  0
LINE
  8
_0-6_細線
  6
CONTINUOUS
 62
    7
 10
161.58723226168985
 20
-29.275816423236932
 11
164.18723226169027
 21
-29.275816423236932
  0
LINE
  8
_0-6_細線
  6
CONTINUOUS
 62
    7
 10
169.92461602680777
 20
-29.275816423236932
 11
172.53831236807287
 21
-29.275816423236932
  0
LINE
  8
_0-6_細線
  6
CONTINUOUS
 62
    7
 10
174.46593983104799
 20
-29.275816423236932
 11
177.06593983104835
 21
-29.275816423236932
  0
LINE
  8
_0-6_細線
  6
CONTINUOUS
 62
    7
 10
181.84316582058887
 20
-29.275816423236932
 11
184.44316582058877
 21
-29.275816423236932
  0
LINE
  8
_0-6_細線
  6
CONTINUOUS
 62
    7
 10
186.44316582058877
 20
-29.275816423236932
 11
189.04316582058868
 21
-29.275816423236932
  0
LINE
  8
_0-6_細線
  6
CONTINUOUS
 62
    7
 10
189.87144888019907
 20
-29.275816423236932
 11
192.47144888019898
 21
-29.275816423236932
  0
LINE
  8
_0-6_細線
  6
CONTINUOUS
 62
    7
 10
197.31315879773524
 20
-29.275816423236932
 11
199.91315879773515
 21
-29.275816423236932
  0
LINE
  8
_0-6_細線
  6
CONTINUOUS
 62
    7
 10
200.91294976078984
 20
-29.275816423236932
 11
203.50714224818626
 21
-29.275816423236932
  0
LINE
  8
_0-6_細線
  6
CONTINUOUS
 62
    7
 10
207.07067755298453
 20
-29.275816423236932
 11
209.27067755298486
 21
-29.275816423236932
  0
LINE
  8
_0-6_細線
  6
CONTINUOUS
 62
    7
 10
151.00930217740387
 20
-28.875816423236842
 11
153.60930217740386
 21
-28.875816423236842
  0
LINE
  8
_0-6_細線
  6
CONTINUOUS
 62
    7
 10
153.77359045405615
 20
-28.875816423236842
 11
156.37359045405606
 21
-28.875816423236842
  0
LINE
  8
_0-6_細線
  6
CONTINUOUS
 62
    7
 10
161.58723226168985
 20
-28.875816423236842
 11
164.18723226169027
 21
-28.875816423236842
  0
LINE
  8
_0-6_細線
  6
CONTINUOUS
 62
    7
 10
169.72895476218878
 20
-28.875816423236842
 11
172.44153451476467
 21
-28.875816423236842
  0
LINE
  8
_0-6_細線
  6
CONTINUOUS
 62
    7
 10
174.27941676778647
 20
-28.875816423236842
 11
176.87941676778627
 21
-28.875816423236842
  0
LINE
  8
_0-6_細線
  6
CONTINUOUS
 62
    7
 10
182.02968888385044
 20
-28.875816423236842
 11
184.62968888385075
 21
-28.875816423236842
  0
LINE
  8
_0-6_細線
  6
CONTINUOUS
 62
    7
 10
186.62968888385075
 20
-28.875816423236842
 11
189.22968888385066
 21
-28.875816423236842
  0
LINE
  8
_0-6_細線
  6
CONTINUOUS
 62
    7
 10
189.68492581693658
 20
-28.875816423236842
 11
192.28492581693644
 21
-28.875816423236842
  0
LINE
  8
_0-6_細線
  6
CONTINUOUS
 62
    7
 10
197.31315879773524
 20
-28.875816423236842
 11
199.91315879773515
 21
-28.875816423236842
  0
LINE
  8
_0-6_細線
  6
CONTINUOUS
 62
    7
 10
200.66300202002617
 20
-28.875816423236842
 11
203.25719450742304
 21
-28.875816423236842
  0
LINE
  8
_0-6_細線
  6
CONTINUOUS
 62
    7
 10
207.07067755298453
 20
-28.875816423236842
 11
209.27067755298486
 21
-28.875816423236842
  0
LINE
  8
_0-6_細線
  6
CONTINUOUS
 62
    7
 10
151.19582524066556
 20
-28.475816423236751
 11
156.18706739079406
 21
-28.475816423236751
  0
LINE
  8
_0-6_細線
  6
CONTINUOUS
 62
    7
 10
161.58723226168985
 20
-28.475816423236751
 11
164.18723226169027
 21
-28.475816423236751
  0
LINE
  8
_0-6_細線
  6
CONTINUOUS
 62
    7
 10
169.39669842777926
 20
-28.475816423236751
 11
172.32747643019434
 21
-28.475816423236751
  0
LINE
  8
_0-6_細線
  6
CONTINUOUS
 62
    7
 10
174.09289370452399
 20
-28.475816423236751
 11
176.69289370452424
 21
-28.475816423236751
  0
LINE
  8
_0-6_細線
  6
CONTINUOUS
 62
    7
 10
182.21621194711298
 20
-28.475816423236751
 11
184.81621194711283
 21
-28.475816423236751
  0
LINE
  8
_0-6_細線
  6
CONTINUOUS
 62
    7
 10
186.81621194711283
 20
-28.475816423236751
 11
189.41621194711229
 21
-28.475816423236751
  0
LINE
  8
_0-6_細線
  6
CONTINUOUS
 62
    7
 10
189.49840275367455
 20
-28.475816423236751
 11
192.09840275367446
 21
-28.475816423236751
  0
LINE
  8
_0-6_細線
  6
CONTINUOUS
 62
    7
 10
197.31315879773524
 20
-28.475816423236751
 11
199.91315879773515
 21
-28.475816423236751
  0
LINE
  8
_0-6_細線
  6
CONTINUOUS
 62
    7
 10
200.41305427926244
 20
-28.475816423236751
 11
203.00724676665897
 21
-28.475816423236751
  0
LINE
  8
_0-6_細線
  6
CONTINUOUS
 62
    7
 10
207.07067755298453
 20
-28.475816423236751
 11
209.27067755298486
 21
-28.475816423236751
  0
LINE
  8
_0-6_細線
  6
CONTINUOUS
 62
    7
 10
151.38234830392796
 20
-28.07581642323666
 11
156.00054432753245
 21
-28.07581642323666
  0
LINE
  8
_0-6_細線
  6
CONTINUOUS
 62
    7
 10
161.58723226168985
 20
-28.07581642323666
 11
164.18723226169027
 21
-28.07581642323666
  0
LINE
  8
_0-6_細線
  6
CONTINUOUS
 62
    7
 10
168.87793735918717
 20
-28.07581642323666
 11
172.18642346172356
 21
-28.07581642323666
  0
LINE
  8
_0-6_細線
  6
CONTINUOUS
 62
    7
 10
173.90637064126184
 20
-28.07581642323666
 11
176.50637064126175
 21
-28.07581642323666
  0
LINE
  8
_0-6_細線
  6
CONTINUOUS
 62
    7
 10
182.40273501037495
 20
-28.07581642323666
 11
185.00273501037486
 21
-28.07581642323666
  0
LINE
  8
_0-6_細線
  6
CONTINUOUS
 62
    7
 10
187.00273501037486
 20
-28.07581642323666
 11
191.91187969041243
 21
-28.07581642323666
  0
LINE
  8
_0-6_細線
  6
CONTINUOUS
 62
    7
 10
197.31315879773524
 20
-28.07581642323666
 11
199.91315879773515
 21
-28.07581642323666
  0
LINE
  8
_0-6_細線
  6
CONTINUOUS
 62
    7
 10
200.16310653849888
 20
-28.07581642323666
 11
202.75729902589524
 21
-28.07581642323666
  0
LINE
  8
_0-6_細線
  6
CONTINUOUS
 62
    7
 10
207.07067755298453
 20
-28.07581642323666
 11
209.27067755298486
 21
-28.07581642323666
  0
LINE
  8
_0-6_細線
  6
CONTINUOUS
 62
    7
 10
151.56887136719007
 20
-27.675816423236569
 11
155.81402126426997
 21
-27.675816423236569
  0
LINE
  8
_0-6_細線
  6
CONTINUOUS
 62
    7
 10
161.58723226168985
 20
-27.675816423236569
 11
164.18723226169027
 21
-27.675816423236569
  0
LINE
  8
_0-6_細線
  6
CONTINUOUS
 62
    7
 10
168.18723226169027
 20
-27.675816423236569
 11
171.98723226168994
 21
-27.675816423236569
  0
LINE
  8
_0-6_細線
  6
CONTINUOUS
 62
    7
 10
173.71984757799987
 20
-27.675816423236569
 11
176.31984757800024
 21
-27.675816423236569
  0
LINE
  8
_0-6_細線
  6
CONTINUOUS
 62
    7
 10
182.58925807363698
 20
-27.675816423236569
 11
185.18925807363684
 21
-27.675816423236569
  0
LINE
  8
_0-6_細線
  6
CONTINUOUS
 62
    7
 10
187.18925807363684
 20
-27.675816423236569
 11
191.72535662715086
 21
-27.675816423236569
  0
LINE
  8
_0-6_細線
  6
CONTINUOUS
 62
    7
 10
197.31315879773524
 20
-27.675816423236569
 11
199.91315879773515
 21
-27.675816423236569
  0
LINE
  8
_0-6_細線
  6
CONTINUOUS
 62
    7
 10
199.91315879773515
 20
-27.675816423236569
 11
202.50735128513156
 21
-27.675816423236569
  0
LINE
  8
_0-6_細線
  6
CONTINUOUS
 62
    7
 10
207.07067755298453
 20
-27.675816423236569
 11
209.27067755298486
 21
-27.675816423236569
  0
LINE
  8
_0-6_細線
  6
CONTINUOUS
 62
    7
 10
151.75539443045207
 20
-27.275816423236932
 11
155.62749820100797
 21
-27.275816423236932
  0
LINE
  8
_0-6_細線
  6
CONTINUOUS
 62
    7
 10
161.58723226168985
 20
-27.275816423236932
 11
171.66925892011994
 21
-27.275816423236932
  0
LINE
  8
_0-6_細線
  6
CONTINUOUS
 62
    7
 10
173.53332451473824
 20
-27.275816423236932
 11
176.13332451473826
 21
-27.275816423236932
  0
LINE
  8
_0-6_細線
  6
CONTINUOUS
 62
    7
 10
182.77578113689856
 20
-27.275816423236932
 11
185.37578113689898
 21
-27.275816423236932
  0
LINE
  8
_0-6_細線
  6
CONTINUOUS
 62
    7
 10
187.37578113689898
 20
-27.275816423236932
 11
191.53883356388837
 21
-27.275816423236932
  0
LINE
  8
_0-6_細線
  6
CONTINUOUS
 62
    7
 10
197.31315879773524
 20
-27.275816423236932
 11
202.25740354436789
 21
-27.275816423236932
  0
LINE
  8
_0-6_細線
  6
CONTINUOUS
 62
    7
 10
207.07067755298453
 20
-27.275816423236932
 11
209.27067755298486
 21
-27.275816423236932
  0
LINE
  8
_0-6_細線
  6
CONTINUOUS
 62
    7
 10
151.94191749371367
 20
-26.875816423236842
 11
155.44097513774597
 21
-26.875816423236842
  0
LINE
  8
_0-6_細線
  6
CONTINUOUS
 62
    7
 10
161.58723226168985
 20
-26.875816423236842
 11
171.22040554690307
 21
-26.875816423236842
  0
LINE
  8
_0-6_細線
  6
CONTINUOUS
 62
    7
 10
173.34680145147627
 20
-26.875816423236842
 11
175.94680145147618
 21
-26.875816423236842
  0
LINE
  8
_0-6_細線
  6
CONTINUOUS
 62
    7
 10
182.96230420016059
 20
-26.875816423236842
 11
185.56230420016044
 21
-26.875816423236842
  0
LINE
  8
_0-6_細線
  6
CONTINUOUS
 62
    7
 10
187.56230420016044
 20
-26.875816423236842
 11
191.35231050062674
 21
-26.875816423236842
  0
LINE
  8
_0-6_細線
  6
CONTINUOUS
 62
    7
 10
197.31315879773524
 20
-26.875816423236842
 11
202.00745580360427
 21
-26.875816423236842
  0
LINE
  8
_0-6_細線
  6
CONTINUOUS
 62
    7
 10
207.07067755298453
 20
-26.875816423236842
 11
209.27067755298486
 21
-26.875816423236842
  0
LINE
  8
_0-6_細線
  6
CONTINUOUS
 62
    7
 10
152.12844055697568
 20
-26.475816423236751
 11
155.25445207448436
 21
-26.475816423236751
  0
LINE
  8
_0-6_細線
  6
CONTINUOUS
 62
    7
 10
161.58723226168985
 20
-26.475816423236751
 11
170.55284587363684
 21
-26.475816423236751
  0
LINE
  8
_0-6_細線
  6
CONTINUOUS
 62
    7
 10
173.16027838821424
 20
-26.475816423236751
 11
175.76027838821415
 21
-26.475816423236751
  0
LINE
  8
_0-6_細線
  6
CONTINUOUS
 62
    7
 10
183.14882726342267
 20
-26.475816423236751
 11
185.74882726342258
 21
-26.475816423236751
  0
LINE
  8
_0-6_細線
  6
CONTINUOUS
 62
    7
 10
187.74882726342298
 20
-26.475816423236751
 11
191.16578743736437
 21
-26.475816423236751
  0
LINE
  8
_0-6_細線
  6
CONTINUOUS
 62
    7
 10
197.31315879773524
 20
-26.475816423236751
 11
201.75750806284054
 21
-26.475816423236751
  0
LINE
  8
_0-6_細線
  6
CONTINUOUS
 62
    7
 10
207.07067755298453
 20
-26.475816423236751
 11
209.27067755298486
 21
-26.475816423236751
  0
LINE
  8
_0-6_細線
  6
CONTINUOUS
 62
    7
 10
152.31496362023765
 20
-26.07581642323666
 11
155.06792901122185
 21
-26.07581642323666
  0
LINE
  8
_0-6_細線
  6
CONTINUOUS
 62
    7
 10
161.58723226168985
 20
-26.07581642323666
 11
169.58723226168996
 21
-26.07581642323666
  0
LINE
  8
_0-6_細線
  6
CONTINUOUS
 62
    7
 10
172.97375532495175
 20
-26.07581642323666
 11
175.57375532495217
 21
-26.07581642323666
  0
LINE
  8
_0-6_細線
  6
CONTINUOUS
 62
    7
 10
183.33535032668505
 20
-26.07581642323666
 11
185.93535032668507
 21
-26.07581642323666
  0
LINE
  8
_0-6_細線
  6
CONTINUOUS
 62
    7
 10
187.93535032668507
 20
-26.07581642323666
 11
190.97926437410274
 21
-26.07581642323666
  0
LINE
  8
_0-6_細線
  6
CONTINUOUS
 62
    7
 10
197.31315879773524
 20
-26.07581642323666
 11
201.50756032207687
 21
-26.07581642323666
  0
LINE
  8
_0-6_細線
  6
CONTINUOUS
 62
    7
 10
207.07067755298453
 20
-26.07581642323666
 11
209.27067755298486
 21
-26.07581642323666
  0
LINE
  8
_0-6_細線
  6
CONTINUOUS
 62
    7
 10
152.50148668350016
 20
-25.675816423236569
 11
154.88140594796027
 21
-25.675816423236569
  0
LINE
  8
_0-6_細線
  6
CONTINUOUS
 62
    7
 10
161.58723226168985
 20
-25.675816423236569
 11
168.18723226169027
 21
-25.675816423236569
  0
LINE
  8
_0-6_細線
  6
CONTINUOUS
 62
    7
 10
172.78723226169018
 20
-25.675816423236569
 11
175.38723226169009
 21
-25.675816423236569
  0
LINE
  8
_0-6_細線
  6
CONTINUOUS
 62
    7
 10
183.52187338994668
 20
-25.675816423236569
 11
186.12187338994704
 21
-25.675816423236569
  0
LINE
  8
_0-6_細線
  6
CONTINUOUS
 62
    7
 10
188.12187338994704
 20
-25.675816423236569
 11
190.79274131084077
 21
-25.675816423236569
  0
LINE
  8
_0-6_細線
  6
CONTINUOUS
 62
    7
 10
197.31315879773524
 20
-25.675816423236569
 11
201.25761258131314
 21
-25.675816423236569
  0
LINE
  8
_0-6_細線
  6
CONTINUOUS
 62
    7
 10
207.07067755298453
 20
-25.675816423236569
 11
209.27067755298486
 21
-25.675816423236569
  0
LINE
  8
_0-6_細線
  6
CONTINUOUS
 62
    7
 10
147.18557938053277
 20
-37.07581642323666
 11
149.78557938053265
 21
-37.07581642323666
  0
LINE
  8
_0-6_細線
  6
CONTINUOUS
 62
    7
 10
157.59731325092727
 20
-37.07581642323666
 11
160.19731325092727
 21
-37.07581642323666
  0
LINE
  8
_0-6_細線
  6
CONTINUOUS
 62
    7
 10
161.58723226168985
 20
-37.07581642323666
 11
168.60868679664935
 21
-37.07581642323666
  0
LINE
  8
_0-6_細線
  6
CONTINUOUS
 62
    7
 10
178.10313956465717
 20
-37.07581642323666
 11
180.80596608697965
 21
-37.07581642323666
  0
LINE
  8
_0-6_細線
  6
CONTINUOUS
 62
    7
 10
182.80596608698005
 20
-37.07581642323666
 11
185.40596608698007
 21
-37.07581642323666
  0
LINE
  8
_0-6_細線
  6
CONTINUOUS
 62
    7
 10
193.50864861380774
 20
-37.07581642323666
 11
196.10864861380765
 21
-37.07581642323666
  0
LINE
  8
_0-6_細線
  6
CONTINUOUS
 62
    7
 10
197.31315879773524
 20
-37.07581642323666
 11
199.91315879773515
 21
-37.07581642323666
  0
LINE
  8
_0-6_細線
  6
CONTINUOUS
 62
    7
 10
205.78693070568238
 20
-37.07581642323666
 11
209.27067755298486
 21
-37.07581642323666
  0
LINE
  8
_0-6_細線
  6
CONTINUOUS
 62
    7
 10
147.37210244379477
 20
-36.675816423236569
 11
149.97210244379426
 21
-36.675816423236569
  0
LINE
  8
_0-6_細線
  6
CONTINUOUS
 62
    7
 10
157.41079018766527
 20
-36.675816423236569
 11
160.01079018766515
 21
-36.675816423236569
  0
LINE
  8
_0-6_細線
  6
CONTINUOUS
 62
    7
 10
161.58723226168985
 20
-36.675816423236569
 11
169.89235756152465
 21
-36.675816423236569
  0
LINE
  8
_0-6_細線
  6
CONTINUOUS
 62
    7
 10
177.91661650139508
 20
-36.675816423236569
 11
180.99248915024214
 21
-36.675816423236569
  0
LINE
  8
_0-6_細線
  6
CONTINUOUS
 62
    7
 10
182.99248915024214
 20
-36.675816423236569
 11
185.59248915024205
 21
-36.675816423236569
  0
LINE
  8
_0-6_細線
  6
CONTINUOUS
 62
    7
 10
193.32212555054565
 20
-36.675816423236569
 11
195.92212555054556
 21
-36.675816423236569
  0
LINE
  8
_0-6_細線
  6
CONTINUOUS
 62
    7
 10
197.31315879773524
 20
-36.675816423236569
 11
199.91315879773515
 21
-36.675816423236569
  0
LINE
  8
_0-6_細線
  6
CONTINUOUS
 62
    7
 10
205.53698296491916
 20
-36.675816423236569
 11
209.27067755298486
 21
-36.675816423236569
  0
LINE
  8
_0-6_細線
  6
CONTINUOUS
 62
    7
 10
147.55862550705686
 20
-36.275816423236932
 11
150.15862550705717
 21
-36.275816423236932
  0
LINE
  8
_0-6_細線
  6
CONTINUOUS
 62
    7
 10
157.22426712440327
 20
-36.275816423236932
 11
159.82426712440275
 21
-36.275816423236932
  0
LINE
  8
_0-6_細線
  6
CONTINUOUS
 62
    7
 10
161.58723226168985
 20
-36.275816423236932
 11
170.76997782472995
 21
-36.275816423236932
  0
LINE
  8
_0-6_細線
  6
CONTINUOUS
 62
    7
 10
177.73009343813305
 20
-36.275816423236932
 11
181.17901221350377
 21
-36.275816423236932
  0
LINE
  8
_0-6_細線
  6
CONTINUOUS
 62
    7
 10
183.17901221350377
 20
-36.275816423236932
 11
185.77901221350407
 21
-36.275816423236932
  0
LINE
  8
_0-6_細線
  6
CONTINUOUS
 62
    7
 10
193.13560248728368
 20
-36.275816423236932
 11
195.73560248728359
 21
-36.275816423236932
  0
LINE
  8
_0-6_細線
  6
CONTINUOUS
 62
    7
 10
197.31315879773524
 20
-36.275816423236932
 11
199.91315879773515
 21
-36.275816423236932
  0
LINE
  8
_0-6_細線
  6
CONTINUOUS
 62
    7
 10
205.28703522415503
 20
-36.275816423236932
 11
209.27067755298486
 21
-36.275816423236932
  0
LINE
  8
_0-6_細線
  6
CONTINUOUS
 62
    7
 10
147.74514857031886
 20
-35.875816423236842
 11
150.34514857031877
 21
-35.875816423236842
  0
LINE
  8
_0-6_細線
  6
CONTINUOUS
 62
    7
 10
157.03774406114076
 20
-35.875816423236842
 11
159.63774406114067
 21
-35.875816423236842
  0
LINE
  8
_0-6_細線
  6
CONTINUOUS
 62
    7
 10
161.58723226168985
 20
-35.875816423236842
 11
171.35856543866407
 21
-35.875816423236842
  0
LINE
  8
_0-6_細線
  6
CONTINUOUS
 62
    7
 10
177.54357037487108
 20
-35.875816423236842
 11
181.36553527676574
 21
-35.875816423236842
  0
LINE
  8
_0-6_細線
  6
CONTINUOUS
 62
    7
 10
183.36553527676574
 20
-35.875816423236842
 11
185.96553527676565
 21
-35.875816423236842
  0
LINE
  8
_0-6_細線
  6
CONTINUOUS
 62
    7
 10
192.94907942402216
 20
-35.875816423236842
 11
195.54907942402207
 21
-35.875816423236842
  0
LINE
  8
_0-6_細線
  6
CONTINUOUS
 62
    7
 10
197.31315879773524
 20
-35.875816423236842
 11
199.91315879773515
 21
-35.875816423236842
  0
LINE
  8
_0-6_細線
  6
CONTINUOUS
 62
    7
 10
205.03708748339136
 20
-35.875816423236842
 11
209.27067755298486
 21
-35.875816423236842
  0
LINE
  8
_0-6_細線
  6
CONTINUOUS
 62
    7
 10
147.93167163358086
 20
-35.475816423236751
 11
150.53167163358077
 21
-35.475816423236751
  0
LINE
  8
_0-6_細線
  6
CONTINUOUS
 62
    7
 10
156.85122099787915
 20
-35.475816423236751
 11
159.45122099787906
 21
-35.475816423236751
  0
LINE
  8
_0-6_細線
  6
CONTINUOUS
 62
    7
 10
161.58723226168985
 20
-35.475816423236751
 11
171.77103686861324
 21
-35.475816423236751
  0
LINE
  8
_0-6_細線
  6
CONTINUOUS
 62
    7
 10
177.35704731160945
 20
-35.475816423236751
 11
181.55205834002777
 21
-35.475816423236751
  0
LINE
  8
_0-6_細線
  6
CONTINUOUS
 62
    7
 10
183.55205834002777
 20
-35.475816423236751
 11
186.15205834002768
 21
-35.475816423236751
  0
LINE
  8
_0-6_細線
  6
CONTINUOUS
 62
    7
 10
192.76255636075967
 20
-35.475816423236751
 11
195.36255636075947
 21
-35.475816423236751
  0
LINE
  8
_0-6_細線
  6
CONTINUOUS
 62
    7
 10
197.31315879773524
 20
-35.475816423236751
 11
199.91315879773515
 21
-35.475816423236751
  0
LINE
  8
_0-6_細線
  6
CONTINUOUS
 62
    7
 10
204.78713974262769
 20
-35.475816423236751
 11
209.27067755298486
 21
-35.475816423236751
  0
LINE
  8
_0-6_細線
  6
CONTINUOUS
 62
    7
 10
148.11819469684247
 20
-35.07581642323666
 11
150.71819469684237
 21
-35.07581642323666
  0
LINE
  8
_0-6_細線
  6
CONTINUOUS
 62
    7
 10
156.66469793461715
 20
-35.07581642323666
 11
159.26469793461706
 21
-35.07581642323666
  0
LINE
  8
_0-6_細線
  6
CONTINUOUS
 62
    7
 10
161.58723226168985
 20
-35.07581642323666
 11
164.18723226169027
 21
-35.07581642323666
  0
LINE
  8
_0-6_細線
  6
CONTINUOUS
 62
    7
 10
168.38692189735846
 20
-35.07581642323666
 11
172.04959367240843
 21
-35.07581642323666
  0
LINE
  8
_0-6_細線
  6
CONTINUOUS
 62
    7
 10
177.17052424834696
 20
-35.07581642323666
 11
181.73858140329025
 21
-35.07581642323666
  0
LINE
  8
_0-6_細線
  6
CONTINUOUS
 62
    7
 10
183.73858140329025
 20
-35.07581642323666
 11
186.33858140328965
 21
-35.07581642323666
  0
LINE
  8
_0-6_細線
  6
CONTINUOUS
 62
    7
 10
192.57603329749759
 20
-35.07581642323666
 11
195.17603329749744
 21
-35.07581642323666
  0
LINE
  8
_0-6_細線
  6
CONTINUOUS
 62
    7
 10
197.31315879773524
 20
-35.07581642323666
 11
199.91315879773515
 21
-35.07581642323666
  0
LINE
  8
_0-6_細線
  6
CONTINUOUS
 62
    7
 10
204.53719200186396
 20
-35.07581642323666
 11
209.27067755298486
 21
-35.07581642323666
  0
LINE
  8
_0-6_細線
  6
CONTINUOUS
 62
    7
 10
148.30471776010495
 20
-34.675816423236569
 11
150.90471776010486
 21
-34.675816423236569
  0
LINE
  8
_0-6_細線
  6
CONTINUOUS
 62
    7
 10
156.47817487135515
 20
-34.675816423236569
 11
159.07817487135546
 21
-34.675816423236569
  0
LINE
  8
_0-6_細線
  6
CONTINUOUS
 62
    7
 10
161.58723226168985
 20
-34.675816423236569
 11
164.18723226169027
 21
-34.675816423236569
  0
LINE
  8
_0-6_細線
  6
CONTINUOUS
 62
    7
 10
169.04258948670326
 20
-34.675816423236569
 11
172.22874529547317
 21
-34.675816423236569
  0
LINE
  8
_0-6_細線
  6
CONTINUOUS
 62
    7
 10
176.98400118508494
 20
-34.675816423236569
 11
181.92510446655189
 21
-34.675816423236569
  0
LINE
  8
_0-6_細線
  6
CONTINUOUS
 62
    7
 10
183.92510446655177
 20
-34.675816423236569
 11
186.52510446655214
 21
-34.675816423236569
  0
LINE
  8
_0-6_細線
  6
CONTINUOUS
 62
    7
 10
192.38951023423556
 20
-34.675816423236569
 11
194.98951023423547
 21
-34.675816423236569
  0
LINE
  8
_0-6_細線
  6
CONTINUOUS
 62
    7
 10
197.31315879773524
 20
-34.675816423236569
 11
199.91315879773515
 21
-34.675816423236569
  0
LINE
  8
_0-6_細線
  6
CONTINUOUS
 62
    7
 10
204.28724426110034
 20
-34.675816423236569
 11
206.88143674849675
 21
-34.675816423236569
  0
LINE
  8
_0-6_細線
  6
CONTINUOUS
 62
    7
 10
207.07067755298453
 20
-34.675816423236569
 11
209.27067755298486
 21
-34.675816423236569
  0
LINE
  8
_0-6_細線
  6
CONTINUOUS
 62
    7
 10
148.49124082336695
 20
-34.275816423236932
 11
158.89165180809297
 21
-34.275816423236932
  0
LINE
  8
_0-6_細線
  6
CONTINUOUS
 62
    7
 10
161.58723226168985
 20
-34.275816423236932
 11
164.18723226169027
 21
-34.275816423236932
  0
LINE
  8
_0-6_細線
  6
CONTINUOUS
 62
    7
 10
169.50866263882676
 20
-34.275816423236932
 11
172.36126243700278
 21
-34.275816423236932
  0
LINE
  8
_0-6_細線
  6
CONTINUOUS
 62
    7
 10
176.79747812182285
 20
-34.275816423236932
 11
179.39747812182327
 21
-34.275816423236932
  0
LINE
  8
_0-6_細線
  6
CONTINUOUS
 62
    7
 10
179.51162752981395
 20
-34.275816423236932
 11
182.11162752981386
 21
-34.275816423236932
  0
LINE
  8
_0-6_細線
  6
CONTINUOUS
 62
    7
 10
184.11162752981386
 20
-34.275816423236932
 11
194.80298717097384
 21
-34.275816423236932
  0
LINE
  8
_0-6_細線
  6
CONTINUOUS
 62
    7
 10
197.31315879773524
 20
-34.275816423236932
 11
199.91315879773515
 21
-34.275816423236932
  0
LINE
  8
_0-6_細線
  6
CONTINUOUS
 62
    7
 10
204.03729652033667
 20
-34.275816423236932
 11
206.63148900773308
 21
-34.275816423236932
  0
LINE
  8
_0-6_細線
  6
CONTINUOUS
 62
    7
 10
207.07067755298453
 20
-34.275816423236932
 11
209.27067755298486
 21
-34.275816423236932
  0
LINE
  8
_0-6_細線
  6
CONTINUOUS
 62
    7
 10
148.67776388662907
 20
-33.875816423236842
 11
158.70512874483097
 21
-33.875816423236842
  0
LINE
  8
_0-6_細線
  6
CONTINUOUS
 62
    7
 10
161.58723226168985
 20
-33.875816423236842
 11
164.18723226169027
 21
-33.875816423236842
  0
LINE
  8
_0-6_細線
  6
CONTINUOUS
 62
    7
 10
169.78382140777035
 20
-33.875816423236842
 11
172.46961815578408
 21
-33.875816423236842
  0
LINE
  8
_0-6_細線
  6
CONTINUOUS
 62
    7
 10
176.61095505856139
 20
-33.875816423236842
 11
179.21095505856124
 21
-33.875816423236842
  0
LINE
  8
_0-6_細線
  6
CONTINUOUS
 62
    7
 10
179.69815059307558
 20
-33.875816423236842
 11
182.29815059307589
 21
-33.875816423236842
  0
LINE
  8
_0-6_細線
  6
CONTINUOUS
 62
    7
 10
184.29815059307589
 20
-33.875816423236842
 11
194.61646410771186
 21
-33.875816423236842
  0
LINE
  8
_0-6_細線
  6
CONTINUOUS
 62
    7
 10
197.31315879773524
 20
-33.875816423236842
 11
199.91315879773515
 21
-33.875816423236842
  0
LINE
  8
_0-6_細線
  6
CONTINUOUS
 62
    7
 10
203.78734877957294
 20
-33.875816423236842
 11
206.38154126696935
 21
-33.875816423236842
  0
LINE
  8
_0-6_細線
  6
CONTINUOUS
 62
    7
 10
207.07067755298453
 20
-33.875816423236842
 11
209.27067755298486
 21
-33.875816423236842
  0
LINE
  8
_0-6_細線
  6
CONTINUOUS
 62
    7
 10
148.86428694989056
 20
-33.475816423236751
 11
158.51860568156897
 21
-33.475816423236751
  0
LINE
  8
_0-6_細線
  6
CONTINUOUS
 62
    7
 10
161.58723226168985
 20
-33.475816423236751
 11
164.18723226169027
 21
-33.475816423236751
  0
LINE
  8
_0-6_細線
  6
CONTINUOUS
 62
    7
 10
169.95772932900746
 20
-33.475816423236751
 11
172.56402553558627
 21
-33.475816423236751
  0
LINE
  8
_0-6_細線
  6
CONTINUOUS
 62
    7
 10
176.42443199529885
 20
-33.475816423236751
 11
179.02443199529876
 21
-33.475816423236751
  0
LINE
  8
_0-6_細線
  6
CONTINUOUS
 62
    7
 10
179.88467365633755
 20
-33.475816423236751
 11
182.48467365633746
 21
-33.475816423236751
  0
LINE
  8
_0-6_細線
  6
CONTINUOUS
 62
    7
 10
184.48467365633746
 20
-33.475816423236751
 11
194.42994104444989
 21
-33.475816423236751
  0
LINE
  8
_0-6_細線
  6
CONTINUOUS
 62
    7
 10
197.31315879773524
 20
-33.475816423236751
 11
199.91315879773515
 21
-33.475816423236751
  0
LINE
  8
_0-6_細線
  6
CONTINUOUS
 62
    7
 10
203.53740103880887
 20
-33.475816423236751
 11
206.13159352620573
 21
-33.475816423236751
  0
LINE
  8
_0-6_細線
  6
CONTINUOUS
 62
    7
 10
207.07067755298453
 20
-33.475816423236751
 11
209.27067755298486
 21
-33.475816423236751
  0
LINE
  8
_0-6_細線
  6
CONTINUOUS
 62
    7
 10
149.05081001315256
 20
-33.07581642323666
 11
158.33208261830737
 21
-33.07581642323666
  0
LINE
  8
_0-6_細線
  6
CONTINUOUS
 62
    7
 10
161.58723226168985
 20
-33.07581642323666
 11
164.18723226169027
 21
-33.07581642323666
  0
LINE
  8
_0-6_細線
  6
CONTINUOUS
 62
    7
 10
170.06626691277256
 20
-33.07581642323666
 11
172.64112647483915
 21
-33.07581642323666
  0
LINE
  8
_0-6_細線
  6
CONTINUOUS
 62
    7
 10
176.23790893203687
 20
-33.07581642323666
 11
178.83790893203678
 21
-33.07581642323666
  0
LINE
  8
_0-6_細線
  6
CONTINUOUS
 62
    7
 10
180.07119671960004
 20
-33.07581642323666
 11
182.67119671959995
 21
-33.07581642323666
  0
LINE
  8
_0-6_細線
  6
CONTINUOUS
 62
    7
 10
184.67119671959995
 20
-33.07581642323666
 11
194.24341798118735
 21
-33.07581642323666
  0
LINE
  8
_0-6_細線
  6
CONTINUOUS
 62
    7
 10
197.31315879773524
 20
-33.07581642323666
 11
199.91315879773515
 21
-33.07581642323666
  0
LINE
  8
_0-6_細線
  6
CONTINUOUS
 62
    7
 10
203.28745329804514
 20
-33.07581642323666
 11
205.88164578544206
 21
-33.07581642323666
  0
LINE
  8
_0-6_細線
  6
CONTINUOUS
 62
    7
 10
207.07067755298453
 20
-33.07581642323666
 11
209.27067755298486
 21
-33.07581642323666
  0
LINE
  8
_0-6_細線
  6
CONTINUOUS
 62
    7
 10
149.23733307641467
 20
-32.675816423236569
 11
158.14555955504485
 21
-32.675816423236569
  0
LINE
  8
_0-6_細線
  6
CONTINUOUS
 62
    7
 10
161.58723226168985
 20
-32.675816423236569
 11
164.18723226169027
 21
-32.675816423236569
  0
LINE
  8
_0-6_細線
  6
CONTINUOUS
 62
    7
 10
170.13221916478113
 20
-32.675816423236569
 11
172.70175110720015
 21
-32.675816423236569
  0
LINE
  8
_0-6_細線
  6
CONTINUOUS
 62
    7
 10
176.05138586877479
 20
-32.675816423236569
 11
178.65138586877515
 21
-32.675816423236569
  0
LINE
  8
_0-6_細線
  6
CONTINUOUS
 62
    7
 10
180.25771978286207
 20
-32.675816423236569
 11
182.85771978286198
 21
-32.675816423236569
  0
LINE
  8
_0-6_細線
  6
CONTINUOUS
 62
    7
 10
184.85771978286147
 20
-32.675816423236569
 11
194.05689491792577
 21
-32.675816423236569
  0
LINE
  8
_0-6_細線
  6
CONTINUOUS
 62
    7
 10
197.31315879773524
 20
-32.675816423236569
 11
199.91315879773515
 21
-32.675816423236569
  0
LINE
  8
_0-6_細線
  6
CONTINUOUS
 62
    7
 10
203.03750555728158
 20
-32.675816423236569
 11
205.63169804467839
 21
-32.675816423236569
  0
LINE
  8
_0-6_細線
  6
CONTINUOUS
 62
    7
 10
207.07067755298453
 20
-32.675816423236569
 11
209.27067755298486
 21
-32.675816423236569
  0
LINE
  8
_0-6_細線
  6
CONTINUOUS
 62
    7
 10
149.42385613967716
 20
-32.275816423236932
 11
152.02385613967706
 21
-32.275816423236932
  0
LINE
  8
_0-6_細線
  6
CONTINUOUS
 62
    7
 10
155.35903649178297
 20
-32.275816423236932
 11
157.95903649178285
 21
-32.275816423236932
  0
LINE
  8
_0-6_細線
  6
CONTINUOUS
 62
    7
 10
161.58723226168985
 20
-32.275816423236932
 11
164.18723226169027
 21
-32.275816423236932
  0
LINE
  8
_0-6_細線
  6
CONTINUOUS
 62
    7
 10
170.16603456240847
 20
-32.275816423236932
 11
172.74605084050677
 21
-32.275816423236932
  0
LINE
  8
_0-6_細線
  6
CONTINUOUS
 62
    7
 10
175.86486280551316
 20
-32.275816423236932
 11
178.46486280551318
 21
-32.275816423236932
  0
LINE
  8
_0-6_細線
  6
CONTINUOUS
 62
    7
 10
180.44424284612364
 20
-32.275816423236932
 11
183.04424284612395
 21
-32.275816423236932
  0
LINE
  8
_0-6_細線
  6
CONTINUOUS
 62
    7
 10
185.04424284612406
 20
-32.275816423236932
 11
187.64424284612386
 21
-32.275816423236932
  0
LINE
  8
_0-6_細線
  6
CONTINUOUS
 62
    7
 10
191.27037185466384
 20
-32.275816423236932
 11
193.87037185466374
 21
-32.275816423236932
  0
LINE
  8
_0-6_細線
  6
CONTINUOUS
 62
    7
 10
197.31315879773524
 20
-32.275816423236932
 11
199.91315879773515
 21
-32.275816423236932
  0
LINE
  8
_0-6_細線
  6
CONTINUOUS
 62
    7
 10
202.78755781651785
 20
-32.275816423236932
 11
205.38175030391466
 21
-32.275816423236932
  0
LINE
  8
_0-6_細線
  6
CONTINUOUS
 62
    7
 10
207.07067755298453
 20
-32.275816423236932
 11
209.27067755298486
 21
-32.275816423236932
  0
LINE
  8
_0-6_細線
  6
CONTINUOUS
 62
    7
 10
149.61037920293867
 20
-31.875816423236842
 11
152.21037920293867
 21
-31.875816423236842
  0
LINE
  8
_0-6_細線
  6
CONTINUOUS
 62
    7
 10
155.17251342852097
 20
-31.875816423236842
 11
157.77251342852077
 21
-31.875816423236842
  0
LINE
  8
_0-6_細線
  6
CONTINUOUS
 62
    7
 10
161.58723226168985
 20
-31.875816423236842
 11
164.18723226169027
 21
-31.875816423236842
  0
LINE
  8
_0-6_細線
  6
CONTINUOUS
 62
    7
 10
170.18107208783954
 20
-31.875816423236842
 11
172.77369875308904
 21
-31.875816423236842
  0
LINE
  8
_0-6_細線
  6
CONTINUOUS
 62
    7
 10
175.67833974225118
 20
-31.875816423236842
 11
178.27833974225103
 21
-31.875816423236842
  0
LINE
  8
_0-6_細線
  6
CONTINUOUS
 62
    7
 10
180.63076590938567
 20
-31.875816423236842
 11
183.23076590938558
 21
-31.875816423236842
  0
LINE
  8
_0-6_細線
  6
CONTINUOUS
 62
    7
 10
185.23076590938558
 20
-31.875816423236842
 11
187.83076590938543
 21
-31.875816423236842
  0
LINE
  8
_0-6_細線
  6
CONTINUOUS
 62
    7
 10
191.08384879140186
 20
-31.875816423236842
 11
193.68384879140217
 21
-31.875816423236842
  0
LINE
  8
_0-6_細線
  6
CONTINUOUS
 62
    7
 10
197.31315879773524
 20
-31.875816423236842
 11
199.91315879773515
 21
-31.875816423236842
  0
LINE
  8
_0-6_細線
  6
CONTINUOUS
 62
    7
 10
202.53761007575417
 20
-31.875816423236842
 11
205.13180256315104
 21
-31.875816423236842
  0
LINE
  8
_0-6_細線
  6
CONTINUOUS
 62
    7
 10
207.07067755298453
 20
-31.875816423236842
 11
209.27067755298486
 21
-31.875816423236842
  0
LINE
  8
_0-6_細線
  6
CONTINUOUS
 62
    7
 10
149.79690226620076
 20
-31.475816423236751
 11
152.39690226620067
 21
-31.475816423236751
  0
LINE
  8
_0-6_細線
  6
CONTINUOUS
 62
    7
 10
154.98599036525886
 20
-31.475816423236751
 11
157.58599036525925
 21
-31.475816423236751
  0
LINE
  8
_0-6_細線
  6
CONTINUOUS
 62
    7
 10
161.58723226168985
 20
-31.475816423236751
 11
164.18723226169027
 21
-31.475816423236751
  0
LINE
  8
_0-6_細線
  6
CONTINUOUS
 62
    7
 10
170.18699334968755
 20
-31.475816423236751
 11
172.78658448114965
 21
-31.475816423236751
  0
LINE
  8
_0-6_細線
  6
CONTINUOUS
 62
    7
 10
175.49181667898915
 20
-31.475816423236751
 11
178.09181667898906
 21
-31.475816423236751
  0
LINE
  8
_0-6_細線
  6
CONTINUOUS
 62
    7
 10
180.81728897264765
 20
-31.475816423236751
 11
183.41728897264807
 21
-31.475816423236751
  0
LINE
  8
_0-6_細線
  6
CONTINUOUS
 62
    7
 10
185.41728897264755
 20
-31.475816423236751
 11
188.01728897264798
 21
-31.475816423236751
  0
LINE
  8
_0-6_細線
  6
CONTINUOUS
 62
    7
 10
190.89732572813938
 20
-31.475816423236751
 11
193.49732572813969
 21
-31.475816423236751
  0
LINE
  8
_0-6_細線
  6
CONTINUOUS
 62
    7
 10
197.31315879773524
 20
-31.475816423236751
 11
199.91315879773515
 21
-31.475816423236751
  0
LINE
  8
_0-6_細線
  6
CONTINUOUS
 62
    7
 10
202.28766233499044
 20
-31.475816423236751
 11
204.88185482238686
 21
-31.475816423236751
  0
LINE
  8
_0-6_細線
  6
CONTINUOUS
 62
    7
 10
207.07067755298453
 20
-31.475816423236751
 11
209.27067755298486
 21
-31.475816423236751
  0
LINE
  8
_0-6_細線
  6
CONTINUOUS
 62
    7
 10
149.98342532946276
 20
-31.07581642323666
 11
152.58342532946267
 21
-31.07581642323666
  0
LINE
  8
_0-6_細線
  6
CONTINUOUS
 62
    7
 10
154.79946730199725
 20
-31.07581642323666
 11
157.39946730199725
 21
-31.07581642323666
  0
LINE
  8
_0-6_細線
  6
CONTINUOUS
 62
    7
 10
161.58723226168985
 20
-31.07581642323666
 11
164.18723226169027
 21
-31.07581642323666
  0
LINE
  8
_0-6_細線
  6
CONTINUOUS
 62
    7
 10
170.18377222573167
 20
-31.07581642323666
 11
172.77846721630686
 21
-31.07581642323666
  0
LINE
  8
_0-6_細線
  6
CONTINUOUS
 62
    7
 10
175.30529361572667
 20
-31.07581642323666
 11
177.90529361572709
 21
-31.07581642323666
  0
LINE
  8
_0-6_細線
  6
CONTINUOUS
 62
    7
 10
181.00381203591019
 20
-31.07581642323666
 11
183.60381203591004
 21
-31.07581642323666
  0
LINE
  8
_0-6_細線
  6
CONTINUOUS
 62
    7
 10
185.60381203591004
 20
-31.07581642323666
 11
188.20381203590955
 21
-31.07581642323666
  0
LINE
  8
_0-6_細線
  6
CONTINUOUS
 62
    7
 10
190.71080266487775
 20
-31.07581642323666
 11
193.31080266487766
 21
-31.07581642323666
  0
LINE
  8
_0-6_細線
  6
CONTINUOUS
 62
    7
 10
197.31315879773524
 20
-31.07581642323666
 11
199.91315879773515
 21
-31.07581642323666
  0
LINE
  8
_0-6_細線
  6
CONTINUOUS
 62
    7
 10
202.03771459422677
 20
-31.07581642323666
 11
204.63190708162364
 21
-31.07581642323666
  0
LINE
  8
_0-6_細線
  6
CONTINUOUS
 62
    7
 10
207.07067755298453
 20
-31.07581642323666
 11
209.27067755298486
 21
-31.07581642323666
  0
LINE
  8
_0-6_細線
  6
CONTINUOUS
 62
    7
 10
150.16994839272527
 20
-30.675816423236569
 11
152.76994839272467
 21
-30.675816423236569
  0
LINE
  8
_0-6_細線
  6
CONTINUOUS
 62
    7
 10
154.61294423873525
 20
-30.675816423236569
 11
157.21294423873516
 21
-30.675816423236569
  0
LINE
  8
_0-6_細線
  6
CONTINUOUS
 62
    7
 10
161.58723226168985
 20
-30.675816423236569
 11
164.18723226169027
 21
-30.675816423236569
  0
LINE
  8
_0-6_細線
  6
CONTINUOUS
 62
    7
 10
170.17173736777585
 20
-30.675816423236569
 11
172.75510683000743
 21
-30.675816423236569
  0
LINE
  8
_0-6_細線
  6
CONTINUOUS
 62
    7
 10
175.11877055246515
 20
-30.675816423236569
 11
177.71877055246495
 21
-30.675816423236569
  0
LINE
  8
_0-6_細線
  6
CONTINUOUS
 62
    7
 10
181.19033509917176
 20
-30.675816423236569
 11
183.79033509917218
 21
-30.675816423236569
  0
LINE
  8
_0-6_細線
  6
CONTINUOUS
 62
    7
 10
185.79033509917207
 20
-30.675816423236569
 11
188.39033509917203
 21
-30.675816423236569
  0
LINE
  8
_0-6_細線
  6
CONTINUOUS
 62
    7
 10
190.52427960161566
 20
-30.675816423236569
 11
193.12427960161568
 21
-30.675816423236569
  0
LINE
  8
_0-6_細線
  6
CONTINUOUS
 62
    7
 10
197.31315879773524
 20
-30.675816423236569
 11
199.91315879773515
 21
-30.675816423236569
  0
LINE
  8
_0-6_細線
  6
CONTINUOUS
 62
    7
 10
201.78776685346315
 20
-30.675816423236569
 11
204.38195934085957
 21
-30.675816423236569
  0
LINE
  8
_0-6_細線
  6
CONTINUOUS
 62
    7
 10
207.07067755298453
 20
-30.675816423236569
 11
209.27067755298486
 21
-30.675816423236569
  0
LINE
  8
_0-6_細線
  6
CONTINUOUS
 62
    7
 10
150.35647145598685
 20
-30.275816423236932
 11
152.95647145598676
 21
-30.275816423236932
  0
LINE
  8
_0-6_細線
  6
CONTINUOUS
 62
    7
 10
154.42642117547277
 20
-30.275816423236932
 11
157.02642117547276
 21
-30.275816423236932
  0
LINE
  8
_0-6_細線
  6
CONTINUOUS
 62
    7
 10
161.58723226168985
 20
-30.275816423236932
 11
164.18723226169027
 21
-30.275816423236932
  0
LINE
  8
_0-6_細線
  6
CONTINUOUS
 62
    7
 10
170.13980597941526
 20
-30.275816423236932
 11
172.71474313316844
 21
-30.275816423236932
  0
LINE
  8
_0-6_細線
  6
CONTINUOUS
 62
    7
 10
174.93224748920306
 20
-30.275816423236932
 11
177.53224748920297
 21
-30.275816423236932
  0
LINE
  8
_0-6_細線
  6
CONTINUOUS
 62
    7
 10
181.37685816243373
 20
-30.275816423236932
 11
183.97685816243376
 21
-30.275816423236932
  0
LINE
  8
_0-6_細線
  6
CONTINUOUS
 62
    7
 10
185.97685816243376
 20
-30.275816423236932
 11
188.57685816243355
 21
-30.275816423236932
  0
LINE
  8
_0-6_細線
  6
CONTINUOUS
 62
    7
 10
190.33775653835369
 20
-30.275816423236932
 11
192.93775653835405
 21
-30.275816423236932
  0
LINE
  8
_0-6_細線
  6
CONTINUOUS
 62
    7
 10
197.31315879773524
 20
-30.275816423236932
 11
199.91315879773515
 21
-30.275816423236932
  0
LINE
  8
_0-6_細線
  6
CONTINUOUS
 62
    7
 10
201.53781911269948
 20
-30.275816423236932
 11
204.13201160009635
 21
-30.275816423236932
  0
LINE
  8
_0-6_細線
  6
CONTINUOUS
 62
    7
 10
207.07067755298453
 20
-30.275816423236932
 11
209.27067755298486
 21
-30.275816423236932
  0
LINE
  8
_0-6_細線
  6
CONTINUOUS
 62
    7
 10
150.54299451924885
 20
-29.875816423236842
 11
153.14299451924876
 21
-29.875816423236842
  0
LINE
  8
_0-6_細線
  6
CONTINUOUS
 62
    7
 10
154.23989811221077
 20
-29.875816423236842
 11
156.83989811221116
 21
-29.875816423236842
  0
LINE
  8
_0-6_細線
  6
CONTINUOUS
 62
    7
 10
161.58723226168985
 20
-29.875816423236842
 11
164.18723226169027
 21
-29.875816423236842
  0
LINE
  8
_0-6_細線
  6
CONTINUOUS
 62
    7
 10
170.08162269535597
 20
-29.875816423236842
 11
172.65601828260628
 21
-29.875816423236842
  0
LINE
  8
_0-6_細線
  6
CONTINUOUS
 62
    7
 10
174.74572442594149
 20
-29.875816423236842
 11
177.34572442594134
 21
-29.875816423236842
  0
LINE
  8
_0-6_細線
  6
CONTINUOUS
 62
    7
 10
181.56338122569588
 20
-29.875816423236842
 11
184.16338122569579
 21
-29.875816423236842
  0
LINE
  8
_0-6_細線
  6
CONTINUOUS
 62
    7
 10
186.16338122569579
 20
-29.875816423236842
 11
188.76338122569564
 21
-29.875816423236842
  0
LINE
  8
_0-6_細線
  6
CONTINUOUS
 62
    7
 10
190.15123347509166
 20
-29.875816423236842
 11
192.75123347509157
 21
-29.875816423236842
  0
LINE
  8
_0-6_細線
  6
CONTINUOUS
 62
    7
 10
197.31315879773524
 20
-29.875816423236842
 11
199.91315879773515
 21
-29.875816423236842
  0
LINE
  8
_0-6_細線
  6
CONTINUOUS
 62
    7
 10
201.28787137193575
 20
-29.875816423236842
 11
203.88206385933228
 21
-29.875816423236842
  0
LINE
  8
_0-6_細線
  6
CONTINUOUS
 62
    7
 10
207.07067755298453
 20
-29.875816423236842
 11
209.27067755298486
 21
-29.875816423236842
  0
LINE
  8
_0-6_細線
  6
CONTINUOUS
 62
    7
 10
150.72951758251045
 20
-29.475816423236751
 11
153.32951758251076
 21
-29.475816423236751
  0
LINE
  8
_0-6_細線
  6
CONTINUOUS
 62
    7
 10
154.05337504894916
 20
-29.475816423236751
 11
156.65337504894907
 21
-29.475816423236751
  0
LINE
  8
_0-6_細線
  6
CONTINUOUS
 62
    7
 10
161.58723226168985
 20
-29.475816423236751
 11
164.18723226169027
 21
-29.475816423236751
  0
LINE
  8
_0-6_細線
  6
CONTINUOUS
 62
    7
 10
169.98468218893669
 20
-29.475816423236751
 11
172.58132388412764
 21
-29.475816423236751
  0
LINE
  8
_0-6_細線
  6
CONTINUOUS
 62
    7
 10
174.55920136267855
 20
-29.475816423236751
 11
177.15920136267897
 21
-29.475816423236751
  0
LINE
  8
_0-6_細線
  6
CONTINUOUS
 62
    7
 10
181.74990428895785
 20
-29.475816423236751
 11
184.34990428895776
 21
-29.475816423236751
  0
LINE
  8
_0-6_細線
  6
CONTINUOUS
 62
    7
 10
186.34990428895776
 20
-29.475816423236751
 11
188.94990428895767
 21
-29.475816423236751
  0
LINE
  8
_0-6_細線
  6
CONTINUOUS
 62
    7
 10
189.96471041182969
 20
-29.475816423236751
 11
192.56471041182954
 21
-29.475816423236751
  0
LINE
  8
_0-6_細線
  6
CONTINUOUS
 62
    7
 10
197.31315879773524
 20
-29.475816423236751
 11
199.91315879773515
 21
-29.475816423236751
  0
LINE
  8
_0-6_細線
  6
CONTINUOUS
 62
    7
 10
201.03792363117168
 20
-29.475816423236751
 11
203.63211611856855
 21
-29.475816423236751
  0
LINE
  8
_0-6_細線
  6
CONTINUOUS
 62
    7
 10
207.07067755298453
 20
-29.475816423236751
 11
209.27067755298486
 21
-29.475816423236751
  0
LINE
  8
_0-6_細線
  6
CONTINUOUS
 62
    7
 10
150.91604064577245
 20
-29.07581642323666
 11
153.51604064577236
 21
-29.07581642323666
  0
LINE
  8
_0-6_細線
  6
CONTINUOUS
 62
    7
 10
153.86685198568716
 20
-29.07581642323666
 11
156.46685198568707
 21
-29.07581642323666
  0
LINE
  8
_0-6_細線
  6
CONTINUOUS
 62
    7
 10
161.58723226168985
 20
-29.07581642323666
 11
164.18723226169027
 21
-29.07581642323666
  0
LINE
  8
_0-6_細線
  6
CONTINUOUS
 62
    7
 10
169.82793844451567
 20
-29.07581642323666
 11
172.49089517588777
 21
-29.07581642323666
  0
LINE
  8
_0-6_細線
  6
CONTINUOUS
 62
    7
 10
174.37267829941698
 20
-29.07581642323666
 11
176.97267829941688
 21
-29.07581642323666
  0
LINE
  8
_0-6_細線
  6
CONTINUOUS
 62
    7
 10
181.93642735221988
 20
-29.07581642323666
 11
184.53642735222024
 21
-29.07581642323666
  0
LINE
  8
_0-6_細線
  6
CONTINUOUS
 62
    7
 10
186.53642735221979
 20
-29.07581642323666
 11
189.13642735222015
 21
-29.07581642323666
  0
LINE
  8
_0-6_細線
  6
CONTINUOUS
 62
    7
 10
189.77818734856754
 20
-29.07581642323666
 11
192.37818734856745
 21
-29.07581642323666
  0
LINE
  8
_0-6_細線
  6
CONTINUOUS
 62
    7
 10
197.31315879773524
 20
-29.07581642323666
 11
199.91315879773515
 21
-29.07581642323666
  0
LINE
  8
_0-6_細線
  6
CONTINUOUS
 62
    7
 10
200.78797589040846
 20
-29.07581642323666
 11
203.38216837780487
 21
-29.07581642323666
  0
LINE
  8
_0-6_細線
  6
CONTINUOUS
 62
    7
 10
207.07067755298453
 20
-29.07581642323666
 11
209.27067755298486
 21
-29.07581642323666
  0
LINE
  8
_0-6_細線
  6
CONTINUOUS
 62
    7
 10
151.10256370903446
 20
-28.675816423236569
 11
156.28032892242507
 21
-28.675816423236569
  0
LINE
  8
_0-6_細線
  6
CONTINUOUS
 62
    7
 10
161.58723226168985
 20
-28.675816423236569
 11
164.18723226169027
 21
-28.675816423236569
  0
LINE
  8
_0-6_細線
  6
CONTINUOUS
 62
    7
 10
169.58723226168996
 20
-28.675816423236569
 11
172.38723226169009
 21
-28.675816423236569
  0
LINE
  8
_0-6_細線
  6
CONTINUOUS
 62
    7
 10
174.18615523615495
 20
-28.675816423236569
 11
176.78615523615485
 21
-28.675816423236569
  0
LINE
  8
_0-6_細線
  6
CONTINUOUS
 62
    7
 10
182.12295041548197
 20
-28.675816423236569
 11
184.72295041548176
 21
-28.675816423236569
  0
LINE
  8
_0-6_細線
  6
CONTINUOUS
 62
    7
 10
186.72295041548176
 20
-28.675816423236569
 11
189.32295041548178
 21
-28.675816423236569
  0
LINE
  8
_0-6_細線
  6
CONTINUOUS
 62
    7
 10
189.59166428530557
 20
-28.675816423236569
 11
192.19166428530599
 21
-28.675816423236569
  0
LINE
  8
_0-6_細線
  6
CONTINUOUS
 62
    7
 10
197.31315879773524
 20
-28.675816423236569
 11
199.91315879773515
 21
-28.675816423236569
  0
LINE
  8
_0-6_細線
  6
CONTINUOUS
 62
    7
 10
200.53802814964439
 20
-28.675816423236569
 11
203.13222063704075
 21
-28.675816423236569
  0
LINE
  8
_0-6_細線
  6
CONTINUOUS
 62
    7
 10
207.07067755298453
 20
-28.675816423236569
 11
209.27067755298486
 21
-28.675816423236569
  0
LINE
  8
_0-6_細線
  6
CONTINUOUS
 62
    7
 10
151.28908677229697
 20
-28.275816423236932
 11
156.09380585916296
 21
-28.275816423236932
  0
LINE
  8
_0-6_細線
  6
CONTINUOUS
 62
    7
 10
161.58723226168985
 20
-28.275816423236932
 11
164.18723226169027
 21
-28.275816423236932
  0
LINE
  8
_0-6_細線
  6
CONTINUOUS
 62
    7
 10
169.16233220749126
 20
-28.275816423236932
 11
172.26162950793588
 21
-28.275816423236932
  0
LINE
  8
_0-6_細線
  6
CONTINUOUS
 62
    7
 10
173.99963217289337
 20
-28.275816423236932
 11
176.59963217289328
 21
-28.275816423236932
  0
LINE
  8
_0-6_細線
  6
CONTINUOUS
 62
    7
 10
182.30947347874394
 20
-28.275816423236932
 11
184.90947347874385
 21
-28.275816423236932
  0
LINE
  8
_0-6_細線
  6
CONTINUOUS
 62
    7
 10
186.90947347874385
 20
-28.275816423236932
 11
192.00514122204396
 21
-28.275816423236932
  0
LINE
  8
_0-6_細線
  6
CONTINUOUS
 62
    7
 10
197.31315879773524
 20
-28.275816423236932
 11
199.91315879773515
 21
-28.275816423236932
  0
LINE
  8
_0-6_細線
  6
CONTINUOUS
 62
    7
 10
200.28808040888106
 20
-28.275816423236932
 11
202.88227289627747
 21
-28.275816423236932
  0
LINE
  8
_0-6_細線
  6
CONTINUOUS
 62
    7
 10
207.07067755298453
 20
-28.275816423236932
 11
209.27067755298486
 21
-28.275816423236932
  0
LINE
  8
_0-6_細線
  6
CONTINUOUS
 62
    7
 10
151.47560983555857
 20
-27.875816423236842
 11
155.90728279590095
 21
-27.875816423236842
  0
LINE
  8
_0-6_細線
  6
CONTINUOUS
 62
    7
 10
161.58723226168985
 20
-27.875816423236842
 11
164.18723226169027
 21
-27.875816423236842
  0
LINE
  8
_0-6_細線
  6
CONTINUOUS
 62
    7
 10
168.54656331115737
 20
-27.875816423236842
 11
172.09550626989926
 21
-27.875816423236842
  0
LINE
  8
_0-6_細線
  6
CONTINUOUS
 62
    7
 10
173.81310910963134
 20
-27.875816423236842
 11
176.41310910963125
 21
-27.875816423236842
  0
LINE
  8
_0-6_細線
  6
CONTINUOUS
 62
    7
 10
182.49599654200546
 20
-27.875816423236842
 11
185.09599654200588
 21
-27.875816423236842
  0
LINE
  8
_0-6_細線
  6
CONTINUOUS
 62
    7
 10
187.09599654200548
 20
-27.875816423236842
 11
191.81861815878187
 21
-27.875816423236842
  0
LINE
  8
_0-6_細線
  6
CONTINUOUS
 62
    7
 10
197.31315879773524
 20
-27.875816423236842
 11
199.91315879773515
 21
-27.875816423236842
  0
LINE
  8
_0-6_細線
  6
CONTINUOUS
 62
    7
 10
200.03813266811699
 20
-27.875816423236842
 11
202.63232515551334
 21
-27.875816423236842
  0
LINE
  8
_0-6_細線
  6
CONTINUOUS
 62
    7
 10
207.07067755298453
 20
-27.875816423236842
 11
209.27067755298486
 21
-27.875816423236842
  0
LINE
  8
_0-6_細線
  6
CONTINUOUS
 62
    7
 10
151.66213289882057
 20
-27.475816423236751
 11
155.72075973263895
 21
-27.475816423236751
  0
LINE
  8
_0-6_細線
  6
CONTINUOUS
 62
    7
 10
161.58723226168985
 20
-27.475816423236751
 11
171.84934415303474
 21
-27.475816423236751
  0
LINE
  8
_0-6_細線
  6
CONTINUOUS
 62
    7
 10
173.62658604636937
 20
-27.475816423236751
 11
176.22658604636877
 21
-27.475816423236751
  0
LINE
  8
_0-6_細線
  6
CONTINUOUS
 62
    7
 10
182.68251960526754
 20
-27.475816423236751
 11
185.28251960526785
 21
-27.475816423236751
  0
LINE
  8
_0-6_細線
  6
CONTINUOUS
 62
    7
 10
187.28251960526785
 20
-27.475816423236751
 11
191.63209509551939
 21
-27.475816423236751
  0
LINE
  8
_0-6_細線
  6
CONTINUOUS
 62
    7
 10
197.31315879773524
 20
-27.475816423236751
 11
202.38237741475018
 21
-27.475816423236751
  0
LINE
  8
_0-6_細線
  6
CONTINUOUS
 62
    7
 10
207.07067755298453
 20
-27.475816423236751
 11
209.27067755298486
 21
-27.475816423236751
  0
LINE
  8
_0-6_細線
  6
CONTINUOUS
 62
    7
 10
151.84865596208257
 20
-27.07581642323666
 11
155.53423666937695
 21
-27.07581642323666
  0
LINE
  8
_0-6_細線
  6
CONTINUOUS
 62
    7
 10
161.58723226168985
 20
-27.07581642323666
 11
171.47102188254416
 21
-27.07581642323666
  0
LINE
  8
_0-6_細線
  6
CONTINUOUS
 62
    7
 10
173.44006298310688
 20
-27.07581642323666
 11
176.04006298310674
 21
-27.07581642323666
  0
LINE
  8
_0-6_細線
  6
CONTINUOUS
 62
    7
 10
182.86904266852997
 20
-27.07581642323666
 11
185.46904266852994
 21
-27.07581642323666
  0
LINE
  8
_0-6_細線
  6
CONTINUOUS
 62
    7
 10
187.46904266852994
 20
-27.07581642323666
 11
191.44557203225776
 21
-27.07581642323666
  0
LINE
  8
_0-6_細線
  6
CONTINUOUS
 62
    7
 10
197.31315879773524
 20
-27.07581642323666
 11
202.13242967398605
 21
-27.07581642323666
  0
LINE
  8
_0-6_細線
  6
CONTINUOUS
 62
    7
 10
207.07067755298453
 20
-27.07581642323666
 11
209.27067755298486
 21
-27.07581642323666
  0
LINE
  8
_0-6_細線
  6
CONTINUOUS
 62
    7
 10
152.03517902534466
 20
-26.675816423236569
 11
155.34771360611487
 21
-26.675816423236569
  0
LINE
  8
_0-6_細線
  6
CONTINUOUS
 62
    7
 10
161.58723226168985
 20
-26.675816423236569
 11
170.91549015946856
 21
-26.675816423236569
  0
LINE
  8
_0-6_細線
  6
CONTINUOUS
 62
    7
 10
173.25353991984525
 20
-26.675816423236569
 11
175.85353991984516
 21
-26.675816423236569
  0
LINE
  8
_0-6_細線
  6
CONTINUOUS
 62
    7
 10
183.05556573179206
 20
-26.675816423236569
 11
185.65556573179197
 21
-26.675816423236569
  0
LINE
  8
_0-6_細線
  6
CONTINUOUS
 62
    7
 10
187.65556573179197
 20
-26.675816423236569
 11
191.25904896899578
 21
-26.675816423236569
  0
LINE
  8
_0-6_細線
  6
CONTINUOUS
 62
    7
 10
197.31315879773524
 20
-26.675816423236569
 11
201.88248193322238
 21
-26.675816423236569
  0
LINE
  8
_0-6_細線
  6
CONTINUOUS
 62
    7
 10
207.07067755298453
 20
-26.675816423236569
 11
209.27067755298486
 21
-26.675816423236569
  0
LINE
  8
_0-6_細線
  6
CONTINUOUS
 62
    7
 10
152.22170208860666
 20
-26.275816423236932
 11
155.16119054285286
 21
-26.275816423236932
  0
LINE
  8
_0-6_細線
  6
CONTINUOUS
 62
    7
 10
161.58723226168985
 20
-26.275816423236932
 11
170.11335826323216
 21
-26.275816423236932
  0
LINE
  8
_0-6_細線
  6
CONTINUOUS
 62
    7
 10
173.06701685658317
 20
-26.275816423236932
 11
175.66701685658319
 21
-26.275816423236932
  0
LINE
  8
_0-6_細線
  6
CONTINUOUS
 62
    7
 10
183.24208879505369
 20
-26.275816423236932
 11
185.84208879505354
 21
-26.275816423236932
  0
LINE
  8
_0-6_細線
  6
CONTINUOUS
 62
    7
 10
187.84208879505354
 20
-26.275816423236932
 11
191.07252590573376
 21
-26.275816423236932
  0
LINE
  8
_0-6_細線
  6
CONTINUOUS
 62
    7
 10
197.31315879773524
 20
-26.275816423236932
 11
201.63253419245876
 21
-26.275816423236932
  0
LINE
  8
_0-6_細線
  6
CONTINUOUS
 62
    7
 10
207.07067755298453
 20
-26.275816423236932
 11
209.27067755298486
 21
-26.275816423236932
  0
LINE
  8
_0-6_細線
  6
CONTINUOUS
 62
    7
 10
152.40822515186866
 20
-25.875816423236842
 11
154.97466747959086
 21
-25.875816423236842
  0
LINE
  8
_0-6_細線
  6
CONTINUOUS
 62
    7
 10
161.58723226168985
 20
-25.875816423236842
 11
168.93656692396345
 21
-25.875816423236842
  0
LINE
  8
_0-6_細線
  6
CONTINUOUS
 62
    7
 10
172.88049379332114
 20
-25.875816423236842
 11
175.48049379332156
 21
-25.875816423236842
  0
LINE
  8
_0-6_細線
  6
CONTINUOUS
 62
    7
 10
183.42861185831617
 20
-25.875816423236842
 11
186.02861185831557
 21
-25.875816423236842
  0
LINE
  8
_0-6_細線
  6
CONTINUOUS
 62
    7
 10
188.02861185831608
 20
-25.875816423236842
 11
190.88600284247127
 21
-25.875816423236842
  0
LINE
  8
_0-6_細線
  6
CONTINUOUS
 62
    7
 10
197.31315879773524
 20
-25.875816423236842
 11
201.38258645169458
 21
-25.875816423236842
  0
LINE
  8
_0-6_細線
  6
CONTINUOUS
 62
    7
 10
207.07067755298453
 20
-25.875816423236842
 11
209.27067755298486
 21
-25.875816423236842
  0
LINE
  8
_0-6_細線
  6
CONTINUOUS
 62
    7
 10
125.51970670233027
 20
-36.937946986987384
 11
133.92740630672665
 21
-36.937946986987384
  0
LINE
  8
_0-6_細線
  6
CONTINUOUS
 62
    7
 10
125.51970670233027
 20
-36.737946986987566
 11
133.92740630672665
 21
-36.737946986987566
  0
LINE
  8
_0-6_細線
  6
CONTINUOUS
 62
    7
 10
125.51970670233027
 20
-36.537946986987748
 11
133.92740630672665
 21
-36.537946986987748
  0
LINE
  8
_0-6_細線
  6
CONTINUOUS
 62
    7
 10
125.51970670233027
 20
-36.337946986987475
 11
133.92740630672665
 21
-36.337946986987475
  0
LINE
  8
_0-6_細線
  6
CONTINUOUS
 62
    7
 10
125.51970670233027
 20
-36.137946986987657
 11
133.92740630672665
 21
-36.137946986987657
  0
LINE
  8
_0-6_細線
  6
CONTINUOUS
 62
    7
 10
125.51970670233027
 20
-35.937946986987839
 11
133.92740630672665
 21
-35.937946986987839
  0
LINE
  8
_0-6_細線
  6
CONTINUOUS
 62
    7
 10
125.51970670233027
 20
-35.737946986987566
 11
133.92740630672665
 21
-35.737946986987566
  0
LINE
  8
_0-6_細線
  6
CONTINUOUS
 62
    7
 10
125.51970670233027
 20
-35.537946986987748
 11
133.92740630672665
 21
-35.537946986987748
  0
LINE
  8
_0-6_細線
  6
CONTINUOUS
 62
    7
 10
125.51970670233027
 20
-35.337946986987475
 11
133.92740630672665
 21
-35.337946986987475
  0
LINE
  8
_0-6_細線
  6
CONTINUOUS
 62
    7
 10
125.51970670233027
 20
-35.137946986987657
 11
133.92740630672665
 21
-35.137946986987657
  0
LINE
  8
_0-6_細線
  6
CONTINUOUS
 62
    7
 10
125.51970670233027
 20
-34.937946986987839
 11
133.92740630672665
 21
-34.937946986987839
  0
LINE
  8
_0-6_細線
  6
CONTINUOUS
 62
    7
 10
125.51970670233027
 20
-34.737946986988021
 11
133.92740630672665
 21
-34.737946986988021
  0
LINE
  8
_0-6_細線
  6
CONTINUOUS
 62
    7
 10
125.51970670233027
 20
-34.537946986987748
 11
133.92740630672665
 21
-34.537946986987748
  0
LINE
  8
_0-6_細線
  6
CONTINUOUS
 62
    7
 10
125.51970670233027
 20
-34.337946986987475
 11
133.92740630672665
 21
-34.337946986987475
  0
LINE
  8
_0-6_細線
  6
CONTINUOUS
 62
    7
 10
125.51970670233027
 20
-34.137946986987657
 11
133.92740630672665
 21
-34.137946986987657
  0
LINE
  8
_0-6_細線
  6
CONTINUOUS
 62
    7
 10
125.51970670233027
 20
-33.937946986987839
 11
133.92740630672665
 21
-33.937946986987839
  0
LINE
  8
_0-6_細線
  6
CONTINUOUS
 62
    7
 10
125.51970670233027
 20
-33.737946986988021
 11
133.92740630672665
 21
-33.737946986988021
  0
LINE
  8
_0-6_細線
  6
CONTINUOUS
 62
    7
 10
125.51970670233027
 20
-33.537946986987748
 11
133.92740630672665
 21
-33.537946986987748
  0
LINE
  8
_0-6_細線
  6
CONTINUOUS
 62
    7
 10
125.51970670233027
 20
-33.33794698698793
 11
133.92740630672665
 21
-33.33794698698793
  0
LINE
  8
_0-6_細線
  6
CONTINUOUS
 62
    7
 10
125.51970670233027
 20
-33.137946986987657
 11
133.92740630672665
 21
-33.137946986987657
  0
LINE
  8
_0-6_細線
  6
CONTINUOUS
 62
    7
 10
125.51970670233027
 20
-32.937946986987839
 11
133.92740630672665
 21
-32.937946986987839
  0
LINE
  8
_0-6_細線
  6
CONTINUOUS
 62
    7
 10
125.51970670233027
 20
-32.737946986988021
 11
133.92740630672665
 21
-32.737946986988021
  0
LINE
  8
_0-6_細線
  6
CONTINUOUS
 62
    7
 10
125.51970670233027
 20
-32.537946986987748
 11
133.92740630672665
 21
-32.537946986987748
  0
LINE
  8
_0-6_細線
  6
CONTINUOUS
 62
    7
 10
125.51970670233027
 20
-32.33794698698793
 11
133.92740630672665
 21
-32.33794698698793
  0
LINE
  8
_0-6_細線
  6
CONTINUOUS
 62
    7
 10
125.51970670233027
 20
-32.137946986987657
 11
133.92740630672665
 21
-32.137946986987657
  0
LINE
  8
_0-6_細線
  6
CONTINUOUS
 62
    7
 10
125.51970670233027
 20
-31.937946986987839
 11
133.92740630672665
 21
-31.937946986987839
  0
LINE
  8
_0-6_細線
  6
CONTINUOUS
 62
    7
 10
125.51970670233027
 20
-31.737946986988021
 11
133.92740630672665
 21
-31.737946986988021
  0
LINE
  8
_0-6_細線
  6
CONTINUOUS
 62
    7
 10
125.51970670233027
 20
-31.537946986988203
 11
133.92740630672665
 21
-31.537946986988203
  0
LINE
  8
_0-6_細線
  6
CONTINUOUS
 62
    7
 10
125.51970670233027
 20
-31.33794698698793
 11
133.92740630672665
 21
-31.33794698698793
  0
LINE
  8
_0-6_細線
  6
CONTINUOUS
 62
    7
 10
125.51970670233027
 20
-31.137946986987657
 11
133.92740630672665
 21
-31.137946986987657
  0
LINE
  8
_0-6_細線
  6
CONTINUOUS
 62
    7
 10
125.51970670233027
 20
-30.937946986987839
 11
133.92740630672665
 21
-30.937946986987839
  0
LINE
  8
_0-6_細線
  6
CONTINUOUS
 62
    7
 10
125.51970670233027
 20
-30.737946986988021
 11
133.92740630672665
 21
-30.737946986988021
  0
LINE
  8
_0-6_細線
  6
CONTINUOUS
 62
    7
 10
125.51970670233027
 20
-30.537946986988203
 11
133.92740630672665
 21
-30.537946986988203
  0
LINE
  8
_0-6_細線
  6
CONTINUOUS
 62
    7
 10
125.51970670233027
 20
-30.33794698698793
 11
133.92740630672665
 21
-30.33794698698793
  0
LINE
  8
_0-6_細線
  6
CONTINUOUS
 62
    7
 10
125.51970670233027
 20
-30.137946986987657
 11
133.92740630672665
 21
-30.137946986987657
  0
LINE
  8
_0-6_細線
  6
CONTINUOUS
 62
    7
 10
125.51970670233027
 20
-29.937946986987839
 11
133.92740630672665
 21
-29.937946986987839
  0
LINE
  8
_0-6_細線
  6
CONTINUOUS
 62
    7
 10
125.51970670233027
 20
-29.737946986988021
 11
133.92740630672665
 21
-29.737946986988021
  0
LINE
  8
_0-6_細線
  6
CONTINUOUS
 62
    7
 10
125.51970670233027
 20
-29.537946986988203
 11
133.92740630672665
 21
-29.537946986988203
  0
LINE
  8
_0-6_細線
  6
CONTINUOUS
 62
    7
 10
125.51970670233027
 20
-29.33794698698793
 11
133.92740630672665
 21
-29.33794698698793
  0
LINE
  8
_0-6_細線
  6
CONTINUOUS
 62
    7
 10
125.51970670233027
 20
-29.137946986987657
 11
133.92740630672665
 21
-29.137946986987657
  0
LINE
  8
_0-6_細線
  6
CONTINUOUS
 62
    7
 10
125.51970670233027
 20
-28.937946986987839
 11
133.92740630672665
 21
-28.937946986987839
  0
LINE
  8
_0-6_細線
  6
CONTINUOUS
 62
    7
 10
125.51970670233027
 20
-28.737946986988021
 11
133.92740630672665
 21
-28.737946986988021
  0
LINE
  8
_0-6_細線
  6
CONTINUOUS
 62
    7
 10
144.48203179016247
 20
-19.33794698698793
 11
147.40914731380437
 21
-19.33794698698793
  0
LINE
  8
_0-6_細線
  6
CONTINUOUS
 62
    7
 10
143.93743494159327
 20
-18.937946986987839
 11
147.95374416237357
 21
-18.937946986987839
  0
LINE
  8
_0-6_細線
  6
CONTINUOUS
 62
    7
 10
143.57844600832436
 20
-18.537946986987748
 11
148.31273309564247
 21
-18.537946986987748
  0
LINE
  8
_0-6_細線
  6
CONTINUOUS
 62
    7
 10
143.32756507285126
 20
-18.137946986988112
 11
148.56361403111555
 21
-18.137946986988112
  0
LINE
  8
_0-6_細線
  6
CONTINUOUS
 62
    7
 10
143.15547561337846
 20
-17.737946986987566
 11
148.73570349058826
 21
-17.737946986987566
  0
LINE
  8
_0-6_細線
  6
CONTINUOUS
 62
    7
 10
143.04810453779757
 20
-17.33794698698793
 11
148.84307456616926
 21
-17.33794698698793
  0
LINE
  8
_0-6_細線
  6
CONTINUOUS
 62
    7
 10
142.99837001070526
 20
-16.937946986987839
 11
148.89280909326158
 21
-16.937946986987839
  0
LINE
  8
_0-6_細線
  6
CONTINUOUS
 62
    7
 10
143.00334778055296
 20
-16.537946986988203
 11
148.88783132341376
 21
-16.537946986988203
  0
LINE
  8
_0-6_細線
  6
CONTINUOUS
 62
    7
 10
143.06332130308627
 20
-16.137946986988112
 11
148.82785780088057
 21
-16.137946986988112
  0
LINE
  8
_0-6_細線
  6
CONTINUOUS
 62
    7
 10
143.18186853211705
 20
-15.737946986988021
 11
148.70931057184976
 21
-15.737946986988021
  0
LINE
  8
_0-6_細線
  6
CONTINUOUS
 62
    7
 10
143.36705557068967
 20
-15.33794698698793
 11
148.52412353327716
 21
-15.33794698698793
  0
LINE
  8
_0-6_細線
  6
CONTINUOUS
 62
    7
 10
143.63484917068965
 20
-14.937946986987839
 11
148.25632993327716
 21
-14.937946986987839
  0
LINE
  8
_0-6_細線
  6
CONTINUOUS
 62
    7
 10
144.01940037986176
 20
-14.537946986988203
 11
147.87177872410507
 21
-14.537946986988203
  0
LINE
  8
_0-6_細線
  6
CONTINUOUS
 62
    7
 10
144.61860487089257
 20
-14.137946986988112
 11
147.27257423307427
 21
-14.137946986988112
  0
LINE
  8
_0-6_細線
  6
CONTINUOUS
 62
    7
 10
148.74201372833406
 20
-17.719473172452666
 11
148.74201372833406
 21
-15.829711758895968
  0
LINE
  8
_0-6_細線
  6
CONTINUOUS
 62
    7
 10
148.34201372833405
 20
-18.497943530063452
 11
148.34201372833405
 21
-15.051241401285182
  0
LINE
  8
_0-6_細線
  6
CONTINUOUS
 62
    7
 10
147.94201372833396
 20
-18.948776963872746
 11
147.94201372833396
 21
-14.600407967475434
  0
LINE
  8
_0-6_細線
  6
CONTINUOUS
 62
    7
 10
147.54201372833376
 20
-19.257376703841686
 11
147.54201372833376
 21
-14.291808227506948
  0
LINE
  8
_0-6_細線
  6
CONTINUOUS
 62
    7
 10
147.14201372833415
 20
-19.472991419567364
 11
147.14201372833415
 21
-14.07619351178127
  0
LINE
  8
_0-6_細線
  6
CONTINUOUS
 62
    7
 10
146.74201372833406
 20
-19.61686202633436
 11
146.74201372833406
 21
-13.93232290501382
  0
LINE
  8
_0-6_細線
  6
CONTINUOUS
 62
    7
 10
146.34201372833405
 20
-19.699594277044611
 11
146.34201372833405
 21
-13.849590654303569
  0
LINE
  8
_0-6_細線
  6
CONTINUOUS
 62
    7
 10
145.94201372833396
 20
-19.726333466781028
 11
145.94201372833396
 21
-13.822851464567151
  0
LINE
  8
_0-6_細線
  6
CONTINUOUS
 62
    7
 10
133.74201372833406
 20
-36.979072841962164
 11
133.74201372833406
 21
-28.559534420478116
  0
LINE
  8
_0-6_細線
  6
CONTINUOUS
 62
    7
 10
133.54201372833387
 20
-36.979072841962164
 11
133.54201372833387
 21
-28.559534420478116
  0
LINE
  8
_0-6_細線
  6
CONTINUOUS
 62
    7
 10
133.34201372833397
 20
-36.979072841962164
 11
133.34201372833397
 21
-28.559534420478116
  0
LINE
  8
_0-6_細線
  6
CONTINUOUS
 62
    7
 10
133.14201372833415
 20
-36.979072841962164
 11
133.14201372833415
 21
-28.559534420478116
  0
LINE
  8
_0-6_細線
  6
CONTINUOUS
 62
    7
 10
132.94201372833388
 20
-36.979072841962164
 11
132.94201372833388
 21
-28.559534420478116
  0
LINE
  8
_0-6_細線
  6
CONTINUOUS
 62
    7
 10
132.74201372833406
 20
-36.979072841962164
 11
132.74201372833406
 21
-28.559534420478116
  0
LINE
  8
_0-6_細線
  6
CONTINUOUS
 62
    7
 10
132.54201372833376
 20
-36.979072841962164
 11
132.54201372833376
 21
-28.559534420478116
  0
LINE
  8
_0-6_細線
  6
CONTINUOUS
 62
    7
 10
132.34201372833397
 20
-36.979072841962164
 11
132.34201372833397
 21
-28.559534420478116
  0
LINE
  8
_0-6_細線
  6
CONTINUOUS
 62
    7
 10
132.14201372833415
 20
-36.979072841962164
 11
132.14201372833415
 21
-28.559534420478116
  0
LINE
  8
_0-6_細線
  6
CONTINUOUS
 62
    7
 10
131.94201372833388
 20
-36.979072841962164
 11
131.94201372833388
 21
-28.559534420478116
  0
LINE
  8
_0-6_細線
  6
CONTINUOUS
 62
    7
 10
131.74201372833406
 20
-36.979072841962164
 11
131.74201372833406
 21
-28.559534420478116
  0
LINE
  8
_0-6_細線
  6
CONTINUOUS
 62
    7
 10
131.54201372833387
 20
-36.979072841962164
 11
131.54201372833387
 21
-28.559534420478116
  0
LINE
  8
_0-6_細線
  6
CONTINUOUS
 62
    7
 10
131.34201372833397
 20
-36.979072841962164
 11
131.34201372833397
 21
-28.559534420478116
  0
LINE
  8
_0-6_細線
  6
CONTINUOUS
 62
    7
 10
131.14201372833415
 20
-36.979072841962164
 11
131.14201372833415
 21
-28.559534420478116
  0
LINE
  8
_0-6_細線
  6
CONTINUOUS
 62
    7
 10
130.94201372833388
 20
-36.979072841962164
 11
130.94201372833388
 21
-28.559534420478116
  0
LINE
  8
_0-6_細線
  6
CONTINUOUS
 62
    7
 10
130.74201372833406
 20
-36.979072841962164
 11
130.74201372833406
 21
-28.559534420478116
  0
LINE
  8
_0-6_細線
  6
CONTINUOUS
 62
    7
 10
130.54201372833376
 20
-36.979072841962164
 11
130.54201372833376
 21
-28.559534420478116
  0
LINE
  8
_0-6_細線
  6
CONTINUOUS
 62
    7
 10
130.34201372833397
 20
-36.979072841962164
 11
130.34201372833397
 21
-28.559534420478116
  0
LINE
  8
_0-6_細線
  6
CONTINUOUS
 62
    7
 10
130.14201372833415
 20
-36.979072841962164
 11
130.14201372833415
 21
-28.559534420478116
  0
LINE
  8
_0-6_細線
  6
CONTINUOUS
 62
    7
 10
129.94201372833388
 20
-36.979072841962164
 11
129.94201372833388
 21
-28.559534420478116
  0
LINE
  8
_0-6_細線
  6
CONTINUOUS
 62
    7
 10
129.74201372833406
 20
-36.979072841962164
 11
129.74201372833406
 21
-28.559534420478116
  0
LINE
  8
_0-6_細線
  6
CONTINUOUS
 62
    7
 10
129.54201372833387
 20
-36.979072841962164
 11
129.54201372833387
 21
-28.559534420478116
  0
LINE
  8
_0-6_細線
  6
CONTINUOUS
 62
    7
 10
129.34201372833397
 20
-36.979072841962164
 11
129.34201372833397
 21
-28.559534420478116
  0
LINE
  8
_0-6_細線
  6
CONTINUOUS
 62
    7
 10
129.14201372833415
 20
-36.979072841962164
 11
129.14201372833415
 21
-28.559534420478116
  0
LINE
  8
_0-6_細線
  6
CONTINUOUS
 62
    7
 10
128.94201372833388
 20
-36.979072841962164
 11
128.94201372833388
 21
-28.559534420478116
  0
LINE
  8
_0-6_細線
  6
CONTINUOUS
 62
    7
 10
128.74201372833406
 20
-36.979072841962164
 11
128.74201372833406
 21
-28.559534420478116
  0
LINE
  8
_0-6_細線
  6
CONTINUOUS
 62
    7
 10
128.54201372833376
 20
-36.979072841962164
 11
128.54201372833376
 21
-28.559534420478116
  0
LINE
  8
_0-6_細線
  6
CONTINUOUS
 62
    7
 10
128.34201372833397
 20
-36.979072841962164
 11
128.34201372833397
 21
-28.559534420478116
  0
LINE
  8
_0-6_細線
  6
CONTINUOUS
 62
    7
 10
128.14201372833415
 20
-36.979072841962164
 11
128.14201372833415
 21
-28.559534420478116
  0
LINE
  8
_0-6_細線
  6
CONTINUOUS
 62
    7
 10
127.94201372833388
 20
-36.979072841962164
 11
127.94201372833388
 21
-28.559534420478116
  0
LINE
  8
_0-6_細線
  6
CONTINUOUS
 62
    7
 10
127.74201372833406
 20
-36.979072841962164
 11
127.74201372833406
 21
-28.559534420478116
  0
LINE
  8
_0-6_細線
  6
CONTINUOUS
 62
    7
 10
127.54201372833387
 20
-36.979072841962164
 11
127.54201372833387
 21
-28.559534420478116
  0
LINE
  8
_0-6_細線
  6
CONTINUOUS
 62
    7
 10
127.34201372833397
 20
-36.979072841962164
 11
127.34201372833397
 21
-28.559534420478116
  0
LINE
  8
_0-6_細線
  6
CONTINUOUS
 62
    7
 10
127.14201372833415
 20
-36.979072841962164
 11
127.14201372833415
 21
-28.559534420478116
  0
LINE
  8
_0-6_細線
  6
CONTINUOUS
 62
    7
 10
126.94201372833388
 20
-36.979072841962164
 11
126.94201372833388
 21
-28.559534420478116
  0
LINE
  8
_0-6_細線
  6
CONTINUOUS
 62
    7
 10
126.74201372833406
 20
-36.979072841962164
 11
126.74201372833406
 21
-28.559534420478116
  0
LINE
  8
_0-6_細線
  6
CONTINUOUS
 62
    7
 10
126.54201372833376
 20
-36.979072841962164
 11
126.54201372833376
 21
-28.559534420478116
  0
LINE
  8
_0-6_細線
  6
CONTINUOUS
 62
    7
 10
126.34201372833397
 20
-36.979072841962164
 11
126.34201372833397
 21
-28.559534420478116
  0
LINE
  8
_0-6_細線
  6
CONTINUOUS
 62
    7
 10
126.14201372833415
 20
-36.979072841962164
 11
126.14201372833415
 21
-28.559534420478116
  0
LINE
  8
_0-6_細線
  6
CONTINUOUS
 62
    7
 10
125.94201372833388
 20
-36.979072841962164
 11
125.94201372833388
 21
-28.559534420478116
  0
LINE
  8
_0-6_細線
  6
CONTINUOUS
 62
    7
 10
125.74201372833406
 20
-36.979072841962164
 11
125.74201372833406
 21
-28.559534420478116
  0
LINE
  8
_0-6_細線
  6
CONTINUOUS
 62
    7
 10
125.54201372833387
 20
-36.979072841962164
 11
125.54201372833387
 21
-28.559534420478116
  0
LINE
  8
_0-6_細線
  6
CONTINUOUS
 62
    7
 10
130.14150882330276
 20
-22.405267654596258
 11
118.76119204301926
 21
-37.222904605251273
  0
LINE
  8
_0-6_細線
  6
CONTINUOUS
 62
    7
 10
118.76119204301926
 20
-37.222904605251273
 11
117.64638550127685
 21
-37.687407330976924
  0
LINE
  8
_0-6_細線
  6
CONTINUOUS
 62
    7
 10
117.64638550127685
 20
-37.687407330976924
 11
116.62447950468027
 21
-38.059009511557718
  0
LINE
  8
_0-6_細線
  6
CONTINUOUS
 62
    7
 10
116.62447950468027
 20
-38.059009511557718
 11
116.06707623380927
 21
-37.548056513259411
  0
LINE
  8
_0-6_細線
  6
CONTINUOUS
 62
    7
 10
116.06707623380927
 20
-37.548056513259411
 11
115.60257350808365
 21
-36.897752697243135
  0
LINE
  8
_0-6_細線
  6
CONTINUOUS
 62
    7
 10
115.60257350808365
 20
-36.897752697243135
 11
115.23097132750237
 21
-35.643595337783239
  0
LINE
  8
_0-6_細線
  6
CONTINUOUS
 62
    7
 10
115.23097132750237
 20
-35.643595337783239
 11
115.60257350808365
 21
-34.482338523468655
  0
LINE
  8
_0-6_細線
  6
CONTINUOUS
 62
    7
 10
115.60257350808365
 20
-34.482338523468655
 11
116.99608168526106
 21
-32.484976802847626
  0
LINE
  8
_0-6_細線
  6
CONTINUOUS
 62
    7
 10
116.99608168526106
 20
-32.484976802847626
 11
127.49384328666545
 21
-18.271193395636232
  0
LINE
  8
_0-6_細線
  6
CONTINUOUS
 62
    7
 10
127.49384328666545
 20
-18.271193395636232
 11
127.49384328666545
 21
-17.249287399039616
  0
LINE
  8
_0-6_細線
  6
CONTINUOUS
 62
    7
 10
127.49384328666545
 20
-17.249287399039616
 11
127.77254492210096
 21
-16.59898358302334
  0
LINE
  8
_0-6_細線
  6
CONTINUOUS
 62
    7
 10
127.77254492210096
 20
-16.59898358302334
 11
128.51574928326207
 21
-15.76287867671644
  0
LINE
  8
_0-6_細線
  6
CONTINUOUS
 62
    7
 10
128.51574928326207
 20
-15.76287867671644
 11
128.74800064612526
 21
-15.530627313854069
  0
LINE
  8
_0-6_細線
  6
CONTINUOUS
 62
    7
 10
128.74800064612526
 20
-15.530627313854069
 11
129.16605309927877
 21
-14.926773770409994
  0
LINE
  8
_0-6_細線
  6
CONTINUOUS
 62
    7
 10
129.16605309927877
 20
-14.926773770409994
 11
129.86280718786728
 21
-14.833873225265137
  0
LINE
  8
_0-6_細線
  6
CONTINUOUS
 62
    7
 10
129.86280718786728
 20
-14.833873225265137
 11
131.07051427475446
 21
-14.601621862401856
  0
LINE
  8
_0-6_細線
  6
CONTINUOUS
 62
    7
 10
131.07051427475446
 20
-14.601621862401856
 11
131.53501700048056
 21
-14.648072134974512
  0
LINE
  8
_0-6_細線
  6
CONTINUOUS
 62
    7
 10
131.53501700048056
 20
-14.648072134974512
 11
132.51047272450455
 21
-14.97322404298265
  0
LINE
  8
_0-6_細線
  6
CONTINUOUS
 62
    7
 10
132.51047272450455
 20
-14.97322404298265
 11
132.88207490508577
 21
-15.437726768708302
  0
LINE
  8
_0-6_細線
  6
CONTINUOUS
 62
    7
 10
132.88207490508577
 20
-15.437726768708302
 11
133.90398090168236
 21
-16.78478467331351
  0
LINE
  8
_0-6_細線
  6
CONTINUOUS
 62
    7
 10
133.90398090168236
 20
-16.78478467331351
 11
137.06259943661806
 21
-22.033665474015464
  0
LINE
  8
_0-6_細線
  6
CONTINUOUS
 62
    7
 10
139.30032503818916
 20
-25.813950894230487
 11
143.79606840024755
 21
-33.574659624933787
  0
LINE
  8
_0-6_細線
  6
CONTINUOUS
 62
    7
 10
143.79606840024755
 20
-33.574659624933787
 11
144.22717686506465
 21
-34.683224248749042
  0
LINE
  8
_0-6_細線
  6
CONTINUOUS
 62
    7
 10
144.22717686506465
 20
-34.683224248749042
 11
144.04241609442877
 21
-35.237506560656215
  0
LINE
  8
_0-6_細線
  6
CONTINUOUS
 62
    7
 10
144.04241609442877
 20
-35.237506560656215
 11
143.48813378252157
 21
-36.007343104972819
  0
LINE
  8
_0-6_細線
  6
CONTINUOUS
 62
    7
 10
143.48813378252157
 20
-36.007343104972819
 11
141.33259145843587
 21
-36.654005802197929
  0
LINE
  8
_0-6_細線
  6
CONTINUOUS
 62
    7
 10
141.33259145843587
 20
-36.654005802197929
 11
140.03926606398525
 21
-37.115907728788073
  0
LINE
  8
_0-6_細線
  6
CONTINUOUS
 62
    7
 10
140.03926606398525
 20
-37.115907728788073
 11
138.89990797839727
 21
-36.654005802197929
  0
LINE
  8
_0-6_細線
  6
CONTINUOUS
 62
    7
 10
138.89990797839727
 20
-36.654005802197929
 11
137.14468065735696
 21
-34.77560463406698
  0
LINE
  8
_0-6_細線
  6
CONTINUOUS
 62
    7
 10
137.14468065735696
 20
-34.77560463406698
 11
137.08309373381115
 21
-33.759420395569663
  0
LINE
  8
_0-6_細線
  6
CONTINUOUS
 62
    7
 10
137.08309373381115
 20
-33.759420395569663
 11
130.14150882330276
 21
-22.405267654596258
  0
LINE
  8
_0-6_細線
  6
CONTINUOUS
 62
    7
 10
143.27202785410847
 20
-36.072174883495421
 11
143.87712445366677
 21
-35.467078283937184
  0
LINE
  8
_0-6_細線
  6
CONTINUOUS
 62
    7
 10
142.46390581846916
 20
-36.314611494187915
 11
144.19024940074067
 21
-34.588267911916404
  0
LINE
  8
_0-6_細線
  6
CONTINUOUS
 62
    7
 10
141.65578378282657
 20
-36.557048104881318
 11
144.03185748175457
 21
-34.180974405952469
  0
LINE
  8
_0-6_細線
  6
CONTINUOUS
 62
    7
 10
140.80455688396185
 20
-36.842589578796009
 11
143.87346556276836
 21
-33.773680899988534
  0
LINE
  8
_0-6_細線
  6
CONTINUOUS
 62
    7
 10
139.98681660372065
 20
-37.094644434086234
 11
143.68996345825397
 21
-33.391497579553373
  0
LINE
  8
_0-6_細線
  6
CONTINUOUS
 62
    7
 10
139.58430966673967
 20
-36.93146594612071
 11
143.48246650277517
 21
-33.033309110085241
  0
LINE
  8
_0-6_細線
  6
CONTINUOUS
 62
    7
 10
139.18180272975655
 20
-36.768287458154276
 11
143.27496954729557
 21
-32.675120640614836
  0
LINE
  8
_0-6_細線
  6
CONTINUOUS
 62
    7
 10
138.81802650377696
 20
-36.566378259183324
 11
143.06747259181546
 21
-32.316932171144884
  0
LINE
  8
_0-6_細線
  6
CONTINUOUS
 62
    7
 10
138.54477167986016
 20
-36.273947658149694
 11
142.85997563633578
 21
-31.958743701674933
  0
LINE
  8
_0-6_細線
  6
CONTINUOUS
 62
    7
 10
138.27151685594416
 20
-35.98151705711652
 11
142.65247868085615
 21
-31.600555232204528
  0
LINE
  8
_0-6_細線
  6
CONTINUOUS
 62
    7
 10
137.99826203202957
 20
-35.689086456084709
 11
142.44498172537786
 21
-31.242366762736395
  0
LINE
  8
_0-6_細線
  6
CONTINUOUS
 62
    7
 10
137.72500720811266
 20
-35.396655855051534
 11
142.23748476989766
 21
-30.884178293266444
  0
LINE
  8
_0-6_細線
  6
CONTINUOUS
 62
    7
 10
137.45175238419617
 20
-35.104225254017905
 11
142.02998781441767
 21
-30.525989823796039
  0
LINE
  8
_0-6_細線
  6
CONTINUOUS
 62
    7
 10
137.17849756027977
 20
-34.811794652984275
 11
141.82249085893795
 21
-30.167801354325633
  0
LINE
  8
_0-6_細線
  6
CONTINUOUS
 62
    7
 10
137.11635617146496
 20
-34.308250616852177
 11
141.61499390345966
 21
-29.809612884857955
  0
LINE
  8
_0-6_細線
  6
CONTINUOUS
 62
    7
 10
137.08403129003977
 20
-33.774890073327782
 11
141.40749694797995
 21
-29.45142441538755
  0
LINE
  8
_0-6_細線
  6
CONTINUOUS
 62
    7
 10
136.87469212275326
 20
-33.418543815664265
 11
141.19999999249995
 21
-29.093235945917144
  0
LINE
  8
_0-6_細線
  6
CONTINUOUS
 62
    7
 10
136.66006544386596
 20
-33.06748506960102
 11
140.99250303701976
 21
-28.735047476447193
  0
LINE
  8
_0-6_細線
  6
CONTINUOUS
 62
    7
 10
136.44543876497917
 20
-32.716426323537775
 11
140.78500608154056
 21
-28.376859006977242
  0
LINE
  8
_0-6_細線
  6
CONTINUOUS
 62
    7
 10
136.23081208609366
 20
-32.365367577477258
 11
140.57750912606187
 21
-28.018670537508655
  0
LINE
  8
_0-6_細線
  6
CONTINUOUS
 62
    7
 10
136.01618540720636
 20
-32.014308831414468
 11
140.37001217058176
 21
-27.660482068038704
  0
LINE
  8
_0-6_細線
  6
CONTINUOUS
 62
    7
 10
135.80155872831867
 20
-31.663250085351677
 11
140.16251521510208
 21
-27.302293598568298
  0
LINE
  8
_0-6_細線
  6
CONTINUOUS
 62
    7
 10
135.58693204943185
 20
-31.312191339288887
 11
139.95501825962245
 21
-26.944105129098347
  0
LINE
  8
_0-6_細線
  6
CONTINUOUS
 62
    7
 10
135.37230537054646
 20
-30.961132593227916
 11
139.74752130414407
 21
-26.585916659630215
  0
LINE
  8
_0-6_細線
  6
CONTINUOUS
 62
    7
 10
135.15767869165916
 20
-30.610073847164671
 11
139.54002434866408
 21
-26.227728190159809
  0
LINE
  8
_0-6_細線
  6
CONTINUOUS
 62
    7
 10
134.94305201277186
 20
-30.259015101102335
 11
139.33252739318385
 21
-25.869539720689858
  0
LINE
  8
_0-6_細線
  6
CONTINUOUS
 62
    7
 10
134.72842533388467
 20
-29.90795635503909
 11
138.82243079469328
 21
-25.813950894230487
  0
LINE
  8
_0-6_細線
  6
CONTINUOUS
 62
    7
 10
134.51379865499916
 20
-29.556897608978574
 11
138.25674536974765
 21
-25.813950894230032
  0
LINE
  8
_0-6_細線
  6
CONTINUOUS
 62
    7
 10
134.29917197611186
 20
-29.205838862915328
 11
137.69105994479676
 21
-25.813950894230487
  0
LINE
  8
_0-6_細線
  6
CONTINUOUS
 62
    7
 10
134.08454529722465
 20
-28.854780116852993
 11
137.12537451984755
 21
-25.813950894230032
  0
LINE
  8
_0-6_細線
  6
CONTINUOUS
 62
    7
 10
133.86991861833775
 20
-28.503721370789748
 11
136.55968909489755
 21
-25.813950894229578
  0
LINE
  8
_0-6_細線
  6
CONTINUOUS
 62
    7
 10
133.65529193945005
 20
-28.152662624726958
 11
135.99400366994746
 21
-25.813950894230032
  0
LINE
  8
_0-6_細線
  6
CONTINUOUS
 62
    7
 10
133.44066526056457
 20
-27.801603878665986
 11
135.42831824500107
 21
-25.813950894229578
  0
LINE
  8
_0-6_細線
  6
CONTINUOUS
 62
    7
 10
133.22603858167776
 20
-27.450545132603196
 11
134.90384380475706
 21
-25.772739909523438
  0
LINE
  8
_0-6_細線
  6
CONTINUOUS
 62
    7
 10
133.01141190279057
 20
-27.099486386540406
 11
135.67658446578776
 21
-24.434313823543192
  0
LINE
  8
_0-6_細線
  6
CONTINUOUS
 62
    7
 10
132.79678522390276
 20
-26.748427640477615
 11
136.44932512682115
 21
-23.095887737559764
  0
LINE
  8
_0-6_細線
  6
CONTINUOUS
 62
    7
 10
132.58215854501736
 20
-26.397368894416644
 11
137.01874226511816
 21
-21.960785174316328
  0
LINE
  8
_0-6_細線
  6
CONTINUOUS
 62
    7
 10
132.36753186613055
 20
-26.046310148353854
 11
136.80621956403166
 21
-21.607622450452794
  0
LINE
  8
_0-6_細線
  6
CONTINUOUS
 62
    7
 10
132.15290518724325
 20
-25.695251402291063
 11
136.59369686294556
 21
-21.254459726588806
  0
LINE
  8
_0-6_細線
  6
CONTINUOUS
 62
    7
 10
131.93827850835555
 20
-25.344192656228273
 11
136.38117416185895
 21
-20.901297002725272
  0
LINE
  8
_0-6_細線
  6
CONTINUOUS
 62
    7
 10
131.72365182946876
 20
-24.993133910165028
 11
136.16865146077296
 21
-20.548134278861284
  0
LINE
  8
_0-6_細線
  6
CONTINUOUS
 62
    7
 10
131.50902515058326
 20
-24.642075164104511
 11
135.95612875968826
 21
-20.194971554999569
  0
LINE
  8
_0-6_細線
  6
CONTINUOUS
 62
    7
 10
118.07773759981936
 20
-37.507677289918405
 11
120.08115191924867
 21
-35.504262970489066
  0
LINE
  8
_0-6_細線
  6
CONTINUOUS
 62
    7
 10
131.29439847169607
 20
-24.291016418041721
 11
135.74360605860167
 21
-19.84180883113558
  0
LINE
  8
_0-6_細線
  6
CONTINUOUS
 62
    7
 10
117.15285735240087
 20
-37.866872112386858
 11
121.95402933968876
 21
-33.065700125098914
  0
LINE
  8
_0-6_細線
  6
CONTINUOUS
 62
    7
 10
131.07977179280877
 20
-23.939957671978931
 11
135.53108335751605
 21
-19.488646107272046
  0
LINE
  8
_0-6_細線
  6
CONTINUOUS
 62
    7
 10
116.50476908221046
 20
-37.949274957627125
 11
123.82690676013337
 21
-30.627137279704215
  0
LINE
  8
_0-6_細線
  6
CONTINUOUS
 62
    7
 10
130.86514511392147
 20
-23.588898925915686
 11
135.31856065642907
 21
-19.135483383408058
  0
LINE
  8
_0-6_細線
  6
CONTINUOUS
 62
    7
 10
116.20962886049955
 20
-37.678729754391583
 11
125.69978418056257
 21
-28.188574434328615
  0
LINE
  8
_0-6_細線
  6
CONTINUOUS
 62
    7
 10
130.65051843503596
 20
-23.237840179855169
 11
135.10603795534487
 21
-18.782320659546343
  0
LINE
  8
_0-6_細線
  6
CONTINUOUS
 62
    7
 10
115.94521808500596
 20
-37.377455104935137
 11
127.57266160100855
 21
-25.750011588932097
  0
LINE
  8
_0-6_細線
  6
CONTINUOUS
 62
    7
 10
130.43589175614875
 20
-22.886781433791924
 11
134.89351525425838
 21
-18.429157935682809
  0
LINE
  8
_0-6_細線
  6
CONTINUOUS
 62
    7
 10
115.70951582461046
 20
-37.047471940380632
 11
129.44553902145046
 21
-23.311448743540126
  0
LINE
  8
_0-6_細線
  6
CONTINUOUS
 62
    7
 10
130.22126507726196
 20
-22.535722687729134
 11
134.68099255317227
 21
-18.075995211818821
  0
LINE
  8
_0-6_細線
  6
CONTINUOUS
 62
    7
 10
115.53193948173177
 20
-36.659362858309208
 11
134.46846985208617
 21
-17.722832487954832
  0
LINE
  8
_0-6_細線
  6
CONTINUOUS
 62
    7
 10
115.40263995602956
 20
-36.222976959060901
 11
134.25594715099967
 21
-17.369669764091299
  0
LINE
  8
_0-6_細線
  6
CONTINUOUS
 62
    7
 10
115.27334043032735
 20
-35.786591059817141
 11
134.04342444991497
 21
-17.016507040229584
  0
LINE
  8
_0-6_細線
  6
CONTINUOUS
 62
    7
 10
115.40994572754627
 20
-35.084300337648159
 11
133.82007052490536
 21
-16.674175540289156
  0
LINE
  8
_0-6_細線
  6
CONTINUOUS
 62
    7
 10
115.96338441109737
 20
-33.965176229146522
 11
133.57604936120086
 21
-16.352511279043114
  0
LINE
  8
_0-6_細線
  6
CONTINUOUS
 62
    7
 10
117.32994943096605
 20
-32.03292578432783
 11
133.33202819749675
 21
-16.030847017797072
  0
LINE
  8
_0-6_細線
  6
CONTINUOUS
 62
    7
 10
118.92801075643436
 20
-29.869179033913127
 11
133.08800703379455
 21
-15.709182756552849
  0
LINE
  8
_0-6_細線
  6
CONTINUOUS
 62
    7
 10
120.52607208191947
 20
-27.705432283478416
 11
132.84283165690906
 21
-15.388672708488315
  0
LINE
  8
_0-6_細線
  6
CONTINUOUS
 62
    7
 10
122.12413340740136
 20
-25.541685533045978
 11
132.59141591248707
 21
-15.074403027960756
  0
LINE
  8
_0-6_細線
  6
CONTINUOUS
 62
    7
 10
123.72219473288877
 20
-23.377938782608538
 11
132.22280028551245
 21
-14.877333229985283
  0
LINE
  8
_0-6_細線
  6
CONTINUOUS
 62
    7
 10
125.32025605836927
 20
-21.214192032178374
 11
131.79853621679987
 21
-14.735911873747312
  0
LINE
  8
_0-6_細線
  6
CONTINUOUS
 62
    7
 10
126.91831738384397
 20
-19.05044528175776
 11
131.34017475515907
 21
-14.628587910442178
  0
LINE
  8
_0-6_細線
  6
CONTINUOUS
 62
    7
 10
127.49384328666636
 20
-17.909233953984852
 11
130.73739373622377
 21
-14.665683504427847
  0
LINE
  8
_0-6_細線
  6
CONTINUOUS
 62
    7
 10
127.49384328666545
 20
-17.343548529035246
 11
130.03702130533355
 21
-14.800370510367514
  0
LINE
  8
_0-6_細線
  6
CONTINUOUS
 62
    7
 10
128.76357417688567
 20
-15.508132213865423
 11
129.37245254665896
 21
-14.899253844092158
  0
LINE
  8
_0-6_細線
  6
CONTINUOUS
 62
    7
 10
115.58655907079745
 20
-36.843703971405915
 11
116.75456191594387
 21
-38.011706816552845
  0
LINE
  8
_0-6_細線
  6
CONTINUOUS
 62
    7
 10
115.34837573397746
 20
-36.039835209635925
 11
117.16939789424057
 21
-37.860857369899435
  0
LINE
  8
_0-6_細線
  6
CONTINUOUS
 62
    7
 10
115.30051071164166
 20
-35.426284762350036
 11
117.58423387253717
 21
-37.71000792324557
  0
LINE
  8
_0-6_細線
  6
CONTINUOUS
 62
    7
 10
115.43764657223556
 20
-34.997735197993819
 11
117.98586776288286
 21
-37.545956388641201
  0
LINE
  8
_0-6_細線
  6
CONTINUOUS
 62
    7
 10
115.57478243282796
 20
-34.56918563364033
 11
118.38517512166865
 21
-37.379578322480569
  0
LINE
  8
_0-6_細線
  6
CONTINUOUS
 62
    7
 10
115.78793538733927
 20
-34.216653163201585
 11
118.77552488461586
 21
-37.204242660478116
  0
LINE
  8
_0-6_細線
  6
CONTINUOUS
 62
    7
 10
116.02040884964777
 20
-33.883441200559531
 11
119.02125702843315
 21
-36.884289379344949
  0
LINE
  8
_0-6_細線
  6
CONTINUOUS
 62
    7
 10
116.25288231195577
 20
-33.550229237917932
 11
119.26698917225005
 21
-36.564336098211783
  0
LINE
  8
_0-6_細線
  6
CONTINUOUS
 62
    7
 10
116.48535577426287
 20
-33.217017275278153
 11
119.51272131606567
 21
-36.24438281708089
  0
LINE
  8
_0-6_細線
  6
CONTINUOUS
 62
    7
 10
116.71782923657085
 20
-32.883805312636099
 11
119.75845345988205
 21
-35.924429535947723
  0
LINE
  8
_0-6_細線
  6
CONTINUOUS
 62
    7
 10
116.95030269887937
 20
-32.550593349994045
 11
120.00418560369937
 21
-35.604476254814557
  0
LINE
  8
_0-6_細線
  6
CONTINUOUS
 62
    7
 10
117.18906949627785
 20
-32.223674722442951
 11
120.24991774751587
 21
-35.284522973681391
  0
LINE
  8
_0-6_細線
  6
CONTINUOUS
 62
    7
 10
117.42937947003355
 20
-31.898299271252284
 11
120.49564989133177
 21
-34.964569692550498
  0
LINE
  8
_0-6_細線
  6
CONTINUOUS
 62
    7
 10
117.66968944379076
 20
-31.572923820059344
 11
120.74138203514877
 21
-34.644616411417331
  0
LINE
  8
_0-6_細線
  6
CONTINUOUS
 62
    7
 10
117.90999941754785
 20
-31.247548368866404
 11
120.98711417896567
 21
-34.324663130284165
  0
LINE
  8
_0-6_細線
  6
CONTINUOUS
 62
    7
 10
118.15030939130457
 20
-30.922172917673009
 11
121.23284632278245
 21
-34.004709849150998
  0
LINE
  8
_0-6_細線
  6
CONTINUOUS
 62
    7
 10
118.39061936506167
 20
-30.596797466480069
 11
121.47857846659937
 21
-33.684756568017832
  0
LINE
  8
_0-6_細線
  6
CONTINUOUS
 62
    7
 10
118.63092933881697
 20
-30.271422015288948
 11
121.72431061041496
 21
-33.364803286886939
  0
LINE
  8
_0-6_細線
  6
CONTINUOUS
 62
    7
 10
118.87123931257406
 20
-29.946046564096008
 11
121.97004275423137
 21
-33.044850005753773
  0
LINE
  8
_0-6_細線
  6
CONTINUOUS
 62
    7
 10
119.11154928633115
 20
-29.620671112903068
 11
122.21577489804918
 21
-32.724896724621061
  0
LINE
  8
_0-6_細線
  6
CONTINUOUS
 62
    7
 10
119.35185926008785
 20
-29.295295661709673
 11
122.46150704186556
 21
-32.404943443487895
  0
LINE
  8
_0-6_細線
  6
CONTINUOUS
 62
    7
 10
119.59216923384355
 20
-28.969920210519007
 11
122.70723918568117
 21
-32.084990162356547
  0
LINE
  8
_0-6_細線
  6
CONTINUOUS
 62
    7
 10
119.83247920760027
 20
-28.644544759325612
 11
122.95297132949756
 21
-31.765036881223381
  0
LINE
  8
_0-6_細線
  6
CONTINUOUS
 62
    7
 10
120.07278918135736
 20
-28.319169308132672
 11
123.19870347331496
 21
-31.445083600090214
  0
LINE
  8
_0-6_細線
  6
CONTINUOUS
 62
    7
 10
120.31309915511457
 20
-27.993793856939732
 11
123.44443561713186
 21
-31.125130318957048
  0
LINE
  8
_0-6_細線
  6
CONTINUOUS
 62
    7
 10
120.55340912887115
 20
-27.668418405746337
 11
123.69016776094875
 21
-30.805177037823881
  0
LINE
  8
_0-6_細線
  6
CONTINUOUS
 62
    7
 10
120.79371910262697
 20
-27.343042954555671
 11
123.93589990476477
 21
-30.485223756693443
  0
LINE
  8
_0-6_細線
  6
CONTINUOUS
 62
    7
 10
121.03402907638358
 20
-27.017667503362276
 11
124.18163204858115
 21
-30.165270475560277
  0
LINE
  8
_0-6_細線
  6
CONTINUOUS
 62
    7
 10
121.27433905014115
 20
-26.692292052169336
 11
124.42736419239847
 21
-29.845317194427111
  0
LINE
  8
_0-6_細線
  6
CONTINUOUS
 62
    7
 10
121.51464902389787
 20
-26.366916600976396
 11
124.67309633621537
 21
-29.525363913293944
  0
LINE
  8
_0-6_細線
  6
CONTINUOUS
 62
    7
 10
121.75495899765315
 20
-26.041541149785274
 11
124.91882848003047
 21
-29.205410632162597
  0
LINE
  8
_0-6_細線
  6
CONTINUOUS
 62
    7
 10
121.99526897141027
 20
-25.716165698592334
 11
125.16456062384736
 21
-28.88545735102943
  0
LINE
  8
_0-6_細線
  6
CONTINUOUS
 62
    7
 10
122.23557894516696
 20
-25.39079024739894
 11
125.41029276766426
 21
-28.565504069896264
  0
LINE
  8
_0-6_細線
  6
CONTINUOUS
 62
    7
 10
122.47588891892445
 20
-25.065414796205999
 11
125.65602491148155
 21
-28.245550788763552
  0
LINE
  8
_0-6_細線
  6
CONTINUOUS
 62
    7
 10
122.71619889268115
 20
-24.740039345013514
 11
125.90175705529805
 21
-27.925597507630386
  0
LINE
  8
_0-6_細線
  6
CONTINUOUS
 62
    7
 10
122.95650886643645
 20
-24.414663893822393
 11
126.14748919911406
 21
-27.605644226499493
  0
LINE
  8
_0-6_細線
  6
CONTINUOUS
 62
    7
 10
123.19681884019366
 20
-24.089288442628998
 11
126.39322134293087
 21
-27.285690945366326
  0
LINE
  8
_0-6_細線
  6
CONTINUOUS
 62
    7
 10
123.43712881395027
 20
-23.763912991436058
 11
126.63895348674785
 21
-26.96573766423316
  0
LINE
  8
_0-6_細線
  6
CONTINUOUS
 62
    7
 10
123.67743878770787
 20
-23.438537540243118
 11
126.88468563056477
 21
-26.645784383099993
  0
LINE
  8
_0-6_細線
  6
CONTINUOUS
 62
    7
 10
123.91774876146266
 20
-23.113162089051997
 11
127.13041777437977
 21
-26.325831101968646
  0
LINE
  8
_0-6_細線
  6
CONTINUOUS
 62
    7
 10
124.15805873521975
 20
-22.787786637859057
 11
127.37614991819717
 21
-26.005877820835479
  0
LINE
  8
_0-6_細線
  6
CONTINUOUS
 62
    7
 10
124.39836870897696
 20
-22.462411186665662
 11
127.62188206201355
 21
-25.685924539702768
  0
LINE
  8
_0-6_細線
  6
CONTINUOUS
 62
    7
 10
124.63867868273357
 20
-22.137035735472722
 11
127.86761420583136
 21
-25.365971258570056
  0
LINE
  8
_0-6_細線
  6
CONTINUOUS
 62
    7
 10
137.13612795258516
 20
-34.634485005324308
 11
139.33001745700065
 21
-36.828374509739746
  0
LINE
  8
_0-6_細線
  6
CONTINUOUS
 62
    7
 10
124.87898865649117
 20
-21.811660284279782
 11
128.11334634964786
 21
-25.04601797743689
  0
LINE
  8
_0-6_細線
  6
CONTINUOUS
 62
    7
 10
137.09963211871647
 20
-34.032303746504653
 11
140.14534924915347
 21
-37.078020876942077
  0
LINE
  8
_0-6_細線
  6
CONTINUOUS
 62
    7
 10
125.11929863024605
 20
-21.486284833088661
 11
128.35907849346336
 21
-24.726064696305542
  0
LINE
  8
_0-6_細線
  6
CONTINUOUS
 62
    7
 10
136.59645802772795
 20
-32.963444230569706
 11
140.56217008858746
 21
-36.929156291429621
  0
LINE
  8
_0-6_細線
  6
CONTINUOUS
 62
    7
 10
125.35960860400357
 20
-21.160909381895749
 11
128.60481063728025
 21
-24.406111415172376
  0
LINE
  8
_0-6_細線
  6
CONTINUOUS
 62
    7
 10
135.70655592065737
 20
-31.507856698549034
 11
140.97899092802456
 21
-36.78029170591671
  0
LINE
  8
_0-6_細線
  6
CONTINUOUS
 62
    7
 10
125.59991857776026
 20
-20.83553393070278
 11
128.85054278109718
 21
-24.086158134039664
  0
LINE
  8
_0-6_細線
  6
CONTINUOUS
 62
    7
 10
134.81665381358675
 20
-30.052269166528816
 11
141.39859068214326
 21
-36.634206035085839
  0
LINE
  8
_0-6_細線
  6
CONTINUOUS
 62
    7
 10
125.84022855151736
 20
-20.51015847950984
 11
129.09627492491407
 21
-23.766204852906498
  0
LINE
  8
_0-6_細線
  6
CONTINUOUS
 62
    7
 10
133.92675170650926
 20
-28.596681634501323
 11
141.83373331672027
 21
-36.503663244712328
  0
LINE
  8
_0-6_細線
  6
CONTINUOUS
 62
    7
 10
126.08053852527266
 20
-20.184783028318719
 11
129.34200706872906
 21
-23.44625157177515
  0
LINE
  8
_0-6_細線
  6
CONTINUOUS
 62
    7
 10
133.03684959944377
 20
-27.141094102489291
 11
142.26887595129506
 21
-36.373120454340636
  0
LINE
  8
_0-6_細線
  6
CONTINUOUS
 62
    7
 10
126.32084849902935
 20
-19.859407577125324
 11
129.58773921254686
 21
-23.126298290641984
  0
LINE
  8
_0-6_細線
  6
CONTINUOUS
 62
    7
 10
132.14694749237356
 20
-25.685506570469073
 11
142.70401858587206
 21
-36.24257766396758
  0
LINE
  8
_0-6_細線
  6
CONTINUOUS
 62
    7
 10
126.56115847278696
 20
-19.534032125932384
 11
129.83347135636336
 21
-22.806345009509272
  0
LINE
  8
_0-6_細線
  6
CONTINUOUS
 62
    7
 10
131.25704538530297
 20
-24.229919038448401
 11
143.13916122044856
 21
-36.112034873594069
  0
LINE
  8
_0-6_細線
  6
CONTINUOUS
 62
    7
 10
126.80146844654357
 20
-19.208656674739444
 11
130.07920350018026
 21
-22.486391728376105
  0
LINE
  8
_0-6_細線
  6
CONTINUOUS
 62
    7
 10
130.36714327823236
 20
-22.774331506428183
 11
143.53502633360517
 21
-35.942214561800569
  0
LINE
  8
_0-6_細線
  6
CONTINUOUS
 62
    7
 10
127.04177842030077
 20
-18.883281223546504
 11
143.77182488358426
 21
-35.613327686829592
  0
LINE
  8
_0-6_細線
  6
CONTINUOUS
 62
    7
 10
127.28208839405607
 20
-18.557905772354928
 11
144.00862343356147
 21
-35.284440811860435
  0
LINE
  8
_0-6_細線
  6
CONTINUOUS
 62
    7
 10
127.49384328666636
 20
-18.203975240015637
 11
134.96195551738606
 21
-25.672087470734908
  0
LINE
  8
_0-6_細線
  6
CONTINUOUS
 62
    7
 10
135.10381894088206
 20
-25.813950894230942
 11
144.16365572264817
 21
-34.873787675997477
  0
LINE
  8
_0-6_細線
  6
CONTINUOUS
 62
    7
 10
127.49384328666545
 20
-17.638289815064667
 11
135.16901075346846
 21
-25.313457281867699
  0
LINE
  8
_0-6_細線
  6
CONTINUOUS
 62
    7
 10
135.66950436583215
 20
-25.813950894230942
 11
144.02888541170185
 21
-34.17333194010061
  0
LINE
  8
_0-6_細線
  6
CONTINUOUS
 62
    7
 10
127.54684818934336
 20
-17.125609292792063
 11
135.37606598955085
 21
-24.954827093000034
  0
LINE
  8
_0-6_細線
  6
CONTINUOUS
 62
    7
 10
136.23518979078125
 20
-25.813950894230487
 11
143.52090929757307
 21
-33.099670401021825
  0
LINE
  8
_0-6_細線
  6
CONTINUOUS
 62
    7
 10
127.71655381682626
 20
-16.729629495329021
 11
135.58312122563186
 21
-24.596196904134644
  0
LINE
  8
_0-6_細線
  6
CONTINUOUS
 62
    7
 10
136.80087521572867
 20
-25.813950894230942
 11
142.74198021041207
 21
-31.755055888914825
  0
LINE
  8
_0-6_細線
  6
CONTINUOUS
 62
    7
 10
127.95092064321605
 20
-16.39831089676872
 11
135.79017646171386
 21
-24.237566715266524
  0
LINE
  8
_0-6_細線
  6
CONTINUOUS
 62
    7
 10
137.36656064067915
 20
-25.813950894231397
 11
141.96305112324555
 21
-30.41044137679782
  0
LINE
  8
_0-6_細線
  6
CONTINUOUS
 62
    7
 10
128.21712554907506
 20
-16.098830377677217
 11
135.99723169779665
 21
-23.87893652639886
  0
LINE
  8
_0-6_細線
  6
CONTINUOUS
 62
    7
 10
137.93224606562876
 20
-25.813950894230942
 11
141.18412203607866
 21
-29.065826864680815
  0
LINE
  8
_0-6_細線
  6
CONTINUOUS
 62
    7
 10
128.48333045493357
 20
-15.799349858586169
 11
136.20428693387865
 21
-23.520306337531196
  0
LINE
  8
_0-6_細線
  6
CONTINUOUS
 62
    7
 10
138.49793149057837
 20
-25.813950894230487
 11
140.40519294891126
 21
-27.721212352562901
  0
LINE
  8
_0-6_細線
  6
CONTINUOUS
 62
    7
 10
128.76121129163425
 20
-15.511545270340406
 11
136.41134216995965
 21
-23.161676148665805
  0
LINE
  8
_0-6_細線
  6
CONTINUOUS
 62
    7
 10
139.06361691552527
 20
-25.813950894230942
 11
139.62626386174387
 21
-26.37659784044908
  0
LINE
  8
_0-6_細線
  6
CONTINUOUS
 62
    7
 10
128.99262805638656
 20
-15.177276610142684
 11
136.61839740604205
 21
-22.803045959798141
  0
LINE
  8
_0-6_細線
  6
CONTINUOUS
 62
    7
 10
129.29113328368365
 20
-14.910096412489196
 11
136.82545264212447
 21
-22.444415770930476
  0
LINE
  8
_0-6_細線
  6
CONTINUOUS
 62
    7
 10
129.79026748216828
 20
-14.843545186024215
 11
137.03250787820727
 21
-22.085785582062812
  0
LINE
  8
_0-6_細線
  6
CONTINUOUS
 62
    7
 10
130.26830130789287
 20
-14.755893586798351
 11
136.33201686823367
 21
-20.819609147139175
  0
LINE
  8
_0-6_細線
  6
CONTINUOUS
 62
    7
 10
130.74274714817076
 20
-14.664654002129822
 11
135.47720333719667
 21
-19.3991101911557
  0
LINE
  8
_0-6_細線
  6
CONTINUOUS
 62
    7
 10
131.26483222879665
 20
-14.621053657806073
 11
134.62238980616146
 21
-17.97861123517086
  0
LINE
  8
_0-6_細線
  6
CONTINUOUS
 62
    7
 10
132.01879569613286
 20
-14.809331700191791
 11
133.62028220359636
 21
-16.410818207655751
  0
LINE
  8
_0-6_細線
  6
CONTINUOUS
 62
    7
 10
145.54201372833387
 20
-19.698616111044089
 11
145.54201372833387
 21
-13.850568820304574
  0
LINE
  8
_0-6_細線
  6
CONTINUOUS
 62
    7
 10
145.14201372833415
 20
-19.614848373116359
 11
145.14201372833415
 21
-13.934336558232275
  0
LINE
  8
_0-6_細線
  6
CONTINUOUS
 62
    7
 10
144.74201372833406
 20
-19.469809147289737
 11
144.74201372833406
 21
-14.079375784058897
  0
LINE
  8
_0-6_細線
  6
CONTINUOUS
 62
    7
 10
144.34201372833397
 20
-19.252763626417249
 11
144.34201372833397
 21
-14.296421304931386
  0
LINE
  8
_0-6_細線
  6
CONTINUOUS
 62
    7
 10
143.94201372833396
 20
-18.942188286626873
 11
143.94201372833396
 21
-14.606996644721761
  0
LINE
  8
_0-6_細線
  6
CONTINUOUS
 62
    7
 10
143.54201372833387
 20
-18.487954944572806
 11
143.54201372833387
 21
-15.061229986775828
  0
LINE
  8
_0-6_細線
  6
CONTINUOUS
 62
    7
 10
143.14201372833415
 20
-17.698037280035436
 11
143.14201372833415
 21
-15.851147651312743
  0
LINE
  8
_0-6_細線
  6
CONTINUOUS
 62
    7
 10
134.92393150794967
 20
-25.737946986987566
 11
143.43616975533695
 21
-25.737946986987566
  0
LINE
  8
_0-6_細線
  6
CONTINUOUS
 62
    7
 10
135.15487161562555
 20
-25.33794698698793
 11
143.20522964766155
 21
-25.33794698698793
  0
LINE
  8
_0-6_細線
  6
CONTINUOUS
 62
    7
 10
135.38581172330098
 20
-24.937946986987839
 11
142.97428953998616
 21
-24.937946986987839
  0
LINE
  8
_0-6_細線
  6
CONTINUOUS
 62
    7
 10
135.61675183097697
 20
-24.537946986987748
 11
142.74334943230977
 21
-24.537946986987748
  0
LINE
  8
_0-6_細線
  6
CONTINUOUS
 62
    7
 10
135.84769193865276
 20
-24.137946986987657
 11
142.51240932463386
 21
-24.137946986987657
  0
LINE
  8
_0-6_細線
  6
CONTINUOUS
 62
    7
 10
136.07863204632875
 20
-23.737946986987566
 11
142.28146921695796
 21
-23.737946986987566
  0
LINE
  8
_0-6_細線
  6
CONTINUOUS
 62
    7
 10
136.30957215400466
 20
-23.33794698698793
 11
142.05052910928205
 21
-23.33794698698793
  0
LINE
  8
_0-6_細線
  6
CONTINUOUS
 62
    7
 10
136.54051226168056
 20
-22.937946986987839
 11
141.81958900160618
 21
-22.937946986987839
  0
LINE
  8
_0-6_細線
  6
CONTINUOUS
 62
    7
 10
136.77145236935647
 20
-22.537946986987748
 11
141.58864889393067
 21
-22.537946986987748
  0
LINE
  8
_0-6_細線
  6
CONTINUOUS
 62
    7
 10
137.00239247703186
 20
-22.137946986987657
 11
141.35770878625476
 21
-22.137946986987657
  0
LINE
  8
_0-6_細線
  6
CONTINUOUS
 62
    7
 10
137.23333258470785
 20
-21.737946986988021
 11
141.12676867857886
 21
-21.737946986988021
  0
LINE
  8
_0-6_細線
  6
CONTINUOUS
 62
    7
 10
137.46427269238416
 20
-21.33794698698793
 11
140.89582857090295
 21
-21.33794698698793
  0
LINE
  8
_0-6_細線
  6
CONTINUOUS
 62
    7
 10
137.69521280006006
 20
-20.937946986987839
 11
140.66488846322707
 21
-20.937946986987839
  0
LINE
  8
_0-6_細線
  6
CONTINUOUS
 62
    7
 10
137.92615290773546
 20
-20.537946986987748
 11
140.43394835555156
 21
-20.537946986987748
  0
LINE
  8
_0-6_細線
  6
CONTINUOUS
 62
    7
 10
138.15709301541145
 20
-20.137946986987657
 11
140.20300824787526
 21
-20.137946986987657
  0
LINE
  8
_0-6_細線
  6
CONTINUOUS
 62
    7
 10
138.38803312308727
 20
-19.737946986988021
 11
139.97206814019927
 21
-19.737946986988021
  0
LINE
  8
_0-6_細線
  6
CONTINUOUS
 62
    7
 10
138.61897323076326
 20
-19.33794698698793
 11
139.74112803252345
 21
-19.33794698698793
  0
LINE
  8
_0-6_細線
  6
CONTINUOUS
 62
    7
 10
138.84991333843917
 20
-18.937946986987839
 11
139.51018792484746
 21
-18.937946986987839
  0
LINE
  8
_0-6_細線
  6
CONTINUOUS
 62
    7
 10
139.08085344611507
 20
-18.537946986987748
 11
139.27924781717206
 21
-18.537946986987748
  0
LINE
  8
_0-6_細線
  6
CONTINUOUS
 62
    7
 10
143.14201372833415
 20
-25.813950894230487
 11
143.14201372833415
 21
-25.228453802864891
  0
LINE
  8
_0-6_細線
  6
CONTINUOUS
 62
    7
 10
142.74201372833406
 20
-25.813950894230487
 11
142.74201372833406
 21
-24.535633479837628
  0
LINE
  8
_0-6_細線
  6
CONTINUOUS
 62
    7
 10
142.34201372833397
 20
-25.813950894230487
 11
142.34201372833397
 21
-23.84281315680991
  0
LINE
  8
_0-6_細線
  6
CONTINUOUS
 62
    7
 10
141.94201372833396
 20
-25.813950894230487
 11
141.94201372833396
 21
-23.149992833782647
  0
LINE
  8
_0-6_細線
  6
CONTINUOUS
 62
    7
 10
141.54201372833387
 20
-25.813950894230487
 11
141.54201372833387
 21
-22.45717251075493
  0
LINE
  8
_0-6_細線
  6
CONTINUOUS
 62
    7
 10
141.14201372833415
 20
-25.813950894230487
 11
141.14201372833415
 21
-21.764352187727667
  0
LINE
  8
_0-6_細線
  6
CONTINUOUS
 62
    7
 10
140.74201372833406
 20
-25.813950894230487
 11
140.74201372833406
 21
-21.071531864699949
  0
LINE
  8
_0-6_細線
  6
CONTINUOUS
 62
    7
 10
140.34201372833397
 20
-25.813950894230487
 11
140.34201372833397
 21
-20.378711541672232
  0
LINE
  8
_0-6_細線
  6
CONTINUOUS
 62
    7
 10
139.94201372833396
 20
-25.813950894230487
 11
139.94201372833396
 21
-19.685891218644969
  0
LINE
  8
_0-6_細線
  6
CONTINUOUS
 62
    7
 10
139.54201372833387
 20
-25.813950894230487
 11
139.54201372833387
 21
-18.993070895617251
  0
LINE
  8
_0-6_細線
  6
CONTINUOUS
 62
    7
 10
139.14201372833415
 20
-25.813950894230487
 11
139.14201372833415
 21
-18.432014270778922
  0
LINE
  8
_0-6_細線
  6
CONTINUOUS
 62
    7
 10
138.74201372833406
 20
-25.813950894230487
 11
138.74201372833406
 21
-19.124834593806639
  0
LINE
  8
_0-6_細線
  6
CONTINUOUS
 62
    7
 10
138.34201372833397
 20
-25.813950894230487
 11
138.34201372833397
 21
-19.817654916834357
  0
LINE
  8
_0-6_細線
  6
CONTINUOUS
 62
    7
 10
137.94201372833396
 20
-25.813950894230487
 11
137.94201372833396
 21
-20.51047523986162
  0
LINE
  8
_0-6_細線
  6
CONTINUOUS
 62
    7
 10
137.54201372833387
 20
-25.813950894230487
 11
137.54201372833387
 21
-21.203295562889338
  0
LINE
  8
_0-6_細線
  6
CONTINUOUS
 62
    7
 10
137.14201372833415
 20
-25.813950894230487
 11
137.14201372833415
 21
-21.896115885917055
  0
LINE
  8
_0-6_細線
  6
CONTINUOUS
 62
    7
 10
136.74201372833406
 20
-25.813950894230487
 11
136.74201372833406
 21
-22.588936208944318
  0
LINE
  8
_0-6_細線
  6
CONTINUOUS
 62
    7
 10
136.34201372833397
 20
-25.813950894230487
 11
136.34201372833397
 21
-23.281756531972036
  0
LINE
  8
_0-6_細線
  6
CONTINUOUS
 62
    7
 10
135.94201372833396
 20
-25.813950894230487
 11
135.94201372833396
 21
-23.974576854999299
  0
LINE
  8
_0-6_細線
  6
CONTINUOUS
 62
    7
 10
135.54201372833387
 20
-25.813950894230487
 11
135.54201372833387
 21
-24.667397178027016
  0
LINE
  8
_0-6_細線
  6
CONTINUOUS
 62
    7
 10
135.14201372833415
 20
-25.813950894230487
 11
135.14201372833415
 21
-25.360217501054279
  0
LINE
  8
_0-5_図面枠
  6
CONTINUOUS
 62
    6
 10
397.14393834212677
 20
-21.440930488512635
 11
397.14393834212677
 21
-43.940930486262545
  0
LINE
  8
_0-5_図面枠
  6
CONTINUOUS
 62
    6
 10
427.14393834212672
 20
-21.440930488512635
 11
427.14393834212672
 21
-43.940930486262545
  0
LINE
  8
_0-5_図面枠
  6
CONTINUOUS
 62
    6
 10
487.14393834212683
 20
-27.440930488512635
 11
357.14393834212677
 21
-27.440930488512635
  0
LINE
  8
_0-5_図面枠
  6
CONTINUOUS
 62
    6
 10
447.14393834212672
 20
-7.9409304898623247
 11
447.14393834212672
 21
-43.940930486262545
  0
LINE
  8
_0-5_図面枠
  6
CONTINUOUS
 62
    6
 10
467.14393834212683
 20
-7.9409304898623247
 11
467.14393834212683
 21
-43.940930486262545
  0
LINE
  8
_0-5_図面枠
  6
CONTINUOUS
 62
    6
 10
487.14393834212683
 20
-14.69093048918748
 11
467.14393834212683
 21
-14.69093048918748
  0
LINE
  8
_0-5_図面枠
  6
CONTINUOUS
 62
    6
 10
487.14393834212683
 20
-21.440930488512635
 11
357.14393834212677
 21
-21.440930488512635
  0
CIRCLE
  8
_0-7__0-0_
  6
CONTINUOUS
 62
    2
 10
452.14393834212672
 20
-14.69093048918748
 40
4
  0
CIRCLE
  8
_0-7__0-0_
  6
CONTINUOUS
 62
    2
 10
452.14393834212672
 20
-14.69093048918748
 40
2
  0
LINE
  8
ADD_LINE
  6
DOT
 62
    4
 10
452.14393834212672
 20
-9.6909304891874797
 11
452.14393834212672
 21
-19.69093048918748
  0
LINE
  8
_0-7__0-0_
  6
CONTINUOUS
 62
    2
 10
458.14393834212683
 20
-12.69093048918748
 11
465.14393834212672
 21
-10.69093048918748
  0
LINE
  8
_0-7__0-0_
  6
CONTINUOUS
 62
    2
 10
465.14393834212672
 20
-10.69093048918748
 11
465.14393834212672
 21
-18.69093048918748
  0
LINE
  8
_0-7__0-0_
  6
CONTINUOUS
 62
    2
 10
458.14393834212683
 20
-16.69093048918748
 11
465.14393834212672
 21
-18.69093048918748
  0
LINE
  8
_0-7__0-0_
  6
CONTINUOUS
 62
    2
 10
458.14393834212683
 20
-12.69093048918748
 11
458.14393834212683
 21
-16.69093048918748
  0
LINE
  8
ADD_LINE
  6
DOT
 62
    4
 10
447.14393834212672
 20
-14.69093048918748
 11
466.14393834212683
 21
-14.69093048918748
  0
LINE
  8
_0-5_図面枠
  6
CONTINUOUS
 62
    6
 10
357.14393834212677
 20
-25.940930488062435
 11
222.25082444024366
 21
-25.940930488062435
  0
LINE
  8
_0-5_図面枠
  6
CONTINUOUS
 62
    6
 10
222.25082444024366
 20
-43.940930486262545
 11
222.25082444024366
 21
-7.9409304898623247
  0
TEXT
  8
_0-9_文字
 62
    7
 10
224.25082444024366
 20
-12.768637745936388
 40
4
 41
1
 50
0
  1
品番
  0
TEXT
  8
_0-9_文字
 62
    7
 10
224.25082444024366
 20
-30.760919681316494
 40
4
 41
1
 50
0
  1
名称
  0
TEXT
  8
_0-9_文字
 62
    7
 10
452.82541314111199
 20
-26.545444504921846
 40
4
 41
1
 50
0
  1
検図
  0
LINE
  8
_0-5_図面枠
  6
CONTINUOUS
 62
    6
 10
102.25082444024355
 20
-7.9409304898623247
 11
102.25082444024355
 21
-43.940930486262545
  0
TEXT
  8
_0-9_文字
 62
    7
 10
472.87727167546018
 20
-13.315930489524902
 40
4
 41
1
 50
0
  1
単位
  0
TEXT
  8
_0-9_文字
 62
    7
 10
471.42965262784105
 20
-19.3992638221834
 40
4
 41
1
 50
0
  1
mm
  0
TEXT
  8
_0-9_文字
 62
    7
 10
401.55346215165065
 20
-37.69093048738759
 40
4
 41
1
 50
0
  1
S=1：2
  0
TEXT
  8
_0-9_文字
 62
    7
 10
363.81060500879346
 20
-37.69093048738759
 40
4
 41
1
 50
0
  1
09.11.07
  0
TEXT
  8
_0-9_文字
 62
    7
 10
433.0106050087935
 20
-37.69093048738759
 40
4
 41
1
 50
0
  1
竹内
  0
TEXT
  8
_0-9_文字
 62
    7
 10
372.61060500879336
 20
-26.440930488512635
 40
4
 41
1
 50
0
  1
日付
  0
TEXT
  8
_0-9_文字
 62
    7
 10
403.00108119926966
 20
-26.440930488512635
 40
4
 41
1
 50
0
  1
SCALE
  0
TEXT
  8
_0-9_文字
 62
    7
 10
433.0106050087935
 20
-26.440930488512635
 40
4
 41
1
 50
0
  1
製図
  0
TEXT
  8
_0-9_文字
 62
    7
 10
261.16404805785135
 20
-20.94093048896238
 40
8
 41
1
 50
0
  1
レバー止水栓
  0
TEXT
  8
_0-9_文字
 62
    7
 10
251.98309567689904
 20
-38.94093048716249
 40
8
 41
1
 50
0
  1
GS-SEV2261
  0
LINE
  8
_0-5_図面枠
  6
CONTINUOUS
 62
    6
 10
487.14393834212683
 20
-43.940930486262545
 11
487.14393834212683
 21
340.9521834156202
  0
LINE
  8
_0-1_1
  6
DASH_CENTER
 62
    2
 10
209.60522276288589
 20
251.9377326059379
 11
278.60522276288674
 21
251.93773260593784
  0
LINE
  8
_0-1_1
  6
DASH_CENTER
 62
    2
 10
203.60522276288674
 20
245.93773260593574
 11
203.60522276288674
 21
221.9377326059379
  0
LINE
  8
_0-1_1
  6
DASH_CENTER
 62
    2
 10
287.10522276288657
 20
251.93773260593824
 11
296.10522276288657
 21
251.93773260593824
  0
LINE
  8
_0-1_1
  6
DASH_CENTER
 62
    2
 10
291.60522276288674
 20
247.93773260593824
 11
291.60522276288634
 21
255.93773260593824
  0
ARC
  8
ADD_LINE
  6
DOT
 62
    4
 10
98.909163321060959
 20
79.800878867196417
 40
37.000000000000043
 50
329.99999999999909
 51
30.000000000000995
  0
ARC
  8
_0-1_1
  6
DASH_CENTER
 62
    2
 10
209.60522276288657
 20
245.9377326059379
 40
6
 50
90.000000000006509
 51
180
  0
SOLID
  8
_0-9_文字
  6
CONTINUOUS
 62
    7
 10
132.98290556369966
 20
95.413291004606208
 11
132.16634492002257
 21
94.986072862287017
 12
130.95210326108526
 22
98.300878867196417
 13
130.95210326108526
 23
98.300878867196417
  0
SOLID
  8
_0-9_文字
  6
CONTINUOUS
 62
    7
 10
132.16748797963646
 20
64.615265936081812
 11
132.98390124588005
 21
64.187766223063718
 12
130.95210326108526
 22
61.300878867196417
 13
130.95210326108526
 23
61.300878867196417
  0
TEXT
  8
_0-9_文字
 62
    7
 10
122.71157607508817
 20
49.216496038648714
 40
5
 41
1
 50
0
  1
閉
  0
TEXT
  8
_0-9_文字
 62
    7
 10
122.77514750365955
 20
108.41383312431543
 40
5
 41
1
 50
0
  1
開
  0
TEXT
  8
_0-9_文字
 62
    7
 10
230.69291085921088
 20
219.26201979659342
 40
5
 41
1
 50
0
  1
付属品
  0
LINE
  8
_0-1_1
  6
CONTINUOUS
 62
    7
 10
215.76613334252488
 20
111.30087886719642
 11
215.56613334252495
 21
111.10087886719631
  0
LINE
  8
_0-1_1
  6
CONTINUOUS
 62
    7
 10
215.56613334252495
 20
111.10087886719631
 11
215.56613334252557
 21
94.300878867196417
  0
LINE
  8
_0-1_1
  6
CONTINUOUS
 62
    7
 10
215.76613334252488
 20
111.30087886719642
 11
222.36613334252257
 21
111.30087886719642
  0
LINE
  8
_0-1_1
  6
CONTINUOUS
 62
    7
 10
222.56613334252245
 20
111.10087886719631
 11
222.36613334252257
 21
111.30087886719642
  0
LINE
  8
_0-1_1
  6
CONTINUOUS
 62
    7
 10
222.56613334252376
 20
94.300878867196417
 11
222.56613334252245
 21
111.10087886719631
  0
LINE
  8
_0-1_1
  6
PHANTOM
 62
    4
 10
98.909163321061868
 20
104.70087886719642
 11
98.909163321062152
 21
117.30087886719633
  0
LINE
  8
_0-1_1
  6
CONTINUOUS
 62
    7
 10
102.40916332106187
 20
111.50087886719641
 11
102.20916332106205
 21
111.30087886719642
  0
LINE
  8
_0-1_1
  6
CONTINUOUS
 62
    7
 10
95.409163321061868
 20
111.50087886719641
 11
95.60916332106197
 21
111.30087886719642
  0
LINE
  8
_0-1_1
  6
CONTINUOUS
 62
    7
 10
102.40916332106187
 20
111.50087886719641
 11
102.40916332106187
 21
112.80087886719642
  0
LINE
  8
_0-1_1
  6
CONTINUOUS
 62
    7
 10
95.409163321061868
 20
111.50087886719641
 11
95.409163321061868
 21
112.80087886719642
  0
LINE
  8
_0-1_1
  6
CONTINUOUS
 62
    7
 10
95.909163321062152
 20
113.30087886719633
 11
101.90916332106215
 21
113.30087886719633
  0
LINE
  8
_0-1_1
  6
CONTINUOUS
 62
    7
 10
95.60916332106197
 20
111.30087886719642
 11
102.20916332106205
 21
111.30087886719642
  0
LINE
  8
_0-1_1
  6
CONTINUOUS
 62
    7
 10
221.71613334252464
 20
111.30087886719642
 11
222.36613334252479
 21
111.30087886719642
  0
LINE
  8
_0-1_1
  6
CONTINUOUS
 62
    7
 10
215.76613334252477
 20
111.30087886719642
 11
216.41613334252457
 21
111.30087886719642
  0
LINE
  8
_0-1_1
  6
CONTINUOUS
 62
    7
 10
216.06613334252484
 20
113.30087886719633
 11
222.06613334252484
 21
113.30087886719633
  0
LINE
  8
_0-1_1
  6
CONTINUOUS
 62
    7
 10
215.56613334252455
 20
111.50087886719641
 11
215.56613334252484
 21
112.80087886719642
  0
LINE
  8
_0-1_1
  6
CONTINUOUS
 62
    7
 10
222.56613334252455
 20
111.50087886719641
 11
222.56613334252484
 21
112.80087886719642
  0
LINE
  8
_0-1_1
  6
CONTINUOUS
 62
    7
 10
215.56613334252455
 20
111.50087886719641
 11
215.76613334252477
 21
111.30087886719642
  0
LINE
  8
_0-1_1
  6
CONTINUOUS
 62
    7
 10
222.56613334252455
 20
111.50087886719641
 11
222.36613334252479
 21
111.30087886719642
  0
LINE
  8
_0-1_1
  6
PHANTOM
 62
    4
 10
219.06613334252467
 20
104.70087886719642
 11
219.06613334252484
 21
116.30087886719622
  0
CIRCLE
  8
_0-1_1
  6
CONTINUOUS
 62
    7
 10
98.909163321060873
 20
194.55087886719653
 40
3.5
  0
ARC
  8
_0-1_1
  6
CONTINUOUS
 62
    7
 10
95.909163321062152
 20
112.80087886719642
 40
0.4999999999998864
 50
90
 51
180
  0
ARC
  8
_0-1_1
  6
CONTINUOUS
 62
    7
 10
101.90916332106215
 20
112.80087886719642
 40
0.4999999999997726
 50
0
 51
90
  0
ARC
  8
_0-1_1
  6
CONTINUOUS
 62
    7
 10
222.06613334252484
 20
112.80087886719642
 40
0.5
 50
0
 51
90
  0
ARC
  8
_0-1_1
  6
CONTINUOUS
 62
    7
 10
216.06613334252484
 20
112.80087886719642
 40
0.4999999999998864
 50
90
 51
180
  0
LINE
  8
_0-1_1
  6
CONTINUOUS
 62
    7
 10
113.40916332106087
 20
212.55087886719613
 11
84.409163321060873
 21
212.55087886719613
  0
LINE
  8
_0-1_1
  6
CONTINUOUS
 62
    7
 10
84.409163321060873
 20
184.95087886719651
 11
84.409163321060873
 21
189.65087886719891
  0
LINE
  8
_0-1_1
  6
CONTINUOUS
 62
    7
 10
84.409163321060873
 20
189.65087886719891
 11
84.409163321060873
 21
195.05087886719352
  0
LINE
  8
_0-1_1
  6
CONTINUOUS
 62
    7
 10
84.409163321060873
 20
195.05087886719352
 11
84.409163321060873
 21
212.55087886719613
  0
LINE
  8
_0-1_1
  6
CONTINUOUS
 62
    7
 10
112.50916332106087
 20
184.05087886719653
 11
85.309163321060652
 21
184.05087886719653
  0
LINE
  8
_0-1_1
  6
CONTINUOUS
 62
    7
 10
113.40916332106087
 20
212.55087886719613
 11
113.40916332106087
 21
195.05087886719352
  0
LINE
  8
_0-1_1
  6
CONTINUOUS
 62
    7
 10
113.40916332106087
 20
195.05087886719352
 11
113.40916332106087
 21
189.65087886719891
  0
LINE
  8
_0-1_1
  6
CONTINUOUS
 62
    7
 10
113.40916332106087
 20
189.65087886719891
 11
113.40916332106087
 21
184.95087886719651
  0
LINE
  8
_0-1_1
  6
CONTINUOUS
 62
    7
 10
208.56613334252279
 20
66.200878867196323
 11
208.56613334252279
 21
93.400878867196411
  0
LINE
  8
_0-1_1
  6
CONTINUOUS
 62
    7
 10
214.16613334252514
 20
65.300878867196417
 11
209.46613334252288
 21
65.300878867196417
  0
LINE
  8
_0-1_1
  6
CONTINUOUS
 62
    7
 10
219.56613334251983
 20
65.300878867196417
 11
214.16613334252514
 21
65.300878867196417
  0
LINE
  8
_0-1_1
  6
CONTINUOUS
 62
    7
 10
237.06613334252245
 20
94.300878867196417
 11
237.06613334252245
 21
65.300878867196417
  0
LINE
  8
_0-1_1
  6
CONTINUOUS
 62
    7
 10
209.46613334252288
 20
94.300878867196417
 11
237.06613334252245
 21
94.300878867196417
  0
LINE
  8
_0-1_1
  6
CONTINUOUS
 62
    7
 10
237.06613334252245
 20
65.300878867196417
 11
219.56613334251983
 21
65.300878867196417
  0
LINE
  8
_0-1_1
  6
PHANTOM
 62
    4
 10
219.06613334252364
 20
86.700878867195712
 11
219.06613334252364
 21
95.800878867196417
  0
CIRCLE
  8
_0-1_1
  6
CONTINUOUS
 62
    7
 10
98.909163321060959
 20
79.800878867196417
 40
14.5
  0
ARC
  8
_0-1_1
  6
CONTINUOUS
 62
    7
 10
85.309163321060652
 20
184.95087886719651
 40
0.8999999999998633
 50
180
 51
270
  0
ARC
  8
_0-1_1
  6
CONTINUOUS
 62
    7
 10
112.50916332106087
 20
184.95087886719651
 40
0.9000000000000909
 50
270
 51
0
  0
ARC
  8
_0-1_1
  6
CONTINUOUS
 62
    7
 10
209.46613334252288
 20
93.400878867196411
 40
0.9000000000000054
 50
90
 51
180
  0
ARC
  8
_0-1_1
  6
CONTINUOUS
 62
    7
 10
209.46613334252288
 20
66.200878867196323
 40
0.9000000000000909
 50
180
 51
270
  0
LINE
  8
_0-1_1
  6
CONTINUOUS
 62
    7
 10
292.05577037143576
 20
87.850878867196428
 11
292.05577037143576
 21
86.220878867196404
  0
LINE
  8
_0-1_1
  6
CONTINUOUS
 62
    7
 10
292.05577037143576
 20
73.380878867196429
 11
292.05577037143576
 21
71.750878867196406
  0
LINE
  8
_0-1_1
  6
CONTINUOUS
 62
    7
 10
283.06613334251767
 20
70.750878867196406
 11
283.06613334251767
 21
65.330878867196418
  0
LINE
  8
_0-1_1
  6
CONTINUOUS
 62
    7
 10
283.06613334251767
 20
79.800878867196417
 11
283.06613334251767
 21
74.380878867196429
  0
LINE
  8
_0-1_1
  6
CONTINUOUS
 62
    7
 10
283.06613334251767
 20
94.270878867196416
 11
283.06613334251767
 21
88.850878867196428
  0
LINE
  8
_0-1_1
  6
CONTINUOUS
 62
    7
 10
283.06613334251767
 20
85.220878867196404
 11
283.06613334251767
 21
79.800878867196417
  0
LINE
  8
_0-1_1
  6
CONTINUOUS
 62
    7
 10
292.05577037143576
 20
73.380878867196429
 11
283.06613334251767
 21
73.380878867196429
  0
LINE
  8
_0-1_1
  6
CONTINUOUS
 62
    7
 10
283.06613334251767
 20
71.750878867196406
 11
292.05577037143576
 21
71.750878867196406
  0
LINE
  8
_0-1_1
  6
CONTINUOUS
 62
    7
 10
292.05577037143576
 20
87.850878867196428
 11
283.06613334251767
 21
87.850878867196428
  0
LINE
  8
_0-1_1
  6
CONTINUOUS
 62
    7
 10
283.06613334251767
 20
86.220878867196404
 11
292.05577037143576
 21
86.220878867196404
  0
LINE
  8
_0-1_1
  6
CONTINUOUS
 62
    7
 10
85.90916332106076
 20
212.55087886719602
 11
85.90916332106076
 21
213.0508788671867
  0
LINE
  8
_0-1_1
  6
PHANTOM
 62
    5
 10
111.90916332106056
 20
259.08677725204575
 11
111.90916332106056
 21
258.55087886718354
  0
LINE
  8
_0-1_1
  6
PHANTOM
 62
    5
 10
112.17711251349155
 20
258.08677725204586
 11
111.90916332106056
 21
258.55087886718354
  0
LINE
  8
_0-1_1
  6
PHANTOM
 62
    5
 10
85.909163321060561
 20
258.55087886718354
 11
85.641214128629372
 21
258.08677725204575
  0
LINE
  8
_0-1_1
  6
PHANTOM
 62
    5
 10
85.909163321060561
 20
258.55087886718354
 11
85.909163321060561
 21
259.08677725204586
  0
LINE
  8
_0-1_1
  6
CONTINUOUS
 62
    7
 10
87.847026542697563
 20
258.55087886718354
 11
96.971300099423559
 21
258.55087886718354
  0
LINE
  8
_0-1_1
  6
CONTINUOUS
 62
    7
 10
109.97130009942367
 20
258.55087886718354
 11
100.84702654269756
 21
258.55087886718354
  0
LINE
  8
_0-1_1
  6
CONTINUOUS
 62
    7
 10
85.909163321060561
 20
268.40654129988627
 11
86.15916332106076
 21
268.55087886718354
  0
LINE
  8
_0-1_1
  6
CONTINUOUS
 62
    7
 10
113.40916332106087
 20
213.05087886718641
 11
113.40916332106056
 21
255.95280265583014
  0
LINE
  8
_0-1_1
  6
CONTINUOUS
 62
    7
 10
85.909163321060561
 20
267.54051589610185
 11
85.909163321060561
 21
259.08677725204586
  0
LINE
  8
_0-1_1
  6
CONTINUOUS
 62
    7
 10
86.847026542697563
 20
258.55087886718354
 11
86.847026542697563
 21
267.54051589610185
  0
LINE
  8
_0-1_1
  6
CONTINUOUS
 62
    7
 10
97.971300099423559
 20
267.54051589610185
 11
97.971300099423559
 21
258.55087886718354
  0
LINE
  8
_0-1_1
  6
CONTINUOUS
 62
    7
 10
99.847026542697563
 20
258.55087886718354
 11
99.847026542697563
 21
267.54051589610185
  0
LINE
  8
_0-1_1
  6
CONTINUOUS
 62
    7
 10
110.97130009942367
 20
267.54051589610185
 11
110.97130009942367
 21
258.55087886718354
  0
LINE
  8
_0-1_1
  6
CONTINUOUS
 62
    7
 10
111.90916332106056
 20
259.08677725204575
 11
111.90916332106056
 21
267.54051589610185
  0
LINE
  8
_0-1_1
  6
CONTINUOUS
 62
    7
 10
84.409163321060674
 20
213.0508788671867
 11
84.409163321060873
 21
255.95280265583082
  0
LINE
  8
_0-1_1
  6
CONTINUOUS
 62
    7
 10
84.409163321060873
 20
255.95280265583082
 11
85.641214128629372
 21
258.08677725204575
  0
LINE
  8
_0-1_1
  6
CONTINUOUS
 62
    7
 10
113.40916332106056
 20
255.95280265583014
 11
112.17711251349155
 21
258.08677725204586
  0
LINE
  8
_0-1_1
  6
CONTINUOUS
 62
    7
 10
99.847026542697563
 20
267.54051589610185
 11
97.971300099423559
 21
267.54051589610185
  0
LINE
  8
_0-1_1
  6
CONTINUOUS
 62
    7
 10
111.90916332106056
 20
267.54051589610185
 11
110.97130009942367
 21
267.54051589610185
  0
LINE
  8
_0-1_1
  6
CONTINUOUS
 62
    7
 10
85.909163321060561
 20
267.54051589610185
 11
86.847026542697563
 21
267.54051589610185
  0
LINE
  8
_0-1_1
  6
CONTINUOUS
 62
    7
 10
85.909163321060561
 20
267.54051589610185
 11
85.909163321060561
 21
268.40654129988627
  0
LINE
  8
_0-1_1
  6
CONTINUOUS
 62
    7
 10
111.90916332106056
 20
268.40654129988627
 11
111.90916332106056
 21
267.54051589610185
  0
LINE
  8
_0-1_1
  6
CONTINUOUS
 62
    7
 10
86.15916332106076
 20
268.55087886718354
 11
111.65916332106076
 21
268.55087886718354
  0
LINE
  8
_0-1_1
  6
CONTINUOUS
 62
    7
 10
111.65916332106076
 20
268.55087886718354
 11
111.90916332106056
 21
268.40654129988627
  0
LINE
  8
_0-1_1
  6
CONTINUOUS
 62
    7
 10
113.40916332106087
 20
213.05087886718641
 11
111.90916332106076
 21
213.05087886718641
  0
LINE
  8
_0-1_1
  6
CONTINUOUS
 62
    7
 10
111.90916332106076
 20
213.05087886718641
 11
111.90916332106076
 21
212.55087886719602
  0
LINE
  8
_0-1_1
  6
CONTINUOUS
 62
    7
 10
111.90916332106076
 20
213.05087886718641
 11
85.90916332106076
 21
213.0508788671867
  0
LINE
  8
_0-1_1
  6
CONTINUOUS
 62
    7
 10
85.90916332106076
 20
213.0508788671867
 11
84.409163321060674
 21
213.0508788671867
  0
LINE
  8
_0-1_1
  6
CONTINUOUS
 62
    7
 10
105.23371864139708
 20
231.05087886718732
 11
92.584608000724472
 21
231.05087886718732
  0
LINE
  8
_0-1_1
  6
CONTINUOUS
 62
    7
 10
242.56613334252017
 20
102.8008788671961
 11
271.56613334252017
 21
102.8008788671961
  0
LINE
  8
_0-1_1
  6
CONTINUOUS
 62
    7
 10
271.56613334252017
 20
102.8008788671961
 11
271.56613334252017
 21
96.300878867196104
  0
LINE
  8
_0-1_1
  6
CONTINUOUS
 62
    7
 10
273.56613334252017
 20
94.300878867196104
 11
292.05577037143587
 21
94.300878867196104
  0
LINE
  8
_0-1_1
  6
CONTINUOUS
 62
    7
 10
292.05577037143587
 20
94.300878867196104
 11
293.06613334251767
 21
92.550878867196104
  0
LINE
  8
_0-1_1
  6
CONTINUOUS
 62
    7
 10
292.05577037143564
 20
65.300878867196019
 11
293.06613334251767
 21
67.050878867196019
  0
LINE
  8
_0-1_1
  6
CONTINUOUS
 62
    7
 10
237.56613334252035
 20
65.300878867196019
 11
237.56613334252035
 21
79.800878867196417
  0
LINE
  8
_0-1_1
  6
CONTINUOUS
 62
    7
 10
237.56613334252035
 20
79.800878867196417
 11
237.56613334252035
 21
94.300878867196104
  0
LINE
  8
_0-1_1
  6
CONTINUOUS
 62
    7
 10
237.56613334252035
 20
94.300878867196104
 11
240.56613334252017
 21
94.300878867196104
  0
LINE
  8
_0-1_1
  6
CONTINUOUS
 62
    7
 10
242.56613334252017
 20
96.300878867196104
 11
242.56613334252017
 21
102.8008788671961
  0
LINE
  8
_0-1_1
  6
CONTINUOUS
 62
    7
 10
247.72813334252044
 20
114.80087886719602
 11
266.40413334252014
 21
114.80087886719602
  0
LINE
  8
_0-1_1
  6
CONTINUOUS
 62
    2
 10
247.72813334252038
 20
105.8008788671961
 11
247.72813334252038
 21
113.63887886719601
  0
LINE
  8
_0-1_1
  6
CONTINUOUS
 62
    2
 10
247.72813334252038
 20
113.63887886719601
 11
247.72813334252044
 21
114.80087886719602
  0
LINE
  8
_0-1_1
  6
CONTINUOUS
 62
    2
 10
247.72813334252038
 20
113.63887886719601
 11
247.72813334252044
 21
114.80087886719602
  0
LINE
  8
_0-1_1
  6
CONTINUOUS
 62
    7
 10
247.72813334252044
 20
114.80087886719602
 11
246.56613334252017
 21
113.63887886719601
  0
LINE
  8
_0-1_1
  6
CONTINUOUS
 62
    2
 10
266.40413334252014
 20
114.80087886719602
 11
266.40413334252014
 21
105.8008788671961
  0
LINE
  8
_0-1_1
  6
CONTINUOUS
 62
    2
 10
266.40413334252014
 20
105.8008788671961
 11
267.56613334252017
 21
103.78823582880102
  0
LINE
  8
_0-1_1
  6
CONTINUOUS
 62
    7
 10
267.56613334252017
 20
113.63887886719601
 11
267.56613334252017
 21
105.8008788671961
  0
LINE
  8
_0-1_1
  6
CONTINUOUS
 62
    7
 10
266.40413334252014
 20
114.80087886719602
 11
267.56613334252017
 21
113.63887886719601
  0
LINE
  8
_0-1_1
  6
CONTINUOUS
 62
    7
 10
266.40413334252014
 20
105.8008788671961
 11
267.56613334252017
 21
105.8008788671961
  0
LINE
  8
_0-1_1
  6
CONTINUOUS
 62
    7
 10
237.56613334252035
 20
66.800878867195109
 11
237.06613334252245
 21
66.800878867195308
  0
LINE
  8
_0-1_1
  6
CONTINUOUS
 62
    7
 10
293.06613334251767
 20
67.050878867196019
 11
293.06613334251767
 21
92.550878867196104
  0
LINE
  8
_0-1_1
  6
CONTINUOUS
 62
    7
 10
237.56613334252035
 20
65.300878867196019
 11
292.05577037143564
 21
65.300878867196019
  0
LINE
  8
_0-1_1
  6
CONTINUOUS
 62
    7
 10
246.56613334252017
 20
113.63887886719601
 11
246.56613334252017
 21
105.8008788671961
  0
LINE
  8
_0-1_1
  6
CONTINUOUS
 62
    2
 10
246.56613334252017
 20
103.78823582880102
 11
247.72813334252038
 21
105.8008788671961
  0
LINE
  8
_0-1_1
  6
CONTINUOUS
 62
    7
 10
246.56613334252017
 20
105.8008788671961
 11
246.56613334252017
 21
103.78823582880102
  0
LINE
  8
_0-1_1
  6
CONTINUOUS
 62
    7
 10
246.56613334252017
 20
105.8008788671961
 11
247.72813334252038
 21
105.8008788671961
  0
LINE
  8
_0-1_1
  6
CONTINUOUS
 62
    7
 10
246.56613334252017
 20
103.78823582880102
 11
246.56613334252017
 21
102.8008788671961
  0
LINE
  8
_0-1_1
  6
CONTINUOUS
 62
    7
 10
267.56613334252017
 20
105.8008788671961
 11
267.56613334252017
 21
103.78823582880102
  0
LINE
  8
_0-1_1
  6
CONTINUOUS
 62
    7
 10
267.56613334252017
 20
103.78823582880102
 11
267.56613334252017
 21
102.8008788671961
  0
LINE
  8
_0-1_1
  6
CONTINUOUS
 62
    7
 10
84.409163321060959
 20
79.800872685182213
 11
84.409163321060959
 21
102.80087886719642
  0
LINE
  8
_0-1_1
  6
CONTINUOUS
 62
    7
 10
84.409163321060959
 20
102.80087886719642
 11
95.409163321063062
 21
102.80087886719642
  0
LINE
  8
_0-1_1
  6
CONTINUOUS
 62
    7
 10
113.40916332106096
 20
102.80087886719642
 11
113.40916332106096
 21
79.800872685182213
  0
LINE
  8
_0-1_1
  6
CONTINUOUS
 62
    7
 10
108.24716332106365
 20
113.63887886719641
 11
89.57116332106375
 21
113.63887886719641
  0
LINE
  8
_0-1_1
  6
CONTINUOUS
 62
    7
 10
89.57116332106375
 20
105.80087886719642
 11
95.409163321063062
 21
105.80087886719642
  0
LINE
  8
_0-1_1
  6
CONTINUOUS
 62
    7
 10
89.57116332106375
 20
114.80087886719642
 11
108.24716332106365
 21
114.80087886719642
  0
LINE
  8
_0-1_1
  6
CONTINUOUS
 62
    2
 10
89.57116332106375
 20
105.80087886719642
 11
89.57116332106375
 21
113.63887886719641
  0
LINE
  8
_0-1_1
  6
CONTINUOUS
 62
    2
 10
89.57116332106375
 20
113.63887886719641
 11
89.57116332106375
 21
114.80087886719642
  0
LINE
  8
_0-1_1
  6
CONTINUOUS
 62
    2
 10
89.57116332106375
 20
113.63887886719641
 11
89.57116332106375
 21
114.80087886719642
  0
LINE
  8
_0-1_1
  6
CONTINUOUS
 62
    7
 10
88.40916332106346
 20
113.63887886719641
 11
89.57116332106375
 21
113.63887886719641
  0
LINE
  8
_0-1_1
  6
CONTINUOUS
 62
    7
 10
89.57116332106375
 20
114.80087886719642
 11
88.40916332106346
 21
113.63887886719641
  0
LINE
  8
_0-1_1
  6
CONTINUOUS
 62
    2
 10
108.24716332106365
 20
114.80087886719642
 11
108.24716332106365
 21
113.63887886719641
  0
LINE
  8
_0-1_1
  6
CONTINUOUS
 62
    2
 10
108.24716332106365
 20
113.63887886719641
 11
108.24716332106365
 21
105.80087886719642
  0
LINE
  8
_0-1_1
  6
CONTINUOUS
 62
    2
 10
108.24716332106365
 20
105.80087886719642
 11
109.40916332106346
 21
103.78823582880131
  0
LINE
  8
_0-1_1
  6
CONTINUOUS
 62
    7
 10
109.40916332106346
 20
113.63887886719641
 11
108.24716332106365
 21
113.63887886719641
  0
LINE
  8
_0-1_1
  6
CONTINUOUS
 62
    7
 10
109.40916332106346
 20
113.63887886719641
 11
109.40916332106346
 21
105.80087886719642
  0
LINE
  8
_0-1_1
  6
CONTINUOUS
 62
    7
 10
108.24716332106365
 20
114.80087886719642
 11
109.40916332106346
 21
113.63887886719641
  0
LINE
  8
_0-1_1
  6
CONTINUOUS
 62
    7
 10
108.24716332106365
 20
105.80087886719642
 11
109.40916332106346
 21
105.80087886719642
  0
LINE
  8
_0-1_1
  6
CONTINUOUS
 62
    7
 10
88.40916332106346
 20
113.63887886719641
 11
88.409163321062948
 21
105.80087886719642
  0
LINE
  8
_0-1_1
  6
CONTINUOUS
 62
    2
 10
88.40916332106346
 20
103.78823582880131
 11
89.57116332106375
 21
105.80087886719642
  0
LINE
  8
_0-1_1
  6
CONTINUOUS
 62
    7
 10
88.409163321062948
 20
105.80087886719642
 11
88.40916332106346
 21
103.78823582880131
  0
LINE
  8
_0-1_1
  6
CONTINUOUS
 62
    7
 10
88.409163321062948
 20
105.80087886719642
 11
89.57116332106375
 21
105.80087886719642
  0
LINE
  8
_0-1_1
  6
CONTINUOUS
 62
    7
 10
88.40916332106346
 20
103.78823582880131
 11
88.40916332106346
 21
102.80087886719642
  0
LINE
  8
_0-1_1
  6
CONTINUOUS
 62
    7
 10
109.40916332106346
 20
105.80087886719642
 11
109.40916332106346
 21
103.78823582880131
  0
LINE
  8
_0-1_1
  6
CONTINUOUS
 62
    7
 10
109.40916332106346
 20
103.78823582880131
 11
109.40916332106366
 21
102.80087886719642
  0
LINE
  8
_0-1_1
  6
CONTINUOUS
 62
    7
 10
102.40916332106096
 20
102.80087886719642
 11
113.40916332106096
 21
102.80087886719642
  0
LINE
  8
_0-1_1
  6
CONTINUOUS
 62
    7
 10
102.40916332106096
 20
105.80087886719642
 11
108.24716332106365
 21
105.80087886719642
  0
LINE
  8
_0-1_1
  6
CONTINUOUS
 62
    7
 10
237.06613334252245
 20
92.800878867196332
 11
237.56613334252035
 21
92.800878867196218
  0
LINE
  8
_0-1_1
  6
CONTINUOUS
 62
    7
 10
247.72813334252038
 20
105.8008788671961
 11
266.40413334252014
 21
105.8008788671961
  0
LINE
  8
_0-1_1
  6
CONTINUOUS
 62
    7
 10
246.56613334252017
 20
113.63887886719601
 11
267.56613334252017
 21
113.63887886719601
  0
ARC
  8
_0-1_1
  6
CONTINUOUS
 62
    7
 10
266.48465999896007
 20
92.954166989241713
 40
26.075376034449519
 50
348.71362629399925
 51
1.0569288429437613
  0
ARC
  8
_0-1_1
  6
CONTINUOUS
 62
    7
 10
261.11095450897517
 20
66.166608476686719
 40
31.44464508554552
 50
0
 51
10.229444863055928
  0
ARC
  8
_0-1_1
  6
CONTINUOUS
 62
    7
 10
251.07520255377926
 20
79.800878867196417
 40
41.480397040741359
 50
351.09643236298228
 51
8.9035676370176624
  0
ARC
  8
_0-1_1
  6
CONTINUOUS
 62
    7
 10
289.69919511518344
 20
79.800878867196417
 40
9.2311379840182877
 50
180
 51
224.0648587606768
  0
ARC
  8
_0-1_1
  6
CONTINUOUS
 62
    7
 10
289.69919511518344
 20
65.330878867196418
 40
9.2311379840190977
 50
135.93514123932351
 51
180
  0
ARC
  8
_0-1_1
  6
CONTINUOUS
 62
    7
 10
289.69919511518344
 20
94.270878867196416
 40
9.2311379840182877
 50
180
 51
224.0648587606768
  0
ARC
  8
_0-1_1
  6
CONTINUOUS
 62
    7
 10
289.69919511518344
 20
79.800878867196417
 40
9.2311379840190977
 50
135.93514123932351
 51
180
  0
ARC
  8
_0-1_1
  6
CONTINUOUS
 62
    7
 10
98.90916332106076
 20
232.55087886718874
 40
6.4999999999999236
 50
346.6576362028988
 51
193.34236379710146
  0
ARC
  8
_0-1_1
  6
CONTINUOUS
 62
    7
 10
98.90916332106076
 20
232.55087886718874
 40
6.4999999999998144
 50
193.34236379710146
 51
346.65763620289891
  0
ARC
  8
_0-1_1
  6
CONTINUOUS
 62
    7
 10
92.409163321060561
 20
236.85315035488171
 40
31.18736554122005
 50
79.726575766775937
 51
100.27342423322403
  0
ARC
  8
_0-1_1
  6
CONTINUOUS
 62
    7
 10
105.40916332106067
 20
236.85315035488171
 40
31.187365541220039
 50
79.726575766775937
 51
100.27342423322403
  0
ARC
  8
_0-1_1
  6
CONTINUOUS
 62
    7
 10
105.40916332106067
 20
263.20573953592168
 40
7.2529368800910614
 50
219.92540773157859
 51
320.07459226842059
  0
ARC
  8
_0-1_1
  6
CONTINUOUS
 62
    7
 10
92.409163321060561
 20
263.20573953592043
 40
7.2529368800901706
 50
219.92540773157185
 51
320.07459226842889
  0
CIRCLE
  8
_0-1_1
  6
CONTINUOUS
 62
    7
 10
98.90916332106076
 20
232.55087886718874
 40
14.50000000000262
  0
CIRCLE
  8
_0-1_1
  6
CONTINUOUS
 62
    7
 10
98.90916332106076
 20
232.55087886718874
 40
10.499999999997391
  0
CIRCLE
  8
_0-1_1
  6
CONTINUOUS
 62
    2
 10
98.90916332106076
 20
232.55087886718874
 40
9.3379999999974626
  0
CIRCLE
  8
_0-1_1
  6
CONTINUOUS
 62
    7
 10
98.90916332106076
 20
232.55087886718874
 40
7
  0
ARC
  8
_0-1_1
  6
CONTINUOUS
 62
    7
 10
83.909163321060561
 20
259.08677725204586
 40
2.0000000000000231
 50
329.99999999999659
 51
0.0000000000001017
  0
ARC
  8
_0-1_1
  6
CONTINUOUS
 62
    7
 10
113.90916332106056
 20
259.08677725204575
 40
2
 50
180
 51
209.99999999999599
  0
ARC
  8
_0-1_1
  6
CONTINUOUS
 62
    7
 10
273.56613334252017
 20
96.300878867196104
 40
2
 50
180
 51
270
  0
ARC
  8
_0-1_1
  6
CONTINUOUS
 62
    7
 10
240.56613334252017
 20
96.300878867196104
 40
2
 50
270
 51
0
  0
LINE
  8
_0-1_1
  6
CONTINUOUS
 62
    7
 10
102.40916332106096
 20
93.872126146666716
 11
102.40916332106096
 21
111.10087886719631
  0
LINE
  8
_0-1_1
  6
CONTINUOUS
 62
    7
 10
95.60916332106305
 20
111.30087886719642
 11
102.20916332106066
 21
111.30087886719642
  0
LINE
  8
_0-1_1
  6
CONTINUOUS
 62
    7
 10
102.40916332106096
 20
111.10087886719631
 11
102.20916332106066
 21
111.30087886719642
  0
LINE
  8
_0-1_1
  6
CONTINUOUS
 62
    7
 10
95.60916332106305
 20
111.30087886719642
 11
95.409163321063062
 21
111.10087886719631
  0
LINE
  8
_0-1_1
  6
CONTINUOUS
 62
    7
 10
95.409163321063062
 20
111.10087886719631
 11
95.409163321062749
 21
93.872126146667227
  0
LINE
  8
_0-1_1
  6
CONTINUOUS
 62
    7
 10
88.609163321060976
 20
303.49365459237731
 11
88.609163321060976
 21
308.35064417502167
  0
LINE
  8
_0-1_1
  6
CONTINUOUS
 62
    7
 10
88.609163321060976
 20
268.55087886718331
 11
88.609163321060976
 21
288.49365459237731
  0
LINE
  8
_0-1_1
  6
CONTINUOUS
 62
    7
 10
89.826607892119455
 20
310.45932002749362
 11
107.99171875000258
 21
310.45932002749362
  0
LINE
  8
_0-1_1
  6
CONTINUOUS
 62
    7
 10
90.102336656989365
 20
323.29901809819387
 11
107.71598998513255
 21
323.29901809819387
  0
LINE
  8
_0-1_1
  6
CONTINUOUS
 62
    7
 10
109.20916332106106
 20
288.49365459237731
 11
109.20916332106106
 21
268.55087886718331
  0
LINE
  8
_0-1_1
  6
CONTINUOUS
 62
    7
 10
109.20916332106106
 20
308.35064417502167
 11
109.20916332106106
 21
303.49365459237731
  0
LINE
  8
_0-1_1
  6
CONTINUOUS
 62
    7
 10
107.65227476743237
 20
324.45932002749373
 11
107.15916332106096
 21
324.45932002749373
  0
LINE
  8
_0-1_1
  6
CONTINUOUS
 62
    7
 10
108.87877208159537
 20
323.29901809819387
 11
109.15411464163037
 21
310.45932002749362
  0
LINE
  8
_0-1_1
  6
CONTINUOUS
 62
    7
 10
109.15411464163037
 20
310.45932002749362
 11
107.99171875000258
 21
310.45932002749362
  0
LINE
  8
_0-1_1
  6
CONTINUOUS
 62
    7
 10
107.71598998513255
 20
323.29901809819387
 11
108.87877208159537
 21
323.29901809819387
  0
LINE
  8
_0-1_1
  6
CONTINUOUS
 62
    7
 10
107.15916332106096
 20
324.45932002749373
 11
90.659163321060959
 21
324.45932002749373
  0
LINE
  8
_0-1_1
  6
CONTINUOUS
 62
    7
 10
107.65227476743237
 20
324.45932002749373
 11
108.87877208159537
 21
323.29901809819387
  0
LINE
  8
_0-1_1
  6
CONTINUOUS
 62
    7
 10
109.15411464163037
 20
310.45932002749362
 11
109.20916332106106
 21
308.35064417502167
  0
LINE
  8
_0-1_1
  6
CONTINUOUS
 62
    2
 10
107.65227476743237
 20
324.45932002749373
 11
107.99171875000258
 21
310.45932002749362
  0
LINE
  8
_0-1_1
  6
CONTINUOUS
 62
    2
 10
109.20916332106106
 20
308.35064417502167
 11
107.99171875000258
 21
310.45932002749362
  0
LINE
  8
_0-1_1
  6
CONTINUOUS
 62
    2
 10
89.826607892119455
 20
310.45932002749362
 11
88.609163321060976
 21
308.35064417502167
  0
LINE
  8
_0-1_1
  6
CONTINUOUS
 62
    2
 10
89.826607892119455
 20
310.45932002749362
 11
90.166051874689771
 21
324.45932002749373
  0
LINE
  8
_0-1_1
  6
CONTINUOUS
 62
    7
 10
88.609163321060976
 20
308.35064417502167
 11
88.664212000491574
 21
310.45932002749362
  0
LINE
  8
_0-1_1
  6
CONTINUOUS
 62
    7
 10
88.939554560526659
 20
323.29901809819387
 11
90.166051874689771
 21
324.45932002749373
  0
LINE
  8
_0-1_1
  6
CONTINUOUS
 62
    7
 10
88.939554560526659
 20
323.29901809819387
 11
90.102336656989365
 21
323.29901809819387
  0
LINE
  8
_0-1_1
  6
CONTINUOUS
 62
    7
 10
89.826607892119455
 20
310.45932002749362
 11
88.664212000491574
 21
310.45932002749362
  0
LINE
  8
_0-1_1
  6
CONTINUOUS
 62
    7
 10
88.664212000491574
 20
310.45932002749362
 11
88.939554560526659
 21
323.29901809819387
  0
LINE
  8
_0-1_1
  6
CONTINUOUS
 62
    7
 10
90.659163321060959
 20
324.45932002749373
 11
90.166051874689771
 21
324.45932002749373
  0
LINE
  8
_0-1_1
  6
CONTINUOUS
 62
    7
 10
348.97457450282803
 20
88.050878867196417
 11
348.97457450282803
 21
88.543990313567605
  0
LINE
  8
_0-1_1
  6
CONTINUOUS
 62
    7
 10
334.97457450282798
 20
90.04583018776583
 11
347.81427257352834
 21
89.770487627730716
  0
LINE
  8
_0-1_1
  6
CONTINUOUS
 62
    7
 10
334.97457450282798
 20
88.883434296137921
 11
334.97457450282798
 21
90.04583018776583
  0
LINE
  8
_0-1_1
  6
CONTINUOUS
 62
    7
 10
347.81427257352834
 20
89.770487627730716
 11
347.81427257352834
 21
88.60770553126801
  0
LINE
  8
_0-1_1
  6
CONTINUOUS
 62
    7
 10
347.81427257352834
 20
89.770487627730716
 11
348.97457450282803
 21
88.543990313567605
  0
LINE
  8
_0-1_1
  6
CONTINUOUS
 62
    7
 10
332.86589865035597
 20
90.100878867196428
 11
334.97457450282798
 21
90.04583018776583
  0
LINE
  8
_0-1_1
  6
CONTINUOUS
 62
    2
 10
334.97457450282798
 20
88.883434296137921
 11
348.97457450282803
 21
88.543990313567605
  0
LINE
  8
_0-1_1
  6
CONTINUOUS
 62
    2
 10
334.97457450282798
 20
88.883434296137921
 11
332.86589865035597
 21
90.100878867196428
  0
LINE
  8
_0-1_1
  6
CONTINUOUS
 62
    2
 10
332.86589865035597
 20
69.50087886719632
 11
334.97457450282798
 21
70.718323438254828
  0
LINE
  8
_0-1_1
  6
CONTINUOUS
 62
    2
 10
348.97457450282803
 20
71.05776742082503
 11
334.97457450282798
 21
70.718323438254828
  0
LINE
  8
_0-1_1
  6
CONTINUOUS
 62
    7
 10
334.97457450282798
 20
69.555927546627032
 11
332.86589865035597
 21
69.50087886719632
  0
LINE
  8
_0-1_1
  6
CONTINUOUS
 62
    7
 10
348.97457450282803
 20
71.05776742082503
 11
347.81427257352834
 21
69.831270106662032
  0
LINE
  8
_0-1_1
  6
CONTINUOUS
 62
    7
 10
348.97457450282803
 20
71.550878867196417
 11
348.97457450282803
 21
88.050878867196417
  0
LINE
  8
_0-1_1
  6
CONTINUOUS
 62
    7
 10
347.81427257352834
 20
70.99405220312471
 11
347.81427257352834
 21
69.831270106662032
  0
LINE
  8
_0-1_1
  6
CONTINUOUS
 62
    7
 10
334.97457450282798
 20
69.555927546627032
 11
334.97457450282798
 21
70.718323438254828
  0
LINE
  8
_0-1_1
  6
CONTINUOUS
 62
    7
 10
347.81427257352834
 20
69.831270106662032
 11
334.97457450282798
 21
69.555927546627032
  0
LINE
  8
_0-1_1
  6
CONTINUOUS
 62
    7
 10
348.97457450282803
 20
71.05776742082503
 11
348.97457450282803
 21
71.550878867196417
  0
LINE
  8
_0-1_1
  6
CONTINUOUS
 62
    7
 10
332.86589865035597
 20
69.50087886719632
 11
328.00890906771178
 21
69.50087886719632
  0
LINE
  8
_0-1_1
  6
CONTINUOUS
 62
    7
 10
313.00890906771167
 20
69.50087886719632
 11
293.06613334251767
 21
69.50087886719632
  0
LINE
  8
_0-1_1
  6
CONTINUOUS
 62
    7
 10
347.81427257352834
 20
88.60770553126801
 11
347.81427257352834
 21
70.99405220312471
  0
LINE
  8
_0-1_1
  6
CONTINUOUS
 62
    7
 10
334.97457450282798
 20
88.883434296137921
 11
334.97457450282798
 21
70.718323438254828
  0
LINE
  8
_0-1_1
  6
CONTINUOUS
 62
    7
 10
293.06613334251767
 20
90.100878867196428
 11
313.00890906771167
 21
90.100878867196428
  0
LINE
  8
_0-1_1
  6
CONTINUOUS
 62
    7
 10
328.00890906771178
 20
90.100878867196428
 11
332.86589865035597
 21
90.100878867196428
  0
LINE
  8
_0-1_1
  6
CONTINUOUS
 62
    7
 10
88.309163321062556
 20
288.49365459237731
 11
88.609163321060976
 21
288.49365459237731
  0
LINE
  8
_0-1_1
  6
CONTINUOUS
 62
    7
 10
68.909163321061072
 20
303.49365459237731
 11
98.909163321061072
 21
303.49365459237731
  0
LINE
  8
_0-1_1
  6
CONTINUOUS
 62
    7
 10
68.909163321061072
 20
290.49365459237731
 11
68.909163321061072
 21
303.49365459237731
  0
LINE
  8
_0-1_1
  6
CONTINUOUS
 62
    7
 10
86.704994844374653
 20
288.49365459237731
 11
88.309163321062556
 21
288.49365459237731
  0
LINE
  8
_0-1_1
  6
CONTINUOUS
 62
    7
 10
70.909163321061072
 20
288.49365459237731
 11
98.909163321061072
 21
288.49365459237731
  0
LINE
  8
_0-1_1
  6
CONTINUOUS
 62
    7
 10
98.909163321061072
 20
288.49365459237731
 11
126.90916332106096
 21
288.49365459237731
  0
LINE
  8
_0-1_1
  6
CONTINUOUS
 62
    7
 10
109.50916332105948
 20
288.49365459237731
 11
111.11333179774746
 21
288.49365459237731
  0
LINE
  8
_0-1_1
  6
CONTINUOUS
 62
    7
 10
128.90916332106096
 20
303.49365459237731
 11
128.90916332106096
 21
290.49365459237731
  0
LINE
  8
_0-1_1
  6
CONTINUOUS
 62
    7
 10
98.909163321061072
 20
303.49365459237731
 11
128.90916332106096
 21
303.49365459237731
  0
LINE
  8
_0-1_1
  6
CONTINUOUS
 62
    7
 10
109.20916332106106
 20
288.49365459237731
 11
109.50916332105948
 21
288.49365459237731
  0
LINE
  8
_0-1_1
  6
CONTINUOUS
 62
    7
 10
313.00890906771178
 20
69.50087886719632
 11
313.00890906771178
 21
69.200878867197929
  0
LINE
  8
_0-1_1
  6
CONTINUOUS
 62
    7
 10
328.00890906771184
 20
79.800878867196417
 11
328.00890906771184
 21
49.800878867196417
  0
LINE
  8
_0-1_1
  6
CONTINUOUS
 62
    7
 10
328.00890906771184
 20
49.800878867196417
 11
315.00890906771184
 21
49.800878867196417
  0
LINE
  8
_0-1_1
  6
CONTINUOUS
 62
    7
 10
313.00890906771178
 20
69.200878867197929
 11
313.00890906771178
 21
67.596710390510026
  0
LINE
  8
_0-1_1
  6
CONTINUOUS
 62
    7
 10
313.00890906771178
 20
79.800878867196417
 11
313.00890906771178
 21
51.800878867196417
  0
LINE
  8
_0-1_1
  6
CONTINUOUS
 62
    7
 10
313.00890906771178
 20
107.80087886719622
 11
313.00890906771178
 21
79.800878867196417
  0
LINE
  8
_0-1_1
  6
CONTINUOUS
 62
    7
 10
313.00890906771178
 20
92.005047343882723
 11
313.00890906771178
 21
90.40087886719482
  0
LINE
  8
_0-1_1
  6
CONTINUOUS
 62
    7
 10
315.00890906771184
 20
109.80087886719633
 11
328.00890906771184
 21
109.80087886719633
  0
LINE
  8
_0-1_1
  6
CONTINUOUS
 62
    7
 10
328.00890906771184
 20
109.80087886719633
 11
328.00890906771184
 21
79.800878867196417
  0
LINE
  8
_0-1_1
  6
CONTINUOUS
 62
    7
 10
313.00890906771178
 20
90.40087886719482
 11
313.00890906771178
 21
90.100878867196428
  0
ARC
  8
_0-1_1
  6
CONTINUOUS
 62
    7
 10
98.909163321061072
 20
79.800878867196417
 40
29.999999999999961
 50
110.4873151147179
 51
0.0000000000001136
  0
ARC
  8
_0-1_1
  6
CONTINUOUS
 62
    7
 10
98.909163321061072
 20
79.800878867196417
 40
29.999999999999989
 50
0
 51
69.512684885272435
  0
ARC
  8
_0-1_1
  6
CONTINUOUS
 62
    7
 10
70.909163321062863
 20
290.49365459237731
 40
2.0000000000018181
 50
180
 51
269.99999999994787
  0
ARC
  8
_0-1_1
  6
CONTINUOUS
 62
    7
 10
126.90916332105917
 20
290.49365459237731
 40
2
 50
270.00000000005218
 51
0.0000000000000381
  0
ARC
  8
_0-1_1
  6
CONTINUOUS
 62
    7
 10
315.00890906771184
 20
51.800878867198222
 40
2
 50
180.00000000005173
 51
270.00000000000006
  0
ARC
  8
_0-1_1
  6
CONTINUOUS
 62
    7
 10
315.00890906771184
 20
107.80087886719451
 40
2.000000000001791
 50
90
 51
179.9999999999487
  0
LINE
  8
_0-1_1
  6
CONTINUOUS
 62
    7
 10
292.75992330126616
 20
253.93773260593824
 11
290.45052222450767
 21
253.93773260593824
  0
LINE
  8
_0-1_1
  6
CONTINUOUS
 62
    7
 10
293.85522276288657
 20
251.93773260593824
 11
292.75992330126616
 21
253.93773260593824
  0
LINE
  8
_0-1_1
  6
CONTINUOUS
 62
    7
 10
292.75992330126616
 20
249.93773260593824
 11
293.85522276288657
 21
251.93773260593824
  0
LINE
  8
_0-1_1
  6
CONTINUOUS
 62
    7
 10
290.45052222450767
 20
249.93773260593824
 11
292.75992330126616
 21
249.93773260593824
  0
LINE
  8
_0-1_1
  6
CONTINUOUS
 62
    7
 10
290.45052222450767
 20
253.93773260593824
 11
289.35522276288657
 21
251.93773260593824
  0
LINE
  8
_0-1_1
  6
CONTINUOUS
 62
    7
 10
289.35522276288657
 20
251.93773260593824
 11
290.45052222450767
 21
249.93773260593824
  0
LINE
  8
_0-1_1
  6
CONTINUOUS
 62
    7
 10
201.60522276288668
 20
224.9377326059379
 11
203.60522276288668
 21
224.9377326059379
  0
LINE
  8
_0-1_1
  6
CONTINUOUS
 62
    7
 10
203.60522276288668
 20
224.9377326059379
 11
205.60522276288668
 21
224.9377326059379
  0
LINE
  8
_0-1_1
  6
CONTINUOUS
 62
    7
 10
205.60522276288668
 20
224.9377326059379
 11
205.60522276288668
 21
245.9377326059379
  0
LINE
  8
_0-1_1
  6
CONTINUOUS
 62
    7
 10
201.60522276288589
 20
245.93773260593773
 11
201.60522276288668
 21
224.9377326059379
  0
LINE
  8
_0-1_1
  6
CONTINUOUS
 62
    7
 10
209.60522276288657
 20
249.9377326059379
 11
275.60522276288674
 21
249.9377326059379
  0
LINE
  8
_0-1_1
  6
CONTINUOUS
 62
    7
 10
275.60522276288674
 20
249.9377326059379
 11
275.60522276288674
 21
253.9377326059379
  0
LINE
  8
_0-1_1
  6
CONTINUOUS
 62
    7
 10
275.60522276288674
 20
253.9377326059379
 11
209.60522276288657
 21
253.9377326059379
  0
LINE
  8
_0-2_0
  6
PHANTOM
 62
    4
 10
287.10522276288657
 20
251.93773260593824
 11
296.10522276288657
 21
251.93773260593824
  0
LINE
  8
_0-2_0
  6
PHANTOM
 62
    4
 10
291.60522276288697
 20
247.93773260593824
 11
291.60522276288634
 21
255.93773260593824
  0
ARC
  8
_0-1_1
  6
CONTINUOUS
 62
    7
 10
209.60522276288657
 20
245.9377326059379
 40
8
 50
90
 51
180.00000000000239
  0
ARC
  8
_0-1_1
  6
CONTINUOUS
 62
    7
 10
209.60522276288657
 20
245.9377326059379
 40
4
 50
90
 51
180
  0
LINE
  8
ADD_LINE
  6
DOT
 62
    4
 10
130.95210326108526
 20
61.300878867196417
 11
131.69660873642667
 21
62.722690691509712
  0
LINE
  8
ADD_LINE
  6
DOT
 62
    4
 10
130.95210326108526
 20
98.300878867196417
 11
132.05675273690025
 21
96.189514209056114
  0
LINE
  8
_0-3_寸法線
  6
CONTINUOUS
 62
    3
 10
111.90916332106056
 20
271.40654129988627
 11
111.90916332106056
 21
277.89209753516582
  0
LINE
  8
_0-3_寸法線
  6
CONTINUOUS
 62
    3
 10
85.909163321060561
 20
271.40654129988627
 11
85.909163321060561
 21
277.89209753516582
  0
LINE
  8
_0-3_寸法線
  6
CONTINUOUS
 62
    3
 10
103.90916332106056
 20
277.89209753516582
 11
93.909163321060561
 21
277.89209753516582
  0
LINE
  8
_0-3_寸法線
  6
CONTINUOUS
 62
    3
 10
129.90916332106096
 20
288.49365459237731
 11
156.34369288652147
 21
288.49365459237731
  0
LINE
  8
_0-3_寸法線
  6
CONTINUOUS
 62
    3
 10
131.90916332106096
 20
303.49365459237731
 11
156.34369288652147
 21
303.49365459237731
  0
LINE
  8
_0-3_寸法線
  6
CONTINUOUS
 62
    3
 10
156.34369288652147
 20
280.49365459237731
 11
156.34369288652147
 21
272.49365459237731
  0
LINE
  8
_0-3_寸法線
  6
CONTINUOUS
 62
    3
 10
156.34369288652147
 20
311.49365459237731
 11
156.34369288652147
 21
333.30317840190116
  0
LINE
  8
_0-3_寸法線
  6
CONTINUOUS
 62
    3
 10
156.34369288652147
 20
288.49365459237731
 11
156.34369288652147
 21
303.49365459237731
  0
LINE
  8
_0-3_寸法線
  6
CONTINUOUS
 62
    3
 10
198.60522276288668
 20
224.9377326059379
 11
180.82441558173997
 21
224.9377326059379
  0
LINE
  8
_0-3_寸法線
  6
CONTINUOUS
 62
    3
 10
206.60522276288657
 20
249.9377326059379
 11
180.82441558173997
 21
249.9377326059379
  0
LINE
  8
_0-3_寸法線
  6
CONTINUOUS
 62
    3
 10
180.82441558173997
 20
232.9377326059379
 11
180.82441558173997
 21
241.9377326059379
  0
LINE
  8
_0-3_寸法線
  6
CONTINUOUS
 62
    3
 10
205.60594621838567
 20
249.01380573262983
 11
205.60594621838567
 21
272.66363683506131
  0
LINE
  8
_0-3_寸法線
  6
CONTINUOUS
 62
    3
 10
275.60522276288674
 20
256.93773260593798
 11
275.60522276288674
 21
272.66363683506131
  0
LINE
  8
_0-3_寸法線
  6
CONTINUOUS
 62
    3
 10
213.60594621838567
 20
272.66363683506131
 11
267.60522276288674
 21
272.66363683506131
  0
LINE
  8
_0-3_寸法線
  6
CONTINUOUS
 62
    3
 10
295.75992330126604
 20
253.93773260593824
 11
325.05758205196634
 21
253.93773260593824
  0
LINE
  8
_0-3_寸法線
  6
CONTINUOUS
 62
    3
 10
295.75992330126604
 20
249.93773260593824
 11
325.05758205196634
 21
249.93773260593824
  0
LINE
  8
_0-3_寸法線
  6
CONTINUOUS
 62
    3
 10
325.05758205196634
 20
261.93773260593821
 11
325.05758205196634
 21
269.93773260593821
  0
LINE
  8
_0-3_寸法線
  6
CONTINUOUS
 62
    3
 10
325.05758205196634
 20
241.93773260593812
 11
325.05758205196634
 21
226.2234468916524
  0
LINE
  8
_0-3_寸法線
  6
CONTINUOUS
 62
    3
 10
325.05758205196634
 20
253.93773260593824
 11
325.05758205196634
 21
249.93773260593824
  0
LINE
  8
_0-3_寸法線
  6
CONTINUOUS
 62
    3
 10
117.77617013424805
 20
92.060000120824327
 11
124.48443922338126
 21
96.418798788780919
  0
LINE
  8
_0-3_寸法線
  6
CONTINUOUS
 62
    3
 10
80.042156507873756
 20
67.541757613568421
 11
49.056178569609159
 21
47.40815271965792
  0
LINE
  8
_0-3_寸法線
  6
CONTINUOUS
 62
    3
 10
111.06790104511487
 20
87.701201452867707
 11
86.750425597006966
 21
71.900556281525013
  0
LINE
  8
_0-3_寸法線
  6
CONTINUOUS
 62
    3
 10
331.00890906771178
 20
49.800878867196417
 11
371.44268091169045
 21
49.800878867196417
  0
LINE
  8
_0-3_寸法線
  6
CONTINUOUS
 62
    3
 10
331.00890906771178
 20
109.80087886719633
 11
371.44268091169056
 21
109.80087886719622
  0
LINE
  8
_0-3_寸法線
  6
CONTINUOUS
 62
    3
 10
371.44268091169045
 20
57.800878867196417
 11
371.44268091169056
 21
101.80087886719622
  0
LINE
  8
_0-3_寸法線
  6
CONTINUOUS
 62
    3
 10
257.06613334252029
 20
59.300878867196417
 11
257.06613334252029
 21
35.300878867197952
  0
LINE
  8
_0-3_寸法線
  6
CONTINUOUS
 62
    3
 10
348.97457450282803
 20
68.05776742082503
 11
348.97457450282803
 21
35.300878867197952
  0
LINE
  8
_0-3_寸法線
  6
CONTINUOUS
 62
    3
 10
265.06613334252029
 20
35.300878867197952
 11
340.97457450282803
 21
35.300878867197952
  0
LINE
  8
_0-3_寸法線
  6
CONTINUOUS
 62
    3
 10
208.56613334252279
 20
63.200878867196323
 11
208.56613334252279
 21
35.300878867197952
  0
LINE
  8
_0-3_寸法線
  6
CONTINUOUS
 62
    3
 10
257.06613334252029
 20
59.300878867196417
 11
257.06613334252029
 21
35.300878867197952
  0
LINE
  8
_0-3_寸法線
  6
CONTINUOUS
 62
    3
 10
216.56613334252279
 20
35.300878867197952
 11
249.06613334252029
 21
35.300878867197952
  0
LINE
  8
_0-3_寸法線
  6
CONTINUOUS
 62
    3
 10
244.72813334252044
 20
114.80087886719602
 11
184.68049978781096
 21
114.80087886719602
  0
LINE
  8
_0-3_寸法線
  6
CONTINUOUS
 62
    3
 10
205.56613334252279
 20
79.800878867196417
 11
184.68049978781096
 21
79.800878867196417
  0
LINE
  8
_0-3_寸法線
  6
CONTINUOUS
 62
    3
 10
184.68049978781096
 20
106.80087886719602
 11
184.68049978781096
 21
87.800878867196417
  0
TEXT
  8
_0-3_寸法線
 62
    7
 10
166.65515693962197
 20
131.08275698501481
 40
8
 41
1
 50
0
  1
PJ1/2
  0
SOLID
  8
_0-3_寸法線
  6
CONTINUOUS
 62
    7
 10
244.20358098421377
 20
117.98713119226642
 11
246.56613334252017
 21
110.22851507004211
 12
241.81497858556298
 22
116.8015133397225
 13
241.81497858556298
 23
116.8015133397225
  0
TEXT
  8
_0-3_寸法線
 62
    7
 10
399.21900942633783
 20
112.2414130269652
 40
8
 41
1
 50
0
  1
 R1/2
  0
SOLID
  8
_0-3_寸法線
  6
CONTINUOUS
 62
    7
 10
341.84347149800345
 20
95.389362872072326
 11
335.75289909275295
 21
90.033739140500217
 12
339.77729231991248
 22
97.075190477474024
 13
339.77729231991248
 23
97.075190477474024
  0
TEXT
  8
_0-3_寸法線
 62
    7
 10
91.290115702012969
 20
278.89209753516582
 40
8
 41
1
 50
0
  1
26
  0
LINE
  8
_0-2_0
  6
CONTINUOUS
 62
    7
 10
93.909163321060561
 20
275.74850401516585
 11
85.909163321060561
 21
277.89209753516582
  0
LINE
  8
_0-2_0
  6
CONTINUOUS
 62
    7
 10
85.909163321060561
 20
277.89209753516582
 11
93.909163321060561
 21
280.0356910551659
  0
LINE
  8
_0-2_0
  6
CONTINUOUS
 62
    7
 10
85.909163321060561
 20
277.89209753516582
 11
93.909163321060561
 21
277.89209753516582
  0
LINE
  8
_0-2_0
  6
CONTINUOUS
 62
    7
 10
103.90916332106056
 20
280.0356910551659
 11
111.90916332106056
 21
277.89209753516582
  0
LINE
  8
_0-2_0
  6
CONTINUOUS
 62
    7
 10
111.90916332106056
 20
277.89209753516582
 11
103.90916332106056
 21
275.74850401516585
  0
LINE
  8
_0-2_0
  6
CONTINUOUS
 62
    7
 10
111.90916332106056
 20
277.89209753516582
 11
103.90916332106056
 21
277.89209753516582
  0
TEXT
  8
_0-3_寸法線
 62
    7
 10
155.34369288652147
 20
318.20794030666309
 40
8
 41
1
 50
90
  1
15
  0
LINE
  8
_0-2_0
  6
CONTINUOUS
 62
    7
 10
158.48728640652146
 20
311.49365459237731
 11
156.34369288652147
 21
303.49365459237731
  0
LINE
  8
_0-2_0
  6
CONTINUOUS
 62
    7
 10
156.34369288652147
 20
303.49365459237731
 11
154.20009936652147
 21
311.49365459237731
  0
LINE
  8
_0-2_0
  6
CONTINUOUS
 62
    7
 10
156.34369288652147
 20
303.49365459237731
 11
156.34369288652147
 21
311.49365459237731
  0
LINE
  8
_0-2_0
  6
CONTINUOUS
 62
    7
 10
154.20009936652147
 20
280.49365459237731
 11
156.34369288652147
 21
288.49365459237731
  0
LINE
  8
_0-2_0
  6
CONTINUOUS
 62
    7
 10
156.34369288652147
 20
288.49365459237731
 11
158.48728640652146
 21
280.49365459237731
  0
LINE
  8
_0-2_0
  6
CONTINUOUS
 62
    7
 10
156.34369288652147
 20
288.49365459237731
 11
156.34369288652147
 21
280.49365459237731
  0
TEXT
  8
_0-3_寸法線
 62
    7
 10
179.82441558173986
 20
229.8186849868903
 40
8
 41
1
 50
90
  1
25
  0
LINE
  8
_0-2_0
  6
CONTINUOUS
 62
    7
 10
178.68082206173989
 20
241.9377326059379
 11
180.82441558173997
 21
249.9377326059379
  0
LINE
  8
_0-2_0
  6
CONTINUOUS
 62
    7
 10
180.82441558173997
 20
249.9377326059379
 11
182.96800910173994
 21
241.9377326059379
  0
LINE
  8
_0-2_0
  6
CONTINUOUS
 62
    7
 10
180.82441558173997
 20
249.9377326059379
 11
180.82441558173997
 21
241.9377326059379
  0
LINE
  8
_0-2_0
  6
CONTINUOUS
 62
    7
 10
182.96800910173994
 20
232.9377326059379
 11
180.82441558173997
 21
224.9377326059379
  0
LINE
  8
_0-2_0
  6
CONTINUOUS
 62
    7
 10
180.82441558173997
 20
224.9377326059379
 11
178.68082206173989
 21
232.9377326059379
  0
LINE
  8
_0-2_0
  6
CONTINUOUS
 62
    7
 10
180.82441558173997
 20
224.9377326059379
 11
180.82441558173997
 21
232.9377326059379
  0
TEXT
  8
_0-3_寸法線
 62
    7
 10
232.98653687158856
 20
273.66363683506131
 40
8
 41
1
 50
0
  1
70
  0
LINE
  8
_0-2_0
  6
CONTINUOUS
 62
    7
 10
267.60522276288674
 20
274.80723035506128
 11
275.60522276288674
 21
272.66363683506131
  0
LINE
  8
_0-2_0
  6
CONTINUOUS
 62
    7
 10
275.60522276288674
 20
272.66363683506131
 11
267.60522276288674
 21
270.52004331506134
  0
LINE
  8
_0-2_0
  6
CONTINUOUS
 62
    7
 10
275.60522276288674
 20
272.66363683506131
 11
267.60522276288674
 21
272.66363683506131
  0
LINE
  8
_0-2_0
  6
CONTINUOUS
 62
    7
 10
213.60594621838567
 20
270.52004331506134
 11
205.60594621838567
 21
272.66363683506131
  0
LINE
  8
_0-2_0
  6
CONTINUOUS
 62
    7
 10
205.60594621838567
 20
272.66363683506131
 11
213.60594621838567
 21
274.80723035506128
  0
LINE
  8
_0-2_0
  6
CONTINUOUS
 62
    7
 10
205.60594621838567
 20
272.66363683506131
 11
213.60594621838567
 21
272.66363683506131
  0
TEXT
  8
_0-3_寸法線
 62
    7
 10
324.05758205196634
 20
226.0805897487954
 40
8
 41
1
 50
90
  1
4
  0
LINE
  8
_0-2_0
  6
CONTINUOUS
 62
    7
 10
322.91398853196637
 20
241.93773260593812
 11
325.05758205196634
 21
249.93773260593824
  0
LINE
  8
_0-2_0
  6
CONTINUOUS
 62
    7
 10
325.05758205196634
 20
249.93773260593824
 11
327.20117557196636
 21
241.93773260593812
  0
LINE
  8
_0-2_0
  6
CONTINUOUS
 62
    7
 10
325.05758205196634
 20
249.93773260593824
 11
325.05758205196634
 21
241.93773260593812
  0
LINE
  8
_0-2_0
  6
CONTINUOUS
 62
    7
 10
327.20117557196636
 20
261.93773260593821
 11
325.05758205196634
 21
253.93773260593824
  0
LINE
  8
_0-2_0
  6
CONTINUOUS
 62
    7
 10
325.05758205196634
 20
253.93773260593824
 11
322.91398853196637
 21
261.93773260593821
  0
LINE
  8
_0-2_0
  6
CONTINUOUS
 62
    7
 10
325.05758205196634
 20
253.93773260593824
 11
325.05758205196634
 21
261.93773260593821
  0
LINE
  8
_0-2_0
  6
CONTINUOUS
 62
    7
 10
78.874219935421763
 20
69.339232882303719
 11
86.750425597006966
 21
71.900556281525013
  0
LINE
  8
_0-2_0
  6
CONTINUOUS
 62
    7
 10
86.750425597006966
 20
71.900556281525013
 11
81.210093080325862
 21
65.744282344833124
  0
LINE
  8
_0-2_0
  6
CONTINUOUS
 62
    7
 10
86.750425597006966
 20
71.900556281525013
 11
80.042156507873756
 21
67.541757613568421
  0
LINE
  8
_0-2_0
  6
CONTINUOUS
 62
    7
 10
118.94410670670007
 20
90.26252485208903
 11
111.06790104511487
 21
87.701201452867707
  0
LINE
  8
_0-2_0
  6
CONTINUOUS
 62
    7
 10
111.06790104511487
 20
87.701201452867707
 11
116.60823356179597
 21
93.857475389559625
  0
LINE
  8
_0-2_0
  6
CONTINUOUS
 62
    7
 10
111.06790104511487
 20
87.701201452867707
 11
117.77617013424805
 21
92.060000120824327
  0
LINE
  8
_0-2_0
  6
CONTINUOUS
 62
    7
 10
369.29908739169048
 20
101.80087886719622
 11
371.44268091169056
 21
109.80087886719622
  0
LINE
  8
_0-2_0
  6
CONTINUOUS
 62
    7
 10
371.44268091169056
 20
109.80087886719622
 11
373.58627443169058
 21
101.80087886719622
  0
LINE
  8
_0-2_0
  6
CONTINUOUS
 62
    7
 10
371.44268091169056
 20
109.80087886719622
 11
371.44268091169056
 21
101.80087886719622
  0
LINE
  8
_0-2_0
  6
CONTINUOUS
 62
    7
 10
373.58627443169047
 20
57.800878867196417
 11
371.44268091169045
 21
49.800878867196417
  0
LINE
  8
_0-2_0
  6
CONTINUOUS
 62
    7
 10
371.44268091169045
 20
49.800878867196417
 11
369.29908739169048
 21
57.800878867196417
  0
LINE
  8
_0-2_0
  6
CONTINUOUS
 62
    7
 10
371.44268091169045
 20
49.800878867196417
 11
371.44268091169045
 21
57.800878867196417
  0
TEXT
  8
_0-3_寸法線
 62
    7
 10
295.40130630362654
 20
36.300878867197952
 40
8
 41
1
 50
0
  1
92
  0
LINE
  8
_0-2_0
  6
CONTINUOUS
 62
    7
 10
340.97457450282803
 20
37.444472387197933
 11
348.97457450282803
 21
35.300878867197952
  0
LINE
  8
_0-2_0
  6
CONTINUOUS
 62
    7
 10
348.97457450282803
 20
35.300878867197952
 11
340.97457450282803
 21
33.157285347197941
  0
LINE
  8
_0-2_0
  6
CONTINUOUS
 62
    7
 10
348.97457450282803
 20
35.300878867197952
 11
340.97457450282803
 21
35.300878867197952
  0
LINE
  8
_0-2_0
  6
CONTINUOUS
 62
    7
 10
265.06613334252029
 20
33.157285347197941
 11
257.06613334252029
 21
35.300878867197952
  0
LINE
  8
_0-2_0
  6
CONTINUOUS
 62
    7
 10
257.06613334252029
 20
35.300878867197952
 11
265.06613334252029
 21
37.444472387197933
  0
LINE
  8
_0-2_0
  6
CONTINUOUS
 62
    7
 10
257.06613334252029
 20
35.300878867197952
 11
265.06613334252029
 21
35.300878867197952
  0
TEXT
  8
_0-3_寸法線
 62
    7
 10
225.38756191395004
 20
36.300878867197952
 40
8
 41
1
 50
0
  1
49
  0
LINE
  8
_0-2_0
  6
CONTINUOUS
 62
    7
 10
249.06613334252029
 20
37.444472387197933
 11
257.06613334252029
 21
35.300878867197952
  0
LINE
  8
_0-2_0
  6
CONTINUOUS
 62
    7
 10
257.06613334252029
 20
35.300878867197952
 11
249.06613334252029
 21
33.157285347197941
  0
LINE
  8
_0-2_0
  6
CONTINUOUS
 62
    7
 10
257.06613334252029
 20
35.300878867197952
 11
249.06613334252029
 21
35.300878867197952
  0
LINE
  8
_0-2_0
  6
CONTINUOUS
 62
    7
 10
216.56613334252279
 20
33.157285347197941
 11
208.56613334252279
 21
35.300878867197952
  0
LINE
  8
_0-2_0
  6
CONTINUOUS
 62
    7
 10
208.56613334252279
 20
35.300878867197952
 11
216.56613334252279
 21
37.444472387197933
  0
LINE
  8
_0-2_0
  6
CONTINUOUS
 62
    7
 10
208.56613334252279
 20
35.300878867197952
 11
216.56613334252279
 21
35.300878867197952
  0
TEXT
  8
_0-3_寸法線
 62
    7
 10
183.68049978781085
 20
89.681831248148626
 40
8
 41
1
 50
90
  1
35
  0
LINE
  8
_0-2_0
  6
CONTINUOUS
 62
    7
 10
186.82409330781098
 20
87.800878867196417
 11
184.68049978781096
 21
79.800878867196417
  0
LINE
  8
_0-2_0
  6
CONTINUOUS
 62
    7
 10
184.68049978781096
 20
79.800878867196417
 11
182.53690626781093
 21
87.800878867196417
  0
LINE
  8
_0-2_0
  6
CONTINUOUS
 62
    7
 10
184.68049978781096
 20
79.800878867196417
 11
184.68049978781096
 21
87.800878867196417
  0
LINE
  8
_0-2_0
  6
CONTINUOUS
 62
    7
 10
182.53690626781093
 20
106.80087886719602
 11
184.68049978781096
 21
114.80087886719602
  0
LINE
  8
_0-2_0
  6
CONTINUOUS
 62
    7
 10
184.68049978781096
 20
114.80087886719602
 11
186.82409330781098
 21
106.80087886719602
  0
LINE
  8
_0-2_0
  6
CONTINUOUS
 62
    7
 10
184.68049978781096
 20
114.80087886719602
 11
184.68049978781096
 21
106.80087886719602
  0
LINE
  8
_0-3_寸法線
  6
CONTINUOUS
 62
    3
 10
243.00927978488835
 20
117.39432226599442
 11
234.24678456866434
 21
135.04766397869693
  0
LINE
  8
_0-3_寸法線
  6
CONTINUOUS
 62
    3
 10
234.24678456866434
 20
135.04766397869693
 11
209.68925339459759
 21
135.04766397869693
  0
LINE
  8
_0-3_寸法線
  6
CONTINUOUS
 62
    3
 10
340.81038190895788
 20
96.232276674773232
 11
358.37944608708159
 21
117.76522255077472
  0
LINE
  8
_0-3_寸法線
  6
CONTINUOUS
 62
    3
 10
358.37944608708159
 20
117.76522255077472
 11
398.21900942633795
 21
117.76522255077472
  0
TEXT
  8
_0-3_寸法線
 62
    7
 10
48.391538216665765
 20
48.168850665300397
 40
8
 41
1
 50
33.014402380000043
  1
φ29
  0
LINE
  8
_0-8_中心線
  6
CENTER2
 62
    4
 10
351.97457450282803
 20
79.800878867196417
 11
205.56613334252279
 21
79.800878867196417
  0
LINE
  8
_0-8_中心線
  6
CENTER2
 62
    4
 10
257.06613334252029
 20
117.80087886719633
 11
257.06613334252029
 21
62.300878867196417
  0
LINE
  8
_0-8_中心線
  6
CENTER2
 62
    4
 10
219.06613334252347
 20
62.300878867196417
 11
219.06613334252484
 21
116.30087886719622
  0
LINE
  8
_0-1_1
  6
CENTER2
 62
    4
 10
98.909163321060959
 20
62.300885049210621
 11
98.909163321060959
 21
79.846514047866805
  0
LINE
  8
_0-1_1
  6
CENTER2
 62
    4
 10
98.909163321060959
 20
80.010628809276056
 11
98.909163321060959
 21
117.80087886719642
  0
LINE
  8
_0-1_1
  6
CENTER2
 62
    4
 10
99.117288538724537
 20
79.800878867196417
 11
131.90916332106096
 21
79.800878867196417
  0
LINE
  8
_0-1_1
  6
CENTER2
 62
    4
 10
65.909163321060959
 20
79.800878867196417
 11
98.871116396610674
 21
79.800878867196417
  0
LINE
  8
_0-8_中心線
  6
CENTER2
 62
    4
 10
71.40916332106076
 20
232.55087886718624
 11
126.40916332106076
 21
232.55087886718624
  0
LINE
  8
_0-8_中心線
  6
CENTER2
 62
    4
 10
98.909163321060873
 20
182.55087886719653
 11
98.90916332106076
 21
271.55087886718354
  0
TEXT
  8
_0-3_寸法線
 62
    7
 10
369.87096774193549
 20
70.306451612903231
 40
8
 41
1
 50
90
  1
φ60
  0
ENDSEC
  0
EOF
