  0
SECTION
  2
HEADER
  9
$ACADVER
  1
AC1009
  9
$INSBASE
 10
0
 20
0
 30
0
  9
$EXTMIN
 10
0
 20
0
  9
$EXTMAX
 10
210
 20
148.5
  9
$LIMMIN
 10
0
 20
0
  9
$LIMMAX
 10
210
 20
148.5
  9
$LTSCALE
 40
0.5
  0
ENDSEC
  0
SECTION
  2
TABLES
  0
TABLE
  2
LTYPE
 70
     9
  0
LTYPE
  2
CONTINUOUS
 70
    64
  3
実線
 72
    65
 73
     0
 40
0.0
  0
LTYPE
  2
DASHED1
 70
    64
  3
--  --  --  --  --  --  --  --  
 72
    65
 73
     2
 40
2.5
 49
1.25
 49
-1.25
  0
LTYPE
  2
DASHED2
 70
    64
  3
----    ----    ----    ----    
 72
    65
 73
     2
 40
5.0
 49
2.5
 49
-2.5
  0
LTYPE
  2
DASHED3
 70
    64
  3
------  ------  ------  ------  
 72
    65
 73
     2
 40
5.0
 49
3.75
 49
-1.25
  0
LTYPE
  2
CENTER1
 70
    64
  3
----- - ----- - ----- - ----- - 
 72
    65
 73
     4
 40
10.0
 49
6.25
 49
-1.25
 49
1.25
 49
-1.25
  0
LTYPE
  2
CENTER2
 70
    64
  3
----------  --  ----------  --  
 72
    65
 73
     4
 40
20.0
 49
12.5
 49
-2.5
 49
2.5
 49
-2.5
  0
LTYPE
  2
PHANTOM1
 70
    64
  3
--- - - --- - - --- - - --- - - 
 72
    65
 73
     6
 40
10.0
 49
3.25
 49
-1.25
 49
1.25
 49
-1.25
 49
1.25
 49
-1.25
  0
LTYPE
  2
PHANTOM2
 70
    64
  3
--------  -  -  --------  -  -  
 72
    65
 73
     6
 40
20.0
 49
10.0
 49
-2.5
 49
1.25
 49
-2.5
 49
1.25
 49
-2.5
  0
LTYPE
  2
DOT
 70
    64
  3
-   -   -   -   -   -   -   -   
 72
    65
 73
     2
 40
2.5
 49
0.625
 49
-1.875
  0
LTYPE
  2
DUMMY
 70
    64
  3
ダミー
 72
    65
 73
     0
 40
0.0
  0
LTYPE
  2
RAND1
 70
    64
  3
ランダム線1
 72
    65
 73
     4
 40
10.0
 49
1.0
 49
-2.0
 49
3.0
 49
-4.0
  0
LTYPE
  2
RAND2
 70
    64
  3
ランダム線2
 72
    65
 73
     4
 40
14.0
 49
2.0
 49
-3.0
 49
4.0
 49
-5.0
  0
LTYPE
  2
RAND3
 70
    64
  3
ランダム線3
 72
    65
 73
     4
 40
18.0
 49
3.0
 49
-4.0
 49
5.0
 49
-6.0
  0
LTYPE
  2
RAND4
 70
    64
  3
ランダム線4
 72
    65
 73
     4
 40
22.0
 49
4.0
 49
-5.0
 49
6.0
 49
-7.0
  0
LTYPE
  2
RAND5
 70
    64
  3
ランダム線5
 72
    65
 73
     4
 40
26.0
 49
5.0
 49
-6.0
 49
7.0
 49
-8.0
  0
LTYPE
  2
LONG1
 70
    64
  3
----------  --  ----------  --  
 72
    65
 73
     4
 40
40.0
 49
32.5
 49
-2.5
 49
2.5
 49
-2.5
  0
LTYPE
  2
LONG2
 70
    64
  3
--------  -  -  --------  -  -  
 72
    65
 73
     6
 40
40.0
 49
30.0
 49
-2.5
 49
1.25
 49
-2.5
 49
1.25
 49
-2.5
  0
LTYPE
  2
LONG3
 70
    64
  3
+++++++++++++++..+++++++++++++++
 72
    65
 73
     2
 40
40.0
 49
37.5
 49
-2.5
  0
LTYPE
  2
LONG4
 70
    64
  3
+++++++++++++++..+++++++++++++++
 72
    65
 73
     2
 40
80.0
 49
75.0
 49
-5.0
  0
LTYPE
  2
LONG5
 70
    64
  3
----------  --  ----------  --  
 72
    65
 73
     4
 40
60.0
 49
37.5
 49
-7.5
 49
7.5
 49
-7.5
  0
LTYPE
  2
dashed
 70
   64
  3
-------   -------------   ------
 72
   65
 73
    2
 40
7.5
 49
6
 49
-1.5
  0
LTYPE
  2
dashed_spaced
 70
   64
  3
----        --------        ----
 72
   65
 73
    2
 40
12
 49
6
 49
-6
  0
LTYPE
  2
long_dashed_dotted
 70
   64
  3
------------- --- --------------
 72
   65
 73
    4
 40
15.25
 49
12
 49
-1.5
 49
0.25
 49
-1.5
  0
LTYPE
  2
long_dashed_double-dotted
 70
   64
  3
----------- --- --- ------------
 72
   65
 73
    6
 40
17
 49
12
 49
-1.5
 49
0.25
 49
-1.5
 49
0.25
 49
-1.5
  0
LTYPE
  2
long_dashed_triplicate-dotted
 70
   64
  3
--------- --- --- --- ----------
 72
   65
 73
    8
 40
18.75
 49
12
 49
-1.5
 49
0.25
 49
-1.5
 49
0.25
 49
-1.5
 49
0.25
 49
-1.5
  0
LTYPE
  2
dotted
 70
   64
  3
   -       -       -       -    
 72
   65
 73
    2
 40
1.75
 49
0.25
 49
-1.5
  0
LTYPE
  2
chain
 70
   64
  3
-------------- -- --------------
 72
   65
 73
    4
 40
18.5
 49
12
 49
-1.5
 49
3.5
 49
-1.5
  0
LTYPE
  2
chain_double_dash
 70
   64
  3
------------ -- -- -------------
 72
   65
 73
    6
 40
23.5
 49
12
 49
-1.5
 49
3.5
 49
-1.5
 49
3.5
 49
-1.5
  0
LTYPE
  2
dashed_dotted
 70
   64
  3
-----------     -     ----------
 72
   65
 73
    4
 40
9.25
 49
6
 49
-1.5
 49
0.25
 49
-1.5
  0
LTYPE
  2
double-dashed_dotted
 70
   64
  3
------   -----------   -   -----
 72
   65
 73
    6
 40
16.75
 49
6
 49
-1.5
 49
6
 49
-1.5
 49
0.25
 49
-1.5
  0
LTYPE
  2
dashed_double-dotted
 70
   64
  3
---------    -    -    ---------
 72
   65
 73
    6
 40
11
 49
6
 49
-1.5
 49
0.25
 49
-1.5
 49
0.25
 49
-1.5
  0
LTYPE
  2
double-dashed_double-dotted
 70
   64
  3
-----   ---------   -   -   ----
 72
   65
 73
    8
 40
18.5
 49
6
 49
-1.5
 49
6
 49
-1.5
 49
0.25
 49
-1.5
 49
0.25
 49
-1.5
  0
LTYPE
  2
dashed_triplicate-dotted
 70
   64
  3
-------    -    -    -    ------
 72
   65
 73
    8
 40
12.75
 49
6
 49
-1.5
 49
0.25
 49
-1.5
 49
0.25
 49
-1.5
 49
0.25
 49
-1.5
  0
LTYPE
  2
double-dashed_triplicate-dotted
 70
   64
  3
-----  ---------  -  -  -  -----
 72
   65
 73
   10
 40
20.25
 49
6
 49
-1.5
 49
6
 49
-1.5
 49
0.25
 49
-1.5
 49
0.25
 49
-1.5
 49
0.25
 49
-1.5
  0
LTYPE
  2
undefined
 70
   64
  3
--------------------------------
 72
   65
 73
    0
 40
0
  0
LTYPE
  2
CENTER
 70
   64
  3
----------    ----    ----------
 72
   65
 73
    4
 40
50.799999999999983
 49
31.75
 49
-6.3499999999999979
 49
6.3499999999999979
 49
-6.3499999999999979
  0
LTYPE
  2
HIDDEN
 70
   64
  3
------     -----------     -----
 72
   65
 73
    2
 40
9.524999999999995
 49
6.3499999999999979
 49
-3.174999999999998
  0
LTYPE
  2
CENTER2_19
 70
   64
  3
----------    ----    ----------
 72
   65
 73
    4
 40
28.574999999999996
 49
19.050000000000001
 49
-3.1749999999999989
 49
3.1749999999999989
 49
-3.1749999999999989
  0
LTYPE
  2
DASHED
 70
   64
  3
------     -----------     -----
 72
   65
 73
    2
 40
19.049999999999997
 49
12.699999999999999
 49
-6.3499999999999988
  0
ENDTAB
  0
TABLE
  2
STYLE
  5
3
100
AcDbSymbolTable
 70
     1
  0
STYLE
  5
10
100
AcDbSymbolTableRecord
100
AcDbTextStyleTableRecord
  2
STANDARD
 70
     0
 40
0.0
 41
1.0
 50
0.0
 71
     0
 42
0.2
  3
txt
  4
bigfont.shx
  0
STYLE
  5
26
100
AcDbSymbolTableRecord
100
AcDbTextStyleTableRecord
  2
TATEGAKI
 70
    68
 40
0.0
 41
1.0
 50
0.0
 71
     0
 42
1.0
  3
txt
  4
bigfont.shx
  0
ENDTAB
  0
TABLE
  2
LAYER
 70
    7
  0
LAYER
  2
_0-1_0
 70
   64
 62
    7
  6
CONTINUOUS
  0
LAYER
  2
_0-2_中心線
 70
   64
 62
    7
  6
CONTINUOUS
  0
LAYER
  2
_0-4_図面枠
 70
   64
 62
    7
  6
CONTINUOUS
  0
LAYER
  2
_0-5_細線
 70
   64
 62
    7
  6
CONTINUOUS
  0
LAYER
  2
_0-6__0-0_
 70
   64
 62
    7
  6
CONTINUOUS
  0
LAYER
  2
_0-7_文字
 70
   64
 62
    7
  6
CONTINUOUS
  0
LAYER
  2
ADD_LINE
 70
   64
 62
    7
  6
CONTINUOUS
  0
ENDTAB
  0
ENDSEC
  0
SECTION
  2
BLOCKS
  0
ENDSEC
  0
SECTION
  2
ENTITIES
  0
LINE
  8
_0-1_0
  6
CONTINUOUS
 62
    2
 10
-18.377142897006593
 20
14.191177322384902
 11
-18.377142897006593
 21
69.847503295121101
  0
LINE
  8
_0-1_0
  6
CONTINUOUS
 62
    2
 10
43.286243669042335
 20
14.191177322384902
 11
43.286243669042335
 21
69.847503295121101
  0
LINE
  8
_0-1_0
  6
CONTINUOUS
 62
    2
 10
-6.7844262226168723
 20
14.191177322384902
 11
-18.377142897006593
 21
14.191177322384902
  0
LINE
  8
_0-1_0
  6
CONTINUOUS
 62
    2
 10
31.693526994652629
 20
14.191177322384902
 11
43.286243669042335
 21
14.191177322384902
  0
LINE
  8
_0-1_0
  6
CONTINUOUS
 62
    2
 10
43.286243669042335
 20
69.847503295121101
 11
-18.377142897006593
 21
69.847503295121101
  0
LINE
  8
_0-1_0
  6
CONTINUOUS
 62
    2
 10
111.52286338433342
 20
211.30381393521139
 11
111.52286338433342
 21
175.64779440589564
  0
LINE
  8
_0-1_0
  6
CONTINUOUS
 62
    2
 10
168.6731862247216
 20
181.97609167047892
 11
168.6731862247216
 21
175.64779440589564
  0
LINE
  8
_0-1_0
  6
CONTINUOUS
 62
    2
 10
168.6731862247216
 20
204.9755166704789
 11
168.6731862247216
 21
211.30381393521139
  0
LINE
  8
_0-1_0
  6
CONTINUOUS
 62
    2
 10
168.6731862247216
 20
175.64779440589564
 11
111.52286338433342
 21
175.64779440589564
  0
LINE
  8
_0-1_0
  6
CONTINUOUS
 62
    2
 10
168.6731862247216
 20
211.30381393521139
 11
111.52286338433342
 21
211.30381393521139
  0
LINE
  8
_0-1_0
  6
CONTINUOUS
 62
    7
 10
121.47436622472162
 20
192.9870869073726
 11
121.47436622472162
 21
194.56450643373444
  0
LINE
  8
_0-1_0
  6
CONTINUOUS
 62
    9
 10
122.93506427859612
 20
191.4876031958504
 11
122.93506427859612
 21
196.0639901452567
  0
LINE
  8
_0-1_0
  6
CONTINUOUS
 62
    7
 10
126.47424122472162
 20
196.15655970424342
 11
126.47424122472162
 21
191.3950336367144
  0
LINE
  8
_0-1_0
  6
CONTINUOUS
 62
    7
 10
126.86540427420692
 20
191.38479113233564
 11
126.86540427420692
 21
196.16680220862224
  0
LINE
  8
_0-1_0
  6
CONTINUOUS
 62
    7
 10
131.18440554796811
 20
196.79287902108661
 11
131.18440554796811
 21
196.69288152108663
  0
LINE
  8
_0-1_0
  6
CONTINUOUS
 62
    7
 10
131.18440554796811
 20
195.57544356131621
 11
131.18440554796811
 21
195.40224281069692
  0
LINE
  8
_0-1_0
  6
CONTINUOUS
 62
    7
 10
132.47409122472163
 20
192.20790281089489
 11
132.47409122472163
 21
192.81271360979912
  0
LINE
  8
_0-1_0
  6
CONTINUOUS
 62
    7
 10
132.47409122472163
 20
196.28917574368489
 11
132.47409122472163
 21
196.31377835666393
  0
LINE
  8
_0-1_0
  6
CONTINUOUS
 62
    7
 10
131.18440554796811
 20
196.79287902108661
 11
130.34515526586912
 21
196.25803020667109
  0
LINE
  8
_0-1_0
  6
CONTINUOUS
 62
    7
 10
131.18440554796811
 20
196.69288152108663
 11
130.50878846389213
 21
196.26231509268064
  0
LINE
  8
_0-1_0
  6
CONTINUOUS
 62
    7
 10
147.06186186581562
 20
192.65888231373742
 11
147.07005118794314
 21
192.6758241704789
  0
LINE
  8
_0-1_0
  6
CONTINUOUS
 62
    7
 10
148.07136138142812
 20
196.79287902108661
 11
148.07136138142812
 21
196.69288152108663
  0
LINE
  8
_0-1_0
  6
CONTINUOUS
 62
    7
 10
148.07136138142812
 20
195.57544356131621
 11
148.07136138142812
 21
195.40224281069692
  0
LINE
  8
_0-1_0
  6
CONTINUOUS
 62
    7
 10
150.11499466379641
 20
190.77587167047892
 11
150.11499466379641
 21
196.77572167047873
  0
LINE
  8
_0-1_0
  6
CONTINUOUS
 62
    7
 10
131.18440554796811
 20
195.57544356131621
 11
129.88257185820612
 21
195.09644476658542
  0
LINE
  8
_0-1_0
  6
CONTINUOUS
 62
    7
 10
131.18440554796811
 20
195.40224281069692
 11
129.88257185820612
 21
194.92324401596613
  0
LINE
  8
_0-1_0
  6
CONTINUOUS
 62
    7
 10
146.36806661889162
 20
192.69519120718644
 11
146.37565715449662
 21
192.67950156451201
  0
LINE
  8
_0-1_0
  6
CONTINUOUS
 62
    7
 10
238.17144872472161
 20
159.39995069438243
 11
229.17167372472173
 21
159.39995069438243
  0
LINE
  8
_0-1_0
  6
CONTINUOUS
 62
    7
 10
237.67146122472164
 20
159.59994569438254
 11
229.67166122472165
 21
159.59994569438254
  0
LINE
  8
_0-1_0
  6
CONTINUOUS
 62
    9
 10
238.67143622472165
 20
159.8999381943824
 11
237.67146122472164
 21
159.8999381943824
  0
LINE
  8
_0-1_0
  6
CONTINUOUS
 62
    9
 10
229.67166122472165
 20
159.8999381943824
 11
228.67168622472164
 21
159.8999381943824
  0
LINE
  8
_0-1_0
  6
CONTINUOUS
 62
    7
 10
131.18440554796811
 20
190.34970363957291
 11
129.88257185820612
 21
191.30770122888509
  0
LINE
  8
_0-1_0
  6
CONTINUOUS
 62
    7
 10
148.37621518496712
 20
192.67821141467692
 11
148.40485877139693
 21
192.61861544715072
  0
LINE
  8
_0-1_0
  6
CONTINUOUS
 62
    7
 10
160.47339122472161
 20
197.67569917047894
 11
160.47339122472161
 21
189.87589417047894
  0
LINE
  8
_0-1_0
  6
CONTINUOUS
 62
    7
 10
161.47336622472162
 20
190.82587042047879
 11
161.47336622472162
 21
196.7257229204788
  0
LINE
  8
_0-1_0
  6
CONTINUOUS
 62
    7
 10
162.96842307841061
 20
192.46249441370679
 11
163.01261785978213
 21
192.5565145682188
  0
LINE
  8
_0-1_0
  6
CONTINUOUS
 62
    7
 10
163.4754387109119
 20
195.0831849103289
 11
163.4333999678768
 21
194.99375332781619
  0
LINE
  8
_0-1_0
  6
CONTINUOUS
 62
    7
 10
165.4753886391226
 20
195.0831847567506
 11
165.43334996787681
 21
194.99375332781619
  0
LINE
  8
_0-1_0
  6
CONTINUOUS
 62
    7
 10
163.4333999678768
 20
194.99375332781619
 11
163.38562752654613
 21
194.89362455766519
  0
LINE
  8
_0-1_0
  6
CONTINUOUS
 62
    7
 10
163.38562752654613
 20
194.89362455766519
 11
163.37699442088663
 21
194.8757691704788
  0
LINE
  8
_0-1_0
  6
CONTINUOUS
 62
    7
 10
163.01261785978213
 20
192.5565145682188
 11
163.06037827798062
 21
192.65664061530373
  0
LINE
  8
_0-1_0
  6
CONTINUOUS
 62
    7
 10
163.06037827798062
 20
192.65664061530373
 11
163.06965118794315
 21
192.6758241704789
  0
LINE
  8
_0-1_0
  6
CONTINUOUS
 62
    7
 10
165.43334996787681
 20
194.99375332781619
 11
165.38557752654614
 21
194.89362455766519
  0
LINE
  8
_0-1_0
  6
CONTINUOUS
 62
    7
 10
165.38557752654614
 20
194.89362455766519
 11
165.37694442088664
 21
194.8757691704788
  0
LINE
  8
_0-1_0
  6
CONTINUOUS
 62
    7
 10
165.01256785978214
 20
192.5565145682188
 11
165.06032827798063
 21
192.65664061530373
  0
LINE
  8
_0-1_0
  6
CONTINUOUS
 62
    7
 10
165.06032827798063
 20
192.65664061530373
 11
165.06960118794311
 21
192.6758241704789
  0
LINE
  8
_0-1_0
  6
CONTINUOUS
 62
    7
 10
167.47533853599091
 20
195.0831845358606
 11
167.43329996787693
 21
194.99375332781619
  0
LINE
  8
_0-1_0
  6
CONTINUOUS
 62
    7
 10
167.43329996787693
 20
194.99375332781619
 11
167.3855275265461
 21
194.89362455766519
  0
LINE
  8
_0-1_0
  6
CONTINUOUS
 62
    7
 10
167.3855275265461
 20
194.89362455766519
 11
167.3768944208866
 21
194.8757691704788
  0
LINE
  8
_0-1_0
  6
CONTINUOUS
 62
    7
 10
167.01251785978215
 20
192.5565145682188
 11
167.06027827798053
 21
192.65664061530373
  0
LINE
  8
_0-1_0
  6
CONTINUOUS
 62
    7
 10
167.06027827798053
 20
192.65664061530373
 11
167.06955118794312
 21
192.6758241704789
  0
LINE
  8
_0-1_0
  6
CONTINUOUS
 62
    7
 10
229.67166122472165
 20
167.59974569438242
 11
237.67146122472164
 21
167.59974569438242
  0
LINE
  8
_0-1_0
  6
CONTINUOUS
 62
    9
 10
238.67143622472165
 20
169.39970069438249
 11
238.17144872472161
 21
169.39970069438249
  0
LINE
  8
_0-1_0
  6
CONTINUOUS
 62
    9
 10
228.67168622472164
 20
169.39970069438249
 11
229.17167372472173
 21
169.39970069438249
  0
LINE
  8
_0-1_0
  6
CONTINUOUS
 62
    7
 10
168.6731862247216
 20
181.97609167047892
 11
168.6731862247216
 21
204.9755166704789
  0
LINE
  8
_0-1_0
  6
CONTINUOUS
 62
    9
 10
169.17317372472164
 20
181.47610417047883
 11
169.17317372472164
 21
205.47550417047881
  0
LINE
  8
_0-1_0
  6
CONTINUOUS
 62
    7
 10
170.17314872472164
 20
204.9755166704789
 11
170.17314872472164
 21
181.97609167047892
  0
LINE
  8
_0-1_0
  6
CONTINUOUS
 62
    7
 10
230.6716362247216
 20
173.5995956943824
 11
236.67148622472163
 21
173.5995956943824
  0
LINE
  8
_0-1_0
  6
CONTINUOUS
 62
    7
 10
162.27924495948841
 20
192.87407196878689
 11
162.31606981914243
 21
192.80048892840892
  0
LINE
  8
_0-1_0
  6
CONTINUOUS
 62
    7
 10
164.27919495948842
 20
192.87407196878689
 11
164.31601981914244
 21
192.80048892840892
  0
LINE
  8
_0-1_0
  6
CONTINUOUS
 62
    7
 10
162.1674500599531
 20
194.67752123351761
 11
162.12996321117762
 21
194.7524394754401
  0
LINE
  8
_0-1_0
  6
CONTINUOUS
 62
    7
 10
164.16740005995311
 20
194.67752123351761
 11
164.12991321117764
 21
194.7524394754401
  0
LINE
  8
_0-1_0
  6
CONTINUOUS
 62
    7
 10
163.96823732586242
 20
195.08943743505671
 11
163.9565060275103
 21
195.11337305545709
  0
LINE
  8
_0-1_0
  6
CONTINUOUS
 62
    7
 10
163.9565060275103
 20
195.11337305545709
 11
163.94472008634531
 21
195.13583859216294
  0
LINE
  8
_0-1_0
  6
CONTINUOUS
 62
    7
 10
163.94472008634531
 20
195.13583859216294
 11
163.93285508357494
 21
195.15686316937104
  0
LINE
  8
_0-1_0
  6
CONTINUOUS
 62
    7
 10
163.93285508357494
 20
195.15686316937104
 11
163.92088069667332
 21
195.17648112413383
  0
LINE
  8
_0-1_0
  6
CONTINUOUS
 62
    7
 10
163.92088069667332
 20
195.17648112413383
 11
163.90874615258181
 21
195.19474922279312
  0
LINE
  8
_0-1_0
  6
CONTINUOUS
 62
    7
 10
163.90874615258181
 20
195.19474922279312
 11
163.89639996855763
 21
195.21171076769912
  0
LINE
  8
_0-1_0
  6
CONTINUOUS
 62
    7
 10
163.89639996855763
 20
195.21171076769912
 11
163.88379729990092
 21
195.22738958527111
  0
LINE
  8
_0-1_0
  6
CONTINUOUS
 62
    7
 10
163.88379729990092
 20
195.22738958527111
 11
163.8708675300189
 21
195.2418276158038
  0
LINE
  8
_0-1_0
  6
CONTINUOUS
 62
    7
 10
163.8708675300189
 20
195.2418276158038
 11
163.8575138852116
 21
195.25507053964793
  0
LINE
  8
_0-1_0
  6
CONTINUOUS
 62
    7
 10
163.8575138852116
 20
195.25507053964793
 11
163.84370430120615
 21
195.26708102176633
  0
LINE
  8
_0-1_0
  6
CONTINUOUS
 62
    7
 10
163.84370430120615
 20
195.26708102176633
 11
163.82946292530912
 21
195.27778362016494
  0
LINE
  8
_0-1_0
  6
CONTINUOUS
 62
    7
 10
163.82946292530912
 20
195.27778362016494
 11
163.81479127703491
 21
195.28713753869914
  0
LINE
  8
_0-1_0
  6
CONTINUOUS
 62
    7
 10
163.81479127703491
 20
195.28713753869914
 11
163.79962354564063
 21
195.29513929342642
  0
LINE
  8
_0-1_0
  6
CONTINUOUS
 62
    7
 10
163.79962354564063
 20
195.29513929342642
 11
163.78392539347735
 21
195.30174530812263
  0
LINE
  8
_0-1_0
  6
CONTINUOUS
 62
    7
 10
163.78392539347735
 20
195.30174530812263
 11
163.76769733068161
 21
195.30688375667324
  0
LINE
  8
_0-1_0
  6
CONTINUOUS
 62
    7
 10
163.76769733068161
 20
195.30688375667324
 11
163.7510096375859
 21
195.3104597033917
  0
LINE
  8
_0-1_0
  6
CONTINUOUS
 62
    7
 10
163.7510096375859
 20
195.3104597033917
 11
163.7339938023953
 21
195.3123837230512
  0
LINE
  8
_0-1_0
  6
CONTINUOUS
 62
    7
 10
163.7339938023953
 20
195.3123837230512
 11
163.71667693114884
 21
195.31258992043342
  0
LINE
  8
_0-1_0
  6
CONTINUOUS
 62
    7
 10
163.71667693114884
 20
195.31258992043342
 11
163.69923624180385
 21
195.31101438250943
  0
LINE
  8
_0-1_0
  6
CONTINUOUS
 62
    7
 10
163.69923624180385
 20
195.31101438250943
 11
163.68204686632512
 21
195.30768293027529
  0
LINE
  8
_0-1_0
  6
CONTINUOUS
 62
    7
 10
163.68204686632512
 20
195.30768293027529
 11
163.6652743529618
 21
195.3026743204191
  0
LINE
  8
_0-1_0
  6
CONTINUOUS
 62
    7
 10
163.6652743529618
 20
195.3026743204191
 11
163.64890627963663
 21
195.2960316646986
  0
LINE
  8
_0-1_0
  6
CONTINUOUS
 62
    7
 10
163.64890627963663
 20
195.2960316646986
 11
163.6329899587486
 21
195.28780905609
  0
LINE
  8
_0-1_0
  6
CONTINUOUS
 62
    7
 10
163.6329899587486
 20
195.28780905609
 11
163.61748493727944
 21
195.27801110000024
  0
LINE
  8
_0-1_0
  6
CONTINUOUS
 62
    7
 10
163.61748493727944
 20
195.27801110000024
 11
163.60242069941714
 21
195.26667876883789
  0
LINE
  8
_0-1_0
  6
CONTINUOUS
 62
    7
 10
163.60242069941714
 20
195.26667876883789
 11
163.58787558051685
 21
195.25391832561814
  0
LINE
  8
_0-1_0
  6
CONTINUOUS
 62
    7
 10
163.58787558051685
 20
195.25391832561814
 11
163.57379702995215
 21
195.2397484503216
  0
LINE
  8
_0-1_0
  6
CONTINUOUS
 62
    7
 10
163.57379702995215
 20
195.2397484503216
 11
163.56009699007362
 21
195.22413572005274
  0
LINE
  8
_0-1_0
  6
CONTINUOUS
 62
    7
 10
163.56009699007362
 20
195.22413572005274
 11
163.54677602116593
 21
195.20714101970691
  0
LINE
  8
_0-1_0
  6
CONTINUOUS
 62
    7
 10
163.54677602116593
 20
195.20714101970691
 11
163.53381359314514
 21
195.18881495936239
  0
LINE
  8
_0-1_0
  6
CONTINUOUS
 62
    7
 10
163.53381359314514
 20
195.18881495936239
 11
163.52109831596042
 21
195.16906742291383
  0
LINE
  8
_0-1_0
  6
CONTINUOUS
 62
    7
 10
163.52109831596042
 20
195.16906742291383
 11
163.50852508880641
 21
195.14777429376289
  0
LINE
  8
_0-1_0
  6
CONTINUOUS
 62
    7
 10
163.50852508880641
 20
195.14777429376289
 11
163.49607493962012
 21
195.12493287630519
  0
LINE
  8
_0-1_0
  6
CONTINUOUS
 62
    7
 10
163.49607493962012
 20
195.12493287630519
 11
163.48369318469415
 21
195.10046764616021
  0
LINE
  8
_0-1_0
  6
CONTINUOUS
 62
    7
 10
163.48369318469415
 20
195.10046764616021
 11
163.47543770869814
 21
195.08318256322332
  0
LINE
  8
_0-1_0
  6
CONTINUOUS
 62
    7
 10
161.9686321882854
 20
195.08871035636844
 11
161.95721375196231
 21
195.11207210245942
  0
LINE
  8
_0-1_0
  6
CONTINUOUS
 62
    7
 10
161.95721375196231
 20
195.11207210245942
 11
161.9457056119119
 21
195.13411297858789
  0
LINE
  8
_0-1_0
  6
CONTINUOUS
 62
    7
 10
161.9457056119119
 20
195.13411297858789
 11
161.93408034404345
 21
195.15485204830713
  0
LINE
  8
_0-1_0
  6
CONTINUOUS
 62
    7
 10
161.93408034404345
 20
195.15485204830713
 11
161.92231282062684
 21
195.1742980169218
  0
LINE
  8
_0-1_0
  6
CONTINUOUS
 62
    7
 10
161.92231282062684
 20
195.1742980169218
 11
161.91036602676692
 21
195.19247538143151
  0
LINE
  8
_0-1_0
  6
CONTINUOUS
 62
    7
 10
161.91036602676692
 20
195.19247538143151
 11
161.89819056265364
 21
195.20941698325424
  0
LINE
  8
_0-1_0
  6
CONTINUOUS
 62
    7
 10
161.89819056265364
 20
195.20941698325424
 11
161.88574222566083
 21
195.22513579370684
  0
LINE
  8
_0-1_0
  6
CONTINUOUS
 62
    7
 10
161.88574222566083
 20
195.22513579370684
 11
161.87296206159081
 21
195.23965238555911
  0
LINE
  8
_0-1_0
  6
CONTINUOUS
 62
    7
 10
161.87296206159081
 20
195.23965238555911
 11
161.85975332823543
 21
195.25301099471994
  0
LINE
  8
_0-1_0
  6
CONTINUOUS
 62
    7
 10
161.85975332823543
 20
195.25301099471994
 11
161.84608453832195
 21
195.26517007118309
  0
LINE
  8
_0-1_0
  6
CONTINUOUS
 62
    7
 10
161.84608453832195
 20
195.26517007118309
 11
161.83199048157772
 21
195.2760403330019
  0
LINE
  8
_0-1_0
  6
CONTINUOUS
 62
    7
 10
161.83199048157772
 20
195.2760403330019
 11
161.81745482676914
 21
195.28559068364012
  0
LINE
  8
_0-1_0
  6
CONTINUOUS
 62
    7
 10
161.81745482676914
 20
195.28559068364012
 11
161.80242293197884
 21
195.29380925234989
  0
LINE
  8
_0-1_0
  6
CONTINUOUS
 62
    7
 10
161.80242293197884
 20
195.29380925234989
 11
161.78691606473481
 21
195.300632457885
  0
LINE
  8
_0-1_0
  6
CONTINUOUS
 62
    7
 10
161.78691606473481
 20
195.300632457885
 11
161.77099839447763
 21
195.3059880759314
  0
LINE
  8
_0-1_0
  6
CONTINUOUS
 62
    7
 10
161.77099839447763
 20
195.3059880759314
 11
161.7546724183089
 21
195.30982972287291
  0
LINE
  8
_0-1_0
  6
CONTINUOUS
 62
    7
 10
161.7546724183089
 20
195.30982972287291
 11
161.73792416911513
 21
195.3120960662128
  0
LINE
  8
_0-1_0
  6
CONTINUOUS
 62
    7
 10
161.73792416911513
 20
195.3120960662128
 11
161.72073000584564
 21
195.31269806802811
  0
LINE
  8
_0-1_0
  6
CONTINUOUS
 62
    7
 10
161.72073000584564
 20
195.31269806802811
 11
161.70330464402784
 21
195.3115364419948
  0
LINE
  8
_0-1_0
  6
CONTINUOUS
 62
    7
 10
161.70330464402784
 20
195.3115364419948
 11
161.68601409436215
 21
195.30860017779139
  0
LINE
  8
_0-1_0
  6
CONTINUOUS
 62
    7
 10
161.68601409436215
 20
195.30860017779139
 11
161.66899017176181
 21
195.30392183296181
  0
LINE
  8
_0-1_0
  6
CONTINUOUS
 62
    7
 10
161.66899017176181
 20
195.30392183296181
 11
161.6522759299269
 21
195.29752398380759
  0
LINE
  8
_0-1_0
  6
CONTINUOUS
 62
    7
 10
161.6522759299269
 20
195.29752398380759
 11
161.63604386349985
 21
195.28949875295092
  0
LINE
  8
_0-1_0
  6
CONTINUOUS
 62
    7
 10
161.63604386349985
 20
195.28949875295092
 11
161.6203057335301
 21
195.2798967527084
  0
LINE
  8
_0-1_0
  6
CONTINUOUS
 62
    7
 10
161.6203057335301
 20
195.2798967527084
 11
161.60504375225341
 21
195.26874705623391
  0
LINE
  8
_0-1_0
  6
CONTINUOUS
 62
    7
 10
161.60504375225341
 20
195.26874705623391
 11
161.59030258974681
 21
195.25613146058691
  0
LINE
  8
_0-1_0
  6
CONTINUOUS
 62
    7
 10
161.59030258974681
 20
195.25613146058691
 11
161.57602937688463
 21
195.24206613327362
  0
LINE
  8
_0-1_0
  6
CONTINUOUS
 62
    7
 10
161.57602937688463
 20
195.24206613327362
 11
161.56213748090713
 21
195.22651922717984
  0
LINE
  8
_0-1_0
  6
CONTINUOUS
 62
    7
 10
161.56213748090713
 20
195.22651922717984
 11
161.54859614392663
 21
195.20950583371939
  0
LINE
  8
_0-1_0
  6
CONTINUOUS
 62
    7
 10
161.54859614392663
 20
195.20950583371939
 11
161.53536231836262
 21
195.19102611841043
  0
LINE
  8
_0-1_0
  6
CONTINUOUS
 62
    7
 10
161.53536231836262
 20
195.19102611841043
 11
161.52234459784361
 21
195.17100067040252
  0
LINE
  8
_0-1_0
  6
CONTINUOUS
 62
    7
 10
161.52234459784361
 20
195.17100067040252
 11
161.50946895929482
 21
195.14934697892244
  0
LINE
  8
_0-1_0
  6
CONTINUOUS
 62
    7
 10
161.50946895929482
 20
195.14934697892244
 11
161.49670466811162
 21
195.12603600409932
  0
LINE
  8
_0-1_0
  6
CONTINUOUS
 62
    7
 10
161.49670466811162
 20
195.12603600409932
 11
161.48400306625663
 21
195.10099853079799
  0
LINE
  8
_0-1_0
  6
CONTINUOUS
 62
    7
 10
161.48400306625663
 20
195.10099853079799
 11
161.47541537677512
 21
195.08302729606044
  0
LINE
  8
_0-1_0
  6
CONTINUOUS
 62
    7
 10
162.31606981914243
 20
192.80048892840892
 11
162.36218794959311
 21
192.70649930343211
  0
LINE
  8
_0-1_0
  6
CONTINUOUS
 62
    7
 10
164.31601981914244
 20
192.80048892840892
 11
164.36213794959312
 21
192.70649930343211
  0
LINE
  8
_0-1_0
  6
CONTINUOUS
 62
    7
 10
162.12996321117762
 20
194.7524394754401
 11
162.08386093659911
 21
194.84642413128739
  0
LINE
  8
_0-1_0
  6
CONTINUOUS
 62
    7
 10
164.12991321117764
 20
194.7524394754401
 11
164.08381093659912
 21
194.84642413128739
  0
LINE
  8
_0-1_0
  6
CONTINUOUS
 62
    7
 10
162.36218794959311
 20
192.70649930343211
 11
162.40939722157063
 21
192.60841315967701
  0
LINE
  8
_0-1_0
  6
CONTINUOUS
 62
    7
 10
164.36213794959312
 20
192.70649930343211
 11
164.40934722157064
 21
192.60841315967701
  0
LINE
  8
_0-1_0
  6
CONTINUOUS
 62
    7
 10
162.08386093659911
 20
194.84642413128739
 11
162.03666489041032
 21
194.94450678677163
  0
LINE
  8
_0-1_0
  6
CONTINUOUS
 62
    7
 10
164.08381093659912
 20
194.84642413128739
 11
164.03661489041045
 21
194.94450678677163
  0
LINE
  8
_0-1_0
  6
CONTINUOUS
 62
    7
 10
162.47543918152522
 20
192.46846155482319
 11
162.4838051320726
 21
192.45094803267199
  0
LINE
  8
_0-1_0
  6
CONTINUOUS
 62
    7
 10
162.4838051320726
 20
192.45094803267199
 11
162.49632786138463
 21
192.4262260535728
  0
LINE
  8
_0-1_0
  6
CONTINUOUS
 62
    7
 10
162.49632786138463
 20
192.4262260535728
 11
162.50891831258562
 21
192.40317027625031
  0
LINE
  8
_0-1_0
  6
CONTINUOUS
 62
    7
 10
162.50891831258562
 20
192.40317027625031
 11
162.52163023045134
 21
192.3817049294646
  0
LINE
  8
_0-1_0
  6
CONTINUOUS
 62
    7
 10
162.52163023045134
 20
192.3817049294646
 11
162.5344861971038
 21
192.36181963825112
  0
LINE
  8
_0-1_0
  6
CONTINUOUS
 62
    7
 10
162.5344861971038
 20
192.36181963825112
 11
162.54757307768492
 21
192.34341687683911
  0
LINE
  8
_0-1_0
  6
CONTINUOUS
 62
    7
 10
162.54757307768492
 20
192.34341687683911
 11
162.5609921604084
 21
192.32641096737063
  0
LINE
  8
_0-1_0
  6
CONTINUOUS
 62
    7
 10
162.5609921604084
 20
192.32641096737063
 11
162.57477492627842
 21
192.31082727204739
  0
LINE
  8
_0-1_0
  6
CONTINUOUS
 62
    7
 10
162.57477492627842
 20
192.31082727204739
 11
162.5889330121681
 21
192.29670724729561
  0
LINE
  8
_0-1_0
  6
CONTINUOUS
 62
    7
 10
162.5889330121681
 20
192.29670724729561
 11
162.60354891989564
 21
192.28402105072712
  0
LINE
  8
_0-1_0
  6
CONTINUOUS
 62
    7
 10
162.60354891989564
 20
192.28402105072712
 11
162.6186790616326
 21
192.27277950684754
  0
LINE
  8
_0-1_0
  6
CONTINUOUS
 62
    7
 10
162.6186790616326
 20
192.27277950684754
 11
162.63427234820861
 21
192.26306902961539
  0
LINE
  8
_0-1_0
  6
CONTINUOUS
 62
    7
 10
162.63427234820861
 20
192.26306902961539
 11
162.65032711384444
 21
192.25492472666082
  0
LINE
  8
_0-1_0
  6
CONTINUOUS
 62
    7
 10
162.65032711384444
 20
192.25492472666082
 11
162.66685581628812
 21
192.24837872718064
  0
LINE
  8
_0-1_0
  6
CONTINUOUS
 62
    7
 10
162.66685581628812
 20
192.24837872718064
 11
162.68375099419663
 21
192.24350587557223
  0
LINE
  8
_0-1_0
  6
CONTINUOUS
 62
    7
 10
162.68375099419663
 20
192.24350587557223
 11
162.70100090249034
 21
192.24034135483629
  0
LINE
  8
_0-1_0
  6
CONTINUOUS
 62
    7
 10
162.70100090249034
 20
192.24034135483629
 11
162.71845423823564
 21
192.23894446020739
  0
LINE
  8
_0-1_0
  6
CONTINUOUS
 62
    7
 10
162.71845423823564
 20
192.23894446020739
 11
162.73573276297813
 21
192.23932542754869
  0
LINE
  8
_0-1_0
  6
CONTINUOUS
 62
    7
 10
162.73573276297813
 20
192.23932542754869
 11
162.75264010386613
 21
192.24140383782583
  0
LINE
  8
_0-1_0
  6
CONTINUOUS
 62
    7
 10
162.75264010386613
 20
192.24140383782583
 11
162.76917362589083
 21
192.24510145359204
  0
LINE
  8
_0-1_0
  6
CONTINUOUS
 62
    7
 10
162.76917362589083
 20
192.24510145359204
 11
162.78526620401411
 21
192.25033919727213
  0
LINE
  8
_0-1_0
  6
CONTINUOUS
 62
    7
 10
162.78526620401411
 20
192.25033919727213
 11
162.80087543616165
 21
192.25704106315413
  0
LINE
  8
_0-1_0
  6
CONTINUOUS
 62
    7
 10
162.80087543616165
 20
192.25704106315413
 11
162.81597533149065
 21
192.26513524855562
  0
LINE
  8
_0-1_0
  6
CONTINUOUS
 62
    7
 10
162.81597533149065
 20
192.26513524855562
 11
162.83058261629944
 21
192.27457394616442
  0
LINE
  8
_0-1_0
  6
CONTINUOUS
 62
    7
 10
162.83058261629944
 20
192.27457394616442
 11
162.84476134406114
 21
192.28535318085579
  0
LINE
  8
_0-1_0
  6
CONTINUOUS
 62
    7
 10
162.84476134406114
 20
192.28535318085579
 11
162.85851426411014
 21
192.29743510477033
  0
LINE
  8
_0-1_0
  6
CONTINUOUS
 62
    7
 10
162.85851426411014
 20
192.29743510477033
 11
162.87180901964334
 21
192.310735616876
  0
LINE
  8
_0-1_0
  6
CONTINUOUS
 62
    7
 10
162.87180901964334
 20
192.310735616876
 11
162.88467680092592
 21
192.3252155357647
  0
LINE
  8
_0-1_0
  6
CONTINUOUS
 62
    7
 10
162.88467680092592
 20
192.3252155357647
 11
162.8972151146244
 21
192.34092012075223
  0
LINE
  8
_0-1_0
  6
CONTINUOUS
 62
    7
 10
162.8972151146244
 20
192.34092012075223
 11
162.90948823659463
 21
192.3578795954113
  0
LINE
  8
_0-1_0
  6
CONTINUOUS
 62
    7
 10
162.90948823659463
 20
192.3578795954113
 11
162.92154074542364
 21
192.37611240196793
  0
LINE
  8
_0-1_0
  6
CONTINUOUS
 62
    7
 10
162.92154074542364
 20
192.37611240196793
 11
162.93342333999314
 21
192.39565787152793
  0
LINE
  8
_0-1_0
  6
CONTINUOUS
 62
    7
 10
162.93342333999314
 20
192.39565787152793
 11
162.9451797156286
 21
192.41655541385239
  0
LINE
  8
_0-1_0
  6
CONTINUOUS
 62
    7
 10
162.9451797156286
 20
192.41655541385239
 11
162.95683758715953
 21
192.43882600005884
  0
LINE
  8
_0-1_0
  6
CONTINUOUS
 62
    7
 10
162.95683758715953
 20
192.43882600005884
 11
162.96842307841061
 21
192.46249441370679
  0
LINE
  8
_0-1_0
  6
CONTINUOUS
 62
    7
 10
164.47535889019284
 20
192.46852584903661
 11
164.48375348897943
 21
192.4509515564647
  0
LINE
  8
_0-1_0
  6
CONTINUOUS
 62
    7
 10
164.48375348897943
 20
192.4509515564647
 11
164.49601652030631
 21
192.42672425350571
  0
LINE
  8
_0-1_0
  6
CONTINUOUS
 62
    7
 10
164.49601652030631
 20
192.42672425350571
 11
164.5083389152239
 21
192.40410309546672
  0
LINE
  8
_0-1_0
  6
CONTINUOUS
 62
    7
 10
164.5083389152239
 20
192.40410309546672
 11
164.5207723584098
 21
192.38301507029234
  0
LINE
  8
_0-1_0
  6
CONTINUOUS
 62
    7
 10
164.5207723584098
 20
192.38301507029234
 11
164.53333570222881
 21
192.36345170282164
  0
LINE
  8
_0-1_0
  6
CONTINUOUS
 62
    7
 10
164.53333570222881
 20
192.36345170282164
 11
164.5461562814078
 21
192.34525380598944
  0
LINE
  8
_0-1_0
  6
CONTINUOUS
 62
    7
 10
164.5461562814078
 20
192.34525380598944
 11
164.5593524004519
 21
192.32832883837784
  0
LINE
  8
_0-1_0
  6
CONTINUOUS
 62
    7
 10
164.5593524004519
 20
192.32832883837784
 11
164.57293541400233
 21
192.31274610571711
  0
LINE
  8
_0-1_0
  6
CONTINUOUS
 62
    7
 10
164.57293541400233
 20
192.31274610571711
 11
164.58690431700981
 21
192.29857030713589
  0
LINE
  8
_0-1_0
  6
CONTINUOUS
 62
    7
 10
164.58690431700981
 20
192.29857030713589
 11
164.60135869444744
 21
192.28576339254062
  0
LINE
  8
_0-1_0
  6
CONTINUOUS
 62
    7
 10
164.60135869444744
 20
192.28576339254062
 11
164.61634157926895
 21
192.2743601895682
  0
LINE
  8
_0-1_0
  6
CONTINUOUS
 62
    7
 10
164.61634157926895
 20
192.2743601895682
 11
164.63174231782293
 21
192.26449152793259
  0
LINE
  8
_0-1_0
  6
CONTINUOUS
 62
    7
 10
164.63174231782293
 20
192.26449152793259
 11
164.64750826232111
 21
192.25620124295619
  0
LINE
  8
_0-1_0
  6
CONTINUOUS
 62
    7
 10
164.64750826232111
 20
192.25620124295619
 11
164.66370317579631
 21
192.2494708031615
  0
LINE
  8
_0-1_0
  6
CONTINUOUS
 62
    7
 10
164.66370317579631
 20
192.2494708031615
 11
164.68031920560909
 21
192.24433801999191
  0
LINE
  8
_0-1_0
  6
CONTINUOUS
 62
    7
 10
164.68031920560909
 20
192.24433801999191
 11
164.6973731631301
 21
192.24084988704823
  0
LINE
  8
_0-1_0
  6
CONTINUOUS
 62
    7
 10
164.6973731631301
 20
192.24084988704823
 11
164.71470444177763
 21
192.23909073744591
  0
LINE
  8
_0-1_0
  6
CONTINUOUS
 62
    7
 10
164.71470444177763
 20
192.23909073744591
 11
164.7319796654086
 21
192.2390968140104
  0
LINE
  8
_0-1_0
  6
CONTINUOUS
 62
    7
 10
164.7319796654086
 20
192.2390968140104
 11
164.74905084548422
 21
192.2408282202764
  0
LINE
  8
_0-1_0
  6
CONTINUOUS
 62
    7
 10
164.74905084548422
 20
192.2408282202764
 11
164.76585854856464
 21
192.24423788398792
  0
LINE
  8
_0-1_0
  6
CONTINUOUS
 62
    7
 10
164.76585854856464
 20
192.24423788398792
 11
164.78221772942564
 21
192.24923664752322
  0
LINE
  8
_0-1_0
  6
CONTINUOUS
 62
    7
 10
164.78221772942564
 20
192.24923664752322
 11
164.79804333108913
 21
192.2557255630573
  0
LINE
  8
_0-1_0
  6
CONTINUOUS
 62
    7
 10
164.79804333108913
 20
192.2557255630573
 11
164.81334258740415
 21
192.26363466159364
  0
LINE
  8
_0-1_0
  6
CONTINUOUS
 62
    7
 10
164.81334258740415
 20
192.26363466159364
 11
164.82813313285513
 21
192.27291065461333
  0
LINE
  8
_0-1_0
  6
CONTINUOUS
 62
    7
 10
164.82813313285513
 20
192.27291065461333
 11
164.84247104827884
 21
192.28353905501609
  0
LINE
  8
_0-1_0
  6
CONTINUOUS
 62
    7
 10
164.84247104827884
 20
192.28353905501609
 11
164.85636325424863
 21
192.29548111287511
  0
LINE
  8
_0-1_0
  6
CONTINUOUS
 62
    7
 10
164.85636325424863
 20
192.29548111287511
 11
164.86979814090543
 21
192.30867046104373
  0
LINE
  8
_0-1_0
  6
CONTINUOUS
 62
    7
 10
164.86979814090543
 20
192.30867046104373
 11
164.8828097851584
 21
192.3230724024786
  0
LINE
  8
_0-1_0
  6
CONTINUOUS
 62
    7
 10
164.8828097851584
 20
192.3230724024786
 11
164.89549347283443
 21
192.33873247380291
  0
LINE
  8
_0-1_0
  6
CONTINUOUS
 62
    7
 10
164.89549347283443
 20
192.33873247380291
 11
164.90792736123311
 21
192.3557048505275
  0
LINE
  8
_0-1_0
  6
CONTINUOUS
 62
    7
 10
164.90792736123311
 20
192.3557048505275
 11
164.9201566525081
 21
192.37401646705399
  0
LINE
  8
_0-1_0
  6
CONTINUOUS
 62
    7
 10
164.9201566525081
 20
192.37401646705399
 11
164.93223415339881
 21
192.3937158670941
  0
LINE
  8
_0-1_0
  6
CONTINUOUS
 62
    7
 10
164.93223415339881
 20
192.3937158670941
 11
164.94421940495411
 21
192.41488084482211
  0
LINE
  8
_0-1_0
  6
CONTINUOUS
 62
    7
 10
164.94421940495411
 20
192.41488084482211
 11
164.9561458999186
 21
192.43755995648689
  0
LINE
  8
_0-1_0
  6
CONTINUOUS
 62
    7
 10
164.9561458999186
 20
192.43755995648689
 11
164.96803596385362
 21
192.4617845980199
  0
LINE
  8
_0-1_0
  6
CONTINUOUS
 62
    7
 10
164.96803596385362
 20
192.4617845980199
 11
165.01256785978214
 21
192.5565145682188
  0
LINE
  8
_0-1_0
  6
CONTINUOUS
 62
    7
 10
162.40939722157063
 20
192.60841315967701
 11
162.45773283210545
 21
192.50626910692421
  0
LINE
  8
_0-1_0
  6
CONTINUOUS
 62
    7
 10
162.45773283210545
 20
192.50626910692421
 11
162.47546347405213
 21
192.4684089379295
  0
LINE
  8
_0-1_0
  6
CONTINUOUS
 62
    7
 10
162.03666489041032
 20
194.94450678677163
 11
161.98834010020212
 21
195.0466490319576
  0
LINE
  8
_0-1_0
  6
CONTINUOUS
 62
    7
 10
164.40934722157064
 20
192.60841315967701
 11
164.45768283210541
 21
192.50626910692421
  0
LINE
  8
_0-1_0
  6
CONTINUOUS
 62
    7
 10
164.45768283210541
 20
192.50626910692421
 11
164.47541362748112
 21
192.46840860928114
  0
LINE
  8
_0-1_0
  6
CONTINUOUS
 62
    7
 10
164.03661489041045
 20
194.94450678677163
 11
163.98829010020214
 21
195.0466490319576
  0
LINE
  8
_0-1_0
  6
CONTINUOUS
 62
    7
 10
161.9686321882854
 20
195.08871035636844
 11
161.98834010020212
 21
195.0466490319576
  0
LINE
  8
_0-1_0
  6
CONTINUOUS
 62
    7
 10
163.96823732586242
 20
195.08943743505671
 11
163.98829010020214
 21
195.0466490319576
  0
LINE
  8
_0-1_0
  6
CONTINUOUS
 62
    7
 10
166.27914495948843
 20
192.87407196878689
 11
166.3159698191424
 21
192.80048892840892
  0
LINE
  8
_0-1_0
  6
CONTINUOUS
 62
    7
 10
168.27909495948845
 20
192.87407196878689
 11
168.31591981287394
 21
192.80048894094591
  0
LINE
  8
_0-1_0
  6
CONTINUOUS
 62
    7
 10
166.16735005995312
 20
194.67752123351761
 11
166.12986321117765
 21
194.7524394754401
  0
LINE
  8
_0-1_0
  6
CONTINUOUS
 62
    7
 10
168.16730005995313
 20
194.67752123351761
 11
168.12981321117761
 21
194.7524394754401
  0
LINE
  8
_0-1_0
  6
CONTINUOUS
 62
    7
 10
167.96730501995413
 20
195.09118771607461
 11
167.95482460465891
 21
195.11647919690614
  0
LINE
  8
_0-1_0
  6
CONTINUOUS
 62
    7
 10
167.95482460465891
 20
195.11647919690614
 11
167.94236693939192
 21
195.13995333675439
  0
LINE
  8
_0-1_0
  6
CONTINUOUS
 62
    7
 10
167.94236693939192
 20
195.13995333675439
 11
167.92991917462362
 21
195.16165402810424
  0
LINE
  8
_0-1_0
  6
CONTINUOUS
 62
    7
 10
167.92991917462362
 20
195.16165402810424
 11
167.91743337200043
 21
195.18168114547342
  0
LINE
  8
_0-1_0
  6
CONTINUOUS
 62
    7
 10
167.91743337200043
 20
195.18168114547342
 11
167.90480977341915
 21
195.20019267401693
  0
LINE
  8
_0-1_0
  6
CONTINUOUS
 62
    7
 10
167.90480977341915
 20
195.20019267401693
 11
167.89199182178632
 21
195.21725323391013
  0
LINE
  8
_0-1_0
  6
CONTINUOUS
 62
    7
 10
167.89199182178632
 20
195.21725323391013
 11
167.87892956566444
 21
195.2329040668086
  0
LINE
  8
_0-1_0
  6
CONTINUOUS
 62
    7
 10
167.87892956566444
 20
195.2329040668086
 11
167.86549961306341
 21
195.24724928801993
  0
LINE
  8
_0-1_0
  6
CONTINUOUS
 62
    7
 10
167.86549961306341
 20
195.24724928801993
 11
167.85159181449845
 21
195.26033660082891
  0
LINE
  8
_0-1_0
  6
CONTINUOUS
 62
    7
 10
167.85159181449845
 20
195.26033660082891
 11
167.83717737322664
 21
195.27211593215924
  0
LINE
  8
_0-1_0
  6
CONTINUOUS
 62
    7
 10
167.83717737322664
 20
195.27211593215924
 11
167.8222540809451
 21
195.28252116052931
  0
LINE
  8
_0-1_0
  6
CONTINUOUS
 62
    7
 10
167.8222540809451
 20
195.28252116052931
 11
167.80673412343143
 21
195.29154003743992
  0
LINE
  8
_0-1_0
  6
CONTINUOUS
 62
    7
 10
167.80673412343143
 20
195.29154003743992
 11
167.7906457828141
 21
195.2990776831731
  0
LINE
  8
_0-1_0
  6
CONTINUOUS
 62
    7
 10
167.7906457828141
 20
195.2990776831731
 11
167.7742329529959
 21
195.30498448161882
  0
LINE
  8
_0-1_0
  6
CONTINUOUS
 62
    7
 10
167.7742329529959
 20
195.30498448161882
 11
167.7576164014051
 21
195.30922647989462
  0
LINE
  8
_0-1_0
  6
CONTINUOUS
 62
    7
 10
167.7576164014051
 20
195.30922647989462
 11
167.74080721283943
 21
195.31180936502233
  0
LINE
  8
_0-1_0
  6
CONTINUOUS
 62
    7
 10
167.74080721283943
 20
195.31180936502233
 11
167.7239571864886
 21
195.31271732217363
  0
LINE
  8
_0-1_0
  6
CONTINUOUS
 62
    7
 10
167.7239571864886
 20
195.31271732217363
 11
167.7071934170859
 21
195.31196535470463
  0
LINE
  8
_0-1_0
  6
CONTINUOUS
 62
    7
 10
167.7071934170859
 20
195.31196535470463
 11
167.69058739060515
 21
195.3095808750644
  0
LINE
  8
_0-1_0
  6
CONTINUOUS
 62
    7
 10
167.69058739060515
 20
195.3095808750644
 11
167.67420806442684
 21
195.30559224537961
  0
LINE
  8
_0-1_0
  6
CONTINUOUS
 62
    7
 10
167.67420806442684
 20
195.30559224537961
 11
167.6580968397549
 21
195.30002076586413
  0
LINE
  8
_0-1_0
  6
CONTINUOUS
 62
    7
 10
167.6580968397549
 20
195.30002076586413
 11
167.64233738166163
 21
195.29290606478094
  0
LINE
  8
_0-1_0
  6
CONTINUOUS
 62
    7
 10
167.64233738166163
 20
195.29290606478094
 11
167.62700530840593
 21
195.2843046062406
  0
LINE
  8
_0-1_0
  6
CONTINUOUS
 62
    7
 10
167.62700530840593
 20
195.2843046062406
 11
167.6120438423026
 21
195.27420408144673
  0
LINE
  8
_0-1_0
  6
CONTINUOUS
 62
    7
 10
167.6120438423026
 20
195.27420408144673
 11
167.59748207113213
 21
195.26263854865181
  0
LINE
  8
_0-1_0
  6
CONTINUOUS
 62
    7
 10
167.59748207113213
 20
195.26263854865181
 11
167.5834537494608
 21
195.24976440991651
  0
LINE
  8
_0-1_0
  6
CONTINUOUS
 62
    7
 10
167.5834537494608
 20
195.24976440991651
 11
167.5699432666344
 21
195.23565346702713
  0
LINE
  8
_0-1_0
  6
CONTINUOUS
 62
    7
 10
167.5699432666344
 20
195.23565346702713
 11
167.55682460759411
 21
195.22025350531942
  0
LINE
  8
_0-1_0
  6
CONTINUOUS
 62
    7
 10
167.55682460759411
 20
195.22025350531942
 11
167.54404964652841
 21
195.20357274831883
  0
LINE
  8
_0-1_0
  6
CONTINUOUS
 62
    7
 10
167.54404964652841
 20
195.20357274831883
 11
167.5316073665484
 21
195.1856666222518
  0
LINE
  8
_0-1_0
  6
CONTINUOUS
 62
    7
 10
167.5316073665484
 20
195.1856666222518
 11
167.51939356025943
 21
195.16644784646462
  0
LINE
  8
_0-1_0
  6
CONTINUOUS
 62
    7
 10
167.51939356025943
 20
195.16644784646462
 11
167.50725438270163
 21
195.1457012209641
  0
LINE
  8
_0-1_0
  6
CONTINUOUS
 62
    7
 10
167.50725438270163
 20
195.1457012209641
 11
167.49515919285014
 21
195.12337517539794
  0
LINE
  8
_0-1_0
  6
CONTINUOUS
 62
    7
 10
167.49515919285014
 20
195.12337517539794
 11
167.48307639045012
 21
195.09940828667453
  0
LINE
  8
_0-1_0
  6
CONTINUOUS
 62
    7
 10
167.48307639045012
 20
195.09940828667453
 11
167.4753351363743
 21
195.08317672411573
  0
LINE
  8
_0-1_0
  6
CONTINUOUS
 62
    7
 10
165.9677887017983
 20
195.09027665064292
 11
165.9557007535569
 21
195.1148596024716
  0
LINE
  8
_0-1_0
  6
CONTINUOUS
 62
    7
 10
165.9557007535569
 20
195.1148596024716
 11
165.94359564455041
 21
195.13780824948742
  0
LINE
  8
_0-1_0
  6
CONTINUOUS
 62
    7
 10
165.94359564455041
 20
195.13780824948742
 11
165.9314535591549
 21
195.15915797095494
  0
LINE
  8
_0-1_0
  6
CONTINUOUS
 62
    7
 10
165.9314535591549
 20
195.15915797095494
 11
165.91923678682062
 21
195.17897214528972
  0
LINE
  8
_0-1_0
  6
CONTINUOUS
 62
    7
 10
165.91923678682062
 20
195.17897214528972
 11
165.90687429111475
 21
195.19735367588919
  0
LINE
  8
_0-1_0
  6
CONTINUOUS
 62
    7
 10
165.90687429111475
 20
195.19735367588919
 11
165.8943116811578
 21
195.21435748764884
  0
LINE
  8
_0-1_0
  6
CONTINUOUS
 62
    7
 10
165.8943116811578
 20
195.21435748764884
 11
165.88150259213941
 21
195.23001406219481
  0
LINE
  8
_0-1_0
  6
CONTINUOUS
 62
    7
 10
165.88150259213941
 20
195.23001406219481
 11
165.86835722063265
 21
195.24439175886289
  0
LINE
  8
_0-1_0
  6
CONTINUOUS
 62
    7
 10
165.86835722063265
 20
195.24439175886289
 11
165.8547794939648
 21
195.25753576264259
  0
LINE
  8
_0-1_0
  6
CONTINUOUS
 62
    7
 10
165.8547794939648
 20
195.25753576264259
 11
165.84073388108411
 21
195.26941198080442
  0
LINE
  8
_0-1_0
  6
CONTINUOUS
 62
    7
 10
165.84073388108411
 20
195.26941198080442
 11
165.82621949663931
 21
195.2799606155894
  0
LINE
  8
_0-1_0
  6
CONTINUOUS
 62
    7
 10
165.82621949663931
 20
195.2799606155894
 11
165.8112028795268
 21
195.28915151596033
  0
LINE
  8
_0-1_0
  6
CONTINUOUS
 62
    7
 10
165.8112028795268
 20
195.28915151596033
 11
165.79565500315894
 21
195.29694321967042
  0
LINE
  8
_0-1_0
  6
CONTINUOUS
 62
    7
 10
165.79565500315894
 20
195.29694321967042
 11
165.77963364415061
 21
195.30325068093509
  0
LINE
  8
_0-1_0
  6
CONTINUOUS
 62
    7
 10
165.77963364415061
 20
195.30325068093509
 11
165.76315904513044
 21
195.3080135415621
  0
LINE
  8
_0-1_0
  6
CONTINUOUS
 62
    7
 10
165.76315904513044
 20
195.3080135415621
 11
165.74630528141043
 21
195.31115723580371
  0
LINE
  8
_0-1_0
  6
CONTINUOUS
 62
    7
 10
165.74630528141043
 20
195.31115723580371
 11
165.7292790355846
 21
195.31261212226633
  0
LINE
  8
_0-1_0
  6
CONTINUOUS
 62
    7
 10
165.7292790355846
 20
195.31261212226633
 11
165.71217655076944
 21
195.31235784817574
  0
LINE
  8
_0-1_0
  6
CONTINUOUS
 62
    7
 10
165.71217655076944
 20
195.31235784817574
 11
165.69510778376784
 21
195.3103853097291
  0
LINE
  8
_0-1_0
  6
CONTINUOUS
 62
    7
 10
165.69510778376784
 20
195.3103853097291
 11
165.67831038625062
 21
195.30673411548889
  0
LINE
  8
_0-1_0
  6
CONTINUOUS
 62
    7
 10
165.67831038625062
 20
195.30673411548889
 11
165.66190960045961
 21
195.3014726058359
  0
LINE
  8
_0-1_0
  6
CONTINUOUS
 62
    7
 10
165.66190960045961
 20
195.3014726058359
 11
165.64591546554695
 21
195.29464635515313
  0
LINE
  8
_0-1_0
  6
CONTINUOUS
 62
    7
 10
165.64591546554695
 20
195.29464635515313
 11
165.63033552699531
 21
195.28628926632439
  0
LINE
  8
_0-1_0
  6
CONTINUOUS
 62
    7
 10
165.63033552699531
 20
195.28628926632439
 11
165.61509696453615
 21
195.27637283170424
  0
LINE
  8
_0-1_0
  6
CONTINUOUS
 62
    7
 10
165.61509696453615
 20
195.27637283170424
 11
165.60025863132464
 21
195.26494039334324
  0
LINE
  8
_0-1_0
  6
CONTINUOUS
 62
    7
 10
165.60025863132464
 20
195.26494039334324
 11
165.58595482400344
 21
195.25214095945643
  0
LINE
  8
_0-1_0
  6
CONTINUOUS
 62
    7
 10
165.58595482400344
 20
195.25214095945643
 11
165.5721549081143
 21
195.238027665581
  0
LINE
  8
_0-1_0
  6
CONTINUOUS
 62
    7
 10
165.5721549081143
 20
195.238027665581
 11
165.55874671571561
 21
195.22255708295251
  0
LINE
  8
_0-1_0
  6
CONTINUOUS
 62
    7
 10
165.55874671571561
 20
195.22255708295251
 11
165.54571885619632
 21
195.2057818030911
  0
LINE
  8
_0-1_0
  6
CONTINUOUS
 62
    7
 10
165.54571885619632
 20
195.2057818030911
 11
165.53306587909591
 21
195.18777701128181
  0
LINE
  8
_0-1_0
  6
CONTINUOUS
 62
    7
 10
165.53306587909591
 20
195.18777701128181
 11
165.52066825874564
 21
195.16844915449042
  0
LINE
  8
_0-1_0
  6
CONTINUOUS
 62
    7
 10
165.52066825874564
 20
195.16844915449042
 11
165.50837678857735
 21
195.14760134122122
  0
LINE
  8
_0-1_0
  6
CONTINUOUS
 62
    7
 10
165.50837678857735
 20
195.14760134122122
 11
165.49617022031643
 21
195.12520982550063
  0
LINE
  8
_0-1_0
  6
CONTINUOUS
 62
    7
 10
165.49617022031643
 20
195.12520982550063
 11
165.4840028824178
 21
195.10120241719341
  0
LINE
  8
_0-1_0
  6
CONTINUOUS
 62
    7
 10
165.4840028824178
 20
195.10120241719341
 11
165.47532006292661
 21
195.0830374755073
  0
LINE
  8
_0-1_0
  6
CONTINUOUS
 62
    7
 10
166.3159698191424
 20
192.80048892840892
 11
166.36208794959313
 21
192.70649930343211
  0
LINE
  8
_0-1_0
  6
CONTINUOUS
 62
    7
 10
168.31591981287394
 20
192.80048894094591
 11
168.36203793675762
 21
192.70649932999873
  0
LINE
  8
_0-1_0
  6
CONTINUOUS
 62
    7
 10
166.12986321117765
 20
194.7524394754401
 11
166.08376093659913
 21
194.84642413128739
  0
LINE
  8
_0-1_0
  6
CONTINUOUS
 62
    7
 10
168.47762864423115
 20
192.46348337211651
 11
168.48910337377364
 21
192.43997284168563
  0
LINE
  8
_0-1_0
  6
CONTINUOUS
 62
    7
 10
168.48910337377364
 20
192.43997284168563
 11
168.50055409078212
 21
192.41800831812583
  0
LINE
  8
_0-1_0
  6
CONTINUOUS
 62
    7
 10
168.50055409078212
 20
192.41800831812583
 11
168.51199931076391
 21
192.39754204770594
  0
LINE
  8
_0-1_0
  6
CONTINUOUS
 62
    7
 10
168.51199931076391
 20
192.39754204770594
 11
168.52346710376341
 21
192.37851291195364
  0
LINE
  8
_0-1_0
  6
CONTINUOUS
 62
    7
 10
168.52346710376341
 20
192.37851291195364
 11
168.53506109644363
 21
192.36075287372694
  0
LINE
  8
_0-1_0
  6
CONTINUOUS
 62
    7
 10
168.53506109644363
 20
192.36075287372694
 11
168.54682594380765
 21
192.3442167754979
  0
LINE
  8
_0-1_0
  6
CONTINUOUS
 62
    7
 10
168.54682594380765
 20
192.3442167754979
 11
168.55879760600115
 21
192.32888242155281
  0
LINE
  8
_0-1_0
  6
CONTINUOUS
 62
    7
 10
168.55879760600115
 20
192.32888242155281
 11
168.57109668821792
 21
192.31463995911594
  0
LINE
  8
_0-1_0
  6
CONTINUOUS
 62
    7
 10
168.57109668821792
 20
192.31463995911594
 11
168.58383265787043
 21
192.30143413956813
  0
LINE
  8
_0-1_0
  6
CONTINUOUS
 62
    7
 10
168.58383265787043
 20
192.30143413956813
 11
168.59701565709312
 21
192.2893332746346
  0
LINE
  8
_0-1_0
  6
CONTINUOUS
 62
    7
 10
168.59701565709312
 20
192.2893332746346
 11
168.61062844989922
 21
192.27841703963679
  0
LINE
  8
_0-1_0
  6
CONTINUOUS
 62
    7
 10
168.61062844989922
 20
192.27841703963679
 11
168.62474960939872
 21
192.26868474623393
  0
LINE
  8
_0-1_0
  6
CONTINUOUS
 62
    7
 10
168.62474960939872
 20
192.26868474623393
 11
168.63938326280194
 21
192.26019984358561
  0
LINE
  8
_0-1_0
  6
CONTINUOUS
 62
    7
 10
168.63938326280194
 20
192.26019984358561
 11
168.65435399180794
 21
192.25309951303859
  0
LINE
  8
_0-1_0
  6
CONTINUOUS
 62
    7
 10
168.65435399180794
 20
192.25309951303859
 11
168.6695650001798
 21
192.24742731230992
  0
LINE
  8
_0-1_0
  6
CONTINUOUS
 62
    7
 10
168.6695650001798
 20
192.24742731230992
 11
168.6731862247216
 21
192.24643174570713
  0
LINE
  8
_0-1_0
  6
CONTINUOUS
 62
    7
 10
168.12981321117761
 20
194.7524394754401
 11
168.08371093659915
 21
194.84642413128739
  0
LINE
  8
_0-1_0
  6
CONTINUOUS
 62
    7
 10
166.36208794959313
 20
192.70649930343211
 11
166.4092972215706
 21
192.60841315967701
  0
LINE
  8
_0-1_0
  6
CONTINUOUS
 62
    7
 10
168.36203793675762
 20
192.70649932999873
 11
168.40924720172043
 21
192.60841320161614
  0
LINE
  8
_0-1_0
  6
CONTINUOUS
 62
    7
 10
166.08376093659913
 20
194.84642413128739
 11
166.0365648904104
 21
194.94450678677163
  0
LINE
  8
_0-1_0
  6
CONTINUOUS
 62
    7
 10
168.08371093659915
 20
194.84642413128739
 11
168.03651489041042
 21
194.94450678677163
  0
LINE
  8
_0-1_0
  6
CONTINUOUS
 62
    7
 10
166.47532772479664
 20
192.4684861219701
 11
166.48353220520184
 21
192.4513021615798
  0
LINE
  8
_0-1_0
  6
CONTINUOUS
 62
    7
 10
166.48353220520184
 20
192.4513021615798
 11
166.49564246601992
 21
192.4273417625451
  0
LINE
  8
_0-1_0
  6
CONTINUOUS
 62
    7
 10
166.49564246601992
 20
192.4273417625451
 11
166.5077763404266
 21
192.40501004831469
  0
LINE
  8
_0-1_0
  6
CONTINUOUS
 62
    7
 10
166.5077763404266
 20
192.40501004831469
 11
166.5199713730058
 21
192.38424024369209
  0
LINE
  8
_0-1_0
  6
CONTINUOUS
 62
    7
 10
166.5199713730058
 20
192.38424024369209
 11
166.53225403802114
 21
192.364992568329
  0
LINE
  8
_0-1_0
  6
CONTINUOUS
 62
    7
 10
166.53225403802114
 20
192.364992568329
 11
166.54477906384292
 21
192.34705598362041
  0
LINE
  8
_0-1_0
  6
CONTINUOUS
 62
    7
 10
166.54477906384292
 20
192.34705598362041
 11
166.55765898601592
 21
192.33033962333081
  0
LINE
  8
_0-1_0
  6
CONTINUOUS
 62
    7
 10
166.55765898601592
 20
192.33033962333081
 11
166.57090071869564
 21
192.3149102951931
  0
LINE
  8
_0-1_0
  6
CONTINUOUS
 62
    7
 10
166.57090071869564
 20
192.3149102951931
 11
166.5845344794848
 21
192.30079844874433
  0
LINE
  8
_0-1_0
  6
CONTINUOUS
 62
    7
 10
166.5845344794848
 20
192.30079844874433
 11
166.59868109998965
 21
192.28795568832891
  0
LINE
  8
_0-1_0
  6
CONTINUOUS
 62
    7
 10
166.59868109998965
 20
192.28795568832891
 11
166.6133621857891
 21
192.27644649949872
  0
LINE
  8
_0-1_0
  6
CONTINUOUS
 62
    7
 10
166.6133621857891
 20
192.27644649949872
 11
166.62843943989313
 21
192.26642646149833
  0
LINE
  8
_0-1_0
  6
CONTINUOUS
 62
    7
 10
166.62843943989313
 20
192.26642646149833
 11
166.6438635892051
 21
192.2579361515227
  0
LINE
  8
_0-1_0
  6
CONTINUOUS
 62
    7
 10
166.6438635892051
 20
192.2579361515227
 11
166.65970490331162
 21
192.2509501779673
  0
LINE
  8
_0-1_0
  6
CONTINUOUS
 62
    7
 10
166.65970490331162
 20
192.2509501779673
 11
166.67593460591715
 21
192.2455090553421
  0
LINE
  8
_0-1_0
  6
CONTINUOUS
 62
    7
 10
166.67593460591715
 20
192.2455090553421
 11
166.69251026763462
 21
192.24165632226004
  0
LINE
  8
_0-1_0
  6
CONTINUOUS
 62
    7
 10
166.69251026763462
 20
192.24165632226004
 11
166.70934636433364
 21
192.2394412006243
  0
LINE
  8
_0-1_0
  6
CONTINUOUS
 62
    7
 10
166.70934636433364
 20
192.2394412006243
 11
166.72629265335243
 21
192.23890206380463
  0
LINE
  8
_0-1_0
  6
CONTINUOUS
 62
    7
 10
166.72629265335243
 20
192.23890206380463
 11
166.74326503843511
 21
192.24005322278623
  0
LINE
  8
_0-1_0
  6
CONTINUOUS
 62
    7
 10
166.74326503843511
 20
192.24005322278623
 11
166.7601438658568
 21
192.24289658513322
  0
LINE
  8
_0-1_0
  6
CONTINUOUS
 62
    7
 10
166.7601438658568
 20
192.24289658513322
 11
166.77673036521381
 21
192.24738742196382
  0
LINE
  8
_0-1_0
  6
CONTINUOUS
 62
    7
 10
166.77673036521381
 20
192.24738742196382
 11
166.79297467342431
 21
192.25348677216294
  0
LINE
  8
_0-1_0
  6
CONTINUOUS
 62
    7
 10
166.79297467342431
 20
192.25348677216294
 11
166.80881288477261
 21
192.26114599306561
  0
LINE
  8
_0-1_0
  6
CONTINUOUS
 62
    7
 10
166.80881288477261
 20
192.26114599306561
 11
166.82409642565963
 21
192.27024578571439
  0
LINE
  8
_0-1_0
  6
CONTINUOUS
 62
    7
 10
166.82409642565963
 20
192.27024578571439
 11
166.83882437625763
 21
192.2807155666498
  0
LINE
  8
_0-1_0
  6
CONTINUOUS
 62
    7
 10
166.83882437625763
 20
192.2807155666498
 11
166.85305922858632
 21
192.29253365298143
  0
LINE
  8
_0-1_0
  6
CONTINUOUS
 62
    7
 10
166.85305922858632
 20
192.29253365298143
 11
166.8668091075173
 21
192.3056422940632
  0
LINE
  8
_0-1_0
  6
CONTINUOUS
 62
    7
 10
166.8668091075173
 20
192.3056422940632
 11
166.88010875770445
 21
192.32000337144513
  0
LINE
  8
_0-1_0
  6
CONTINUOUS
 62
    7
 10
166.88010875770445
 20
192.32000337144513
 11
166.89305834037461
 21
192.33566222190444
  0
LINE
  8
_0-1_0
  6
CONTINUOUS
 62
    7
 10
166.89305834037461
 20
192.33566222190444
 11
166.90576248291242
 21
192.35270280811784
  0
LINE
  8
_0-1_0
  6
CONTINUOUS
 62
    7
 10
166.90576248291242
 20
192.35270280811784
 11
166.91826921053493
 21
192.3711607477025
  0
LINE
  8
_0-1_0
  6
CONTINUOUS
 62
    7
 10
166.91826921053493
 20
192.3711607477025
 11
166.93063447482839
 21
192.39109683048224
  0
LINE
  8
_0-1_0
  6
CONTINUOUS
 62
    7
 10
166.93063447482839
 20
192.39109683048224
 11
166.94294281815681
 21
192.41264066381319
  0
LINE
  8
_0-1_0
  6
CONTINUOUS
 62
    7
 10
166.94294281815681
 20
192.41264066381319
 11
166.95523684542545
 21
192.43587245389932
  0
LINE
  8
_0-1_0
  6
CONTINUOUS
 62
    7
 10
166.95523684542545
 20
192.43587245389932
 11
166.96753332934892
 21
192.46083228764911
  0
LINE
  8
_0-1_0
  6
CONTINUOUS
 62
    7
 10
166.96753332934892
 20
192.46083228764911
 11
167.01251785978215
 21
192.5565145682188
  0
LINE
  8
_0-1_0
  6
CONTINUOUS
 62
    7
 10
166.4092972215706
 20
192.60841315967701
 11
166.4576328321053
 21
192.50626910692421
  0
LINE
  8
_0-1_0
  6
CONTINUOUS
 62
    7
 10
166.4576328321053
 20
192.50626910692421
 11
166.47536339778534
 21
192.46840910105993
  0
LINE
  8
_0-1_0
  6
CONTINUOUS
 62
    7
 10
166.0365648904104
 20
194.94450678677163
 11
165.98824010020215
 21
195.0466490319576
  0
LINE
  8
_0-1_0
  6
CONTINUOUS
 62
    7
 10
168.40924720172043
 20
192.60841320161614
 11
168.45758280479262
 21
192.50626916528091
  0
LINE
  8
_0-1_0
  6
CONTINUOUS
 62
    7
 10
168.45758280479262
 20
192.50626916528091
 11
168.47762864423115
 21
192.46348337211651
  0
LINE
  8
_0-1_0
  6
CONTINUOUS
 62
    7
 10
168.03651489041042
 20
194.94450678677163
 11
167.9881901002021
 21
195.0466490319576
  0
LINE
  8
_0-1_0
  6
CONTINUOUS
 62
    7
 10
165.9677887017983
 20
195.09027665064292
 11
165.98824010020215
 21
195.0466490319576
  0
LINE
  8
_0-1_0
  6
CONTINUOUS
 62
    7
 10
167.96730501995413
 20
195.09118771607461
 11
167.9881901002021
 21
195.0466490319576
  0
LINE
  8
_0-1_0
  6
CONTINUOUS
 62
    7
 10
169.17317372472164
 20
181.47610417047883
 11
170.17314872472164
 21
181.47610417047883
  0
LINE
  8
_0-1_0
  6
CONTINUOUS
 62
    9
 10
168.6731862247216
 20
181.97609167047892
 11
170.17314872472164
 21
181.97609167047892
  0
LINE
  8
_0-1_0
  6
CONTINUOUS
 62
    7
 10
155.21277061039063
 20
190.14994348937302
 11
150.11499466379641
 21
190.77587167047892
  0
LINE
  8
_0-1_0
  6
CONTINUOUS
 62
    7
 10
160.47339122472161
 20
189.87589417047894
 11
161.26500079980832
 21
189.87589417047894
  0
LINE
  8
_0-1_0
  6
CONTINUOUS
 62
    7
 10
160.47339122472161
 20
190.27272017361071
 11
161.39542750219363
 21
190.27272017361071
  0
LINE
  8
_0-1_0
  6
CONTINUOUS
 62
    7
 10
148.07136138142812
 20
190.34970363957291
 11
131.18440554796811
 21
190.34970363957291
  0
LINE
  8
_0-1_0
  6
CONTINUOUS
 62
    7
 10
160.47339122472161
 20
191.01814916682281
 11
161.26500079980832
 21
191.01814916682281
  0
LINE
  8
_0-1_0
  6
CONTINUOUS
 62
    7
 10
150.11499466379641
 20
190.77587167047892
 11
150.02258553109732
 21
190.77829148878794
  0
LINE
  8
_0-1_0
  6
CONTINUOUS
 62
    7
 10
129.88542499135363
 20
191.3056015954071
 11
126.86540427420692
 21
191.38468362099371
  0
LINE
  8
_0-1_0
  6
CONTINUOUS
 62
    7
 10
126.47424122472162
 20
191.39492658595782
 11
122.93506427784993
 21
191.4876031958504
  0
LINE
  8
_0-1_0
  6
CONTINUOUS
 62
    7
 10
160.47339122472161
 20
191.01814916682281
 11
155.01742002144161
 21
191.22889198737442
  0
LINE
  8
_0-1_0
  6
CONTINUOUS
 62
    7
 10
160.47339122472161
 20
190.27272017361071
 11
150.42478536361142
 21
190.74781098201373
  0
LINE
  8
_0-1_0
  6
CONTINUOUS
 62
    7
 10
160.47339122472161
 20
189.87589417047894
 11
155.21277061039063
 21
190.14994348937302
  0
LINE
  8
_0-1_0
  6
CONTINUOUS
 62
    7
 10
148.54637458072662
 20
196.70217104078313
 11
148.07136138142812
 21
196.79287902108661
  0
LINE
  8
_0-1_0
  6
CONTINUOUS
 62
    7
 10
160.47339122472161
 20
194.1295301982629
 11
150.42478536361142
 21
194.02180259181893
  0
LINE
  8
_0-1_0
  6
CONTINUOUS
 62
    7
 10
126.47424122472162
 20
191.77584667047893
 11
126.86540427420692
 21
191.77584667047893
  0
LINE
  8
_0-1_0
  6
CONTINUOUS
 62
    7
 10
146.97372872472161
 20
192.6758241704789
 11
148.37736942103584
 21
192.6758241704789
  0
LINE
  8
_0-1_0
  6
CONTINUOUS
 62
    7
 10
161.47336622472162
 20
192.6758241704789
 11
162.37701942088663
 21
192.6758241704789
  0
LINE
  8
_0-1_0
  6
CONTINUOUS
 62
    7
 10
162.9733287247216
 20
192.6758241704789
 11
164.37696942088664
 21
192.6758241704789
  0
LINE
  8
_0-1_0
  6
CONTINUOUS
 62
    7
 10
164.97327872472161
 20
192.6758241704789
 11
166.37691942088665
 21
192.6758241704789
  0
LINE
  8
_0-1_0
  6
CONTINUOUS
 62
    7
 10
166.97322872472162
 20
192.6758241704789
 11
168.37686942103593
 21
192.6758241704789
  0
LINE
  8
_0-1_0
  6
CONTINUOUS
 62
    7
 10
160.47339122472161
 20
193.42206314269481
 11
161.39542750219363
 21
193.42206314269481
  0
LINE
  8
_0-1_0
  6
CONTINUOUS
 62
    7
 10
155.21277061039063
 20
193.77579667047883
 11
161.26500079980832
 21
193.77579667047883
  0
LINE
  8
_0-1_0
  6
CONTINUOUS
 62
    7
 10
160.47339122472161
 20
194.1295301982629
 11
161.39542750219363
 21
194.1295301982629
  0
LINE
  8
_0-1_0
  6
CONTINUOUS
 62
    7
 10
162.06967618794314
 20
194.8757691704788
 11
163.47331622457241
 21
194.8757691704788
  0
LINE
  8
_0-1_0
  6
CONTINUOUS
 62
    7
 10
164.06962618794321
 20
194.8757691704788
 11
165.47326622472164
 21
194.8757691704788
  0
LINE
  8
_0-1_0
  6
CONTINUOUS
 62
    7
 10
166.06957618794323
 20
194.8757691704788
 11
167.4732162247216
 21
194.8757691704788
  0
LINE
  8
_0-1_0
  6
CONTINUOUS
 62
    7
 10
168.06952618794313
 20
194.8757691704788
 11
168.6731862247216
 21
194.8757691704788
  0
LINE
  8
_0-1_0
  6
CONTINUOUS
 62
    7
 10
148.07136138142812
 20
195.40224281069692
 11
131.18440554796811
 21
195.40224281069692
  0
LINE
  8
_0-1_0
  6
CONTINUOUS
 62
    7
 10
148.07136138142812
 20
195.57544356131621
 11
131.18440554796811
 21
195.57544356131621
  0
LINE
  8
_0-1_0
  6
CONTINUOUS
 62
    7
 10
160.47339122472161
 20
193.42206314269481
 11
150.42478536361142
 21
193.52979074928811
  0
LINE
  8
_0-1_0
  6
CONTINUOUS
 62
    7
 10
150.02262919060291
 20
195.18711524066231
 11
148.07136138142812
 21
195.40224281069692
  0
LINE
  8
_0-1_0
  6
CONTINUOUS
 62
    7
 10
150.02262919060291
 20
195.3603159912816
 11
148.07136138142812
 21
195.57544356131621
  0
LINE
  8
_0-1_0
  6
CONTINUOUS
 62
    7
 10
150.02262919060291
 20
190.7799587796419
 11
148.07136138142812
 21
190.34970363957291
  0
LINE
  8
_0-1_0
  6
CONTINUOUS
 62
    7
 10
160.47339122472161
 20
197.67569917047894
 11
155.21277061039063
 21
197.40164985173391
  0
LINE
  8
_0-1_0
  6
CONTINUOUS
 62
    7
 10
160.47339122472161
 20
197.27887316749644
 11
150.42478536361142
 21
196.8037823589442
  0
LINE
  8
_0-1_0
  6
CONTINUOUS
 62
    7
 10
160.47339122472161
 20
196.53344417428411
 11
155.01742002144161
 21
196.3227013535834
  0
LINE
  8
_0-1_0
  6
CONTINUOUS
 62
    7
 10
150.11499466379641
 20
196.77572167047873
 11
148.39682059817721
 21
196.7307296991869
  0
LINE
  8
_0-1_0
  6
CONTINUOUS
 62
    7
 10
132.47409122472163
 20
196.31377835666393
 11
126.86540427420692
 21
196.16690972011344
  0
LINE
  8
_0-1_0
  6
CONTINUOUS
 62
    7
 10
126.47424122472162
 20
196.1566667551491
 11
122.93506427784993
 21
196.06399014510743
  0
LINE
  8
_0-1_0
  6
CONTINUOUS
 62
    7
 10
126.47424122472162
 20
195.77574667047901
 11
126.86540427420692
 21
195.77574667047901
  0
LINE
  8
_0-1_0
  6
CONTINUOUS
 62
    7
 10
160.47339122472161
 20
196.53344417428411
 11
161.26500079980832
 21
196.53344417428411
  0
LINE
  8
_0-1_0
  6
CONTINUOUS
 62
    7
 10
148.07136138142812
 20
196.69288152108663
 11
131.18440554796811
 21
196.69288152108663
  0
LINE
  8
_0-1_0
  6
CONTINUOUS
 62
    7
 10
148.07136138142812
 20
196.79287902108661
 11
131.18440554796811
 21
196.79287902108661
  0
LINE
  8
_0-1_0
  6
CONTINUOUS
 62
    7
 10
160.47339122472161
 20
197.27887316749644
 11
161.39542750219363
 21
197.27887316749644
  0
LINE
  8
_0-1_0
  6
CONTINUOUS
 62
    7
 10
160.47339122472161
 20
197.67569917047894
 11
161.26500079980832
 21
197.67569917047894
  0
LINE
  8
_0-1_0
  6
CONTINUOUS
 62
    7
 10
155.21277061039063
 20
197.40164985173391
 11
150.11499466379641
 21
196.77572167047873
  0
LINE
  8
_0-1_0
  6
CONTINUOUS
 62
    9
 10
168.6731862247216
 20
204.9755166704789
 11
170.17314872472164
 21
204.9755166704789
  0
LINE
  8
_0-1_0
  6
CONTINUOUS
 62
    7
 10
170.17314872472164
 20
205.47550417047881
 11
169.17317372472164
 21
205.47550417047881
  0
LINE
  8
_0-1_0
  6
CONTINUOUS
 62
    9
 10
208.67218622472163
 20
199.39895069438239
 11
208.67218622472163
 21
198.8989631943823
  0
LINE
  8
_0-1_0
  6
CONTINUOUS
 62
    9
 10
208.67218622472163
 20
189.39920069438233
 11
208.67246121471234
 21
198.89895471131081
  0
LINE
  8
_0-1_0
  6
CONTINUOUS
 62
    7
 10
228.67168622472164
 20
159.8999381943824
 11
228.67168622472164
 21
169.39970069438249
  0
LINE
  8
_0-1_0
  6
CONTINUOUS
 62
    9
 10
229.17167372472173
 20
159.39995069438243
 11
229.17167372472173
 21
169.39970069438249
  0
LINE
  8
_0-1_0
  6
CONTINUOUS
 62
    7
 10
229.67166122472165
 20
159.59994569438254
 11
229.67166122472165
 21
167.59974569438242
  0
LINE
  8
_0-1_0
  6
CONTINUOUS
 62
    7
 10
230.6716362247216
 20
167.59974569438242
 11
230.6716362247216
 21
173.5995956943824
  0
LINE
  8
_0-1_0
  6
CONTINUOUS
 62
    7
 10
236.67148622472163
 20
167.59974569438242
 11
236.67148622472163
 21
173.5995956943824
  0
LINE
  8
_0-1_0
  6
CONTINUOUS
 62
    7
 10
237.67146122472164
 20
167.59974569438242
 11
237.67146122472164
 21
159.59994569438254
  0
LINE
  8
_0-1_0
  6
CONTINUOUS
 62
    9
 10
238.17144872472161
 20
159.39995069438243
 11
238.17144872472161
 21
169.39970069438249
  0
LINE
  8
_0-1_0
  6
CONTINUOUS
 62
    7
 10
238.67143622472165
 20
169.39970069438249
 11
238.67143622472165
 21
159.8999381943824
  0
LINE
  8
_0-1_0
  6
CONTINUOUS
 62
    7
 10
26.823073563510121
 20
159.39995069438243
 11
-2.1762014364898619
 21
159.39995069438243
  0
LINE
  8
_0-1_0
  6
CONTINUOUS
 62
    7
 10
53.322411063510117
 20
159.59994569438254
 11
27.323061063510124
 21
159.59994569438254
  0
LINE
  8
_0-1_0
  6
CONTINUOUS
 62
    7
 10
-28.675538936489858
 20
159.59994569438254
 11
-2.676188936489865
 21
159.59994569438254
  0
LINE
  8
_0-1_0
  6
CONTINUOUS
 62
    9
 10
27.323061063510124
 20
159.8999381943824
 11
-2.676188936489865
 21
159.8999381943824
  0
LINE
  8
_0-1_0
  6
CONTINUOUS
 62
    7
 10
53.322411063510117
 20
167.59974569438242
 11
27.323061063510124
 21
167.59974569438242
  0
LINE
  8
_0-1_0
  6
CONTINUOUS
 62
    7
 10
-28.675538936489858
 20
167.59974569438242
 11
-2.676188936489865
 21
167.59974569438242
  0
LINE
  8
_0-1_0
  6
CONTINUOUS
 62
    7
 10
-28.675538936489858
 20
167.59974569438242
 11
-28.675538936489858
 21
159.59994569438254
  0
LINE
  8
_0-1_0
  6
CONTINUOUS
 62
    7
 10
-27.675563936489851
 20
167.59974569438242
 11
-27.675563936489851
 21
173.5995956943824
  0
LINE
  8
_0-1_0
  6
CONTINUOUS
 62
    9
 10
-2.676188936489865
 20
169.39970069438249
 11
27.323061063510124
 21
169.39970069438249
  0
LINE
  8
_0-1_0
  6
CONTINUOUS
 62
    7
 10
-21.675713936489871
 20
167.59974569438242
 11
-21.675713936489871
 21
173.5995956943824
  0
LINE
  8
_0-1_0
  6
CONTINUOUS
 62
    7
 10
-27.675563936489851
 20
173.5995956943824
 11
-21.675713936489871
 21
173.5995956943824
  0
LINE
  8
_0-1_0
  6
CONTINUOUS
 62
    7
 10
46.32258606351013
 20
173.5995956943824
 11
52.322436063510111
 21
173.5995956943824
  0
LINE
  8
_0-1_0
  6
CONTINUOUS
 62
    7
 10
-12.175951436489854
 20
181.47610417047883
 11
-2.676188936489865
 21
181.47610417047883
  0
LINE
  8
_0-1_0
  6
CONTINUOUS
 62
    7
 10
27.323061063510124
 20
181.47610417047883
 11
36.822823563510127
 21
181.47610417047883
  0
LINE
  8
_0-1_0
  6
CONTINUOUS
 62
    7
 10
-12.675938936489871
 20
204.9755166704789
 11
-12.675938936489871
 21
181.97609167047892
  0
LINE
  8
_0-1_0
  6
CONTINUOUS
 62
    7
 10
-2.676188936489865
 20
198.89895471131081
 11
-2.676188936489865
 21
159.59994569438254
  0
LINE
  8
_0-1_0
  6
CONTINUOUS
 62
    9
 10
-2.1762014364898619
 20
159.39995069438243
 11
-2.1762014364898619
 21
199.39895069438239
  0
LINE
  8
_0-1_0
  6
CONTINUOUS
 62
    7
 10
-2.1762014364898619
 20
199.39895069438239
 11
26.823073563510121
 21
199.39895069438239
  0
LINE
  8
_0-1_0
  6
CONTINUOUS
 62
    7
 10
36.822823563510127
 20
205.47550417047881
 11
-12.175951436489854
 21
205.47550417047881
  0
LINE
  8
_0-1_0
  6
CONTINUOUS
 62
    9
 10
26.823073563510121
 20
159.39995069438243
 11
26.823073563510121
 21
199.39895069438239
  0
LINE
  8
_0-1_0
  6
CONTINUOUS
 62
    7
 10
27.323061063510124
 20
159.59994569438254
 11
27.323061063510124
 21
198.89895494279762
  0
LINE
  8
_0-1_0
  6
CONTINUOUS
 62
    7
 10
37.32281106351013
 20
204.9755166704789
 11
37.32281106351013
 21
181.97609167047892
  0
LINE
  8
_0-1_0
  6
CONTINUOUS
 62
    7
 10
46.32258606351013
 20
167.59974569438242
 11
46.32258606351013
 21
173.5995956943824
  0
LINE
  8
_0-1_0
  6
CONTINUOUS
 62
    7
 10
52.322436063510111
 20
167.59974569438242
 11
52.322436063510111
 21
173.5995956943824
  0
LINE
  8
_0-1_0
  6
CONTINUOUS
 62
    7
 10
53.322411063510117
 20
159.59994569438254
 11
53.322411063510117
 21
167.59974569438242
  0
LINE
  8
_0-1_0
  6
CONTINUOUS
 62
    7
 10
26.823073563510121
 20
-55.807072677615082
 11
-2.1762014364898619
 21
-55.807072677615082
  0
LINE
  8
_0-1_0
  6
CONTINUOUS
 62
    7
 10
53.322411063510117
 20
-54.807097677615076
 11
27.323061063510124
 21
-54.807097677615076
  0
LINE
  8
_0-1_0
  6
CONTINUOUS
 62
    7
 10
-28.675538936489858
 20
-54.807097677615076
 11
-2.676188936489865
 21
-54.807097677615076
  0
LINE
  8
_0-1_0
  6
CONTINUOUS
 62
    7
 10
-27.675563936489851
 20
-53.80712267761507
 11
-21.675713936489871
 21
-53.80712267761507
  0
LINE
  8
_0-1_0
  6
CONTINUOUS
 62
    7
 10
46.32258606351013
 20
-53.80712267761507
 11
52.322436063510111
 21
-53.80712267761507
  0
LINE
  8
_0-1_0
  6
CONTINUOUS
 62
    7
 10
52.322436063510111
 20
-47.807272677615089
 11
46.32258606351013
 21
-47.807272677615089
  0
LINE
  8
_0-1_0
  6
CONTINUOUS
 62
    7
 10
-21.675713936489871
 20
-47.807272677615089
 11
-27.675563936489851
 21
-47.807272677615089
  0
LINE
  8
_0-1_0
  6
CONTINUOUS
 62
    7
 10
53.322411063510117
 20
-46.807297677615082
 11
27.323061063510124
 21
-46.807297677615082
  0
LINE
  8
_0-1_0
  6
CONTINUOUS
 62
    7
 10
-28.675538936489858
 20
-46.807297677615082
 11
-2.676188936489865
 21
-46.807297677615082
  0
LINE
  8
_0-1_0
  6
CONTINUOUS
 62
    9
 10
-2.676188936489865
 20
-25.807822677615093
 11
27.323061063510124
 21
-25.807822677615093
  0
LINE
  8
_0-1_0
  6
CONTINUOUS
 62
    7
 10
22.164023649834121
 20
35.289894136501402
 11
22.204908880662828
 21
35.309602783175933
  0
LINE
  8
_0-1_0
  6
CONTINUOUS
 62
    7
 10
-28.675538936489858
 20
-46.807297677615082
 11
-28.675538936489858
 21
-54.807097677615076
  0
LINE
  8
_0-1_0
  6
CONTINUOUS
 62
    7
 10
-27.675563936489851
 20
-47.807272677615089
 11
-27.675563936489851
 21
-53.80712267761507
  0
LINE
  8
_0-1_0
  6
CONTINUOUS
 62
    7
 10
3.056509963051667
 20
51.679957998989209
 11
3.886160212172399
 21
52.98179168875123
  0
LINE
  8
_0-1_0
  6
CONTINUOUS
 62
    7
 10
3.1565074630516534
 20
51.679957998989209
 11
3.9861577121723997
 21
52.98179168875123
  0
LINE
  8
_0-1_0
  6
CONTINUOUS
 62
    7
 10
5.1718676118181577
 20
21.085106087468915
 11
5.0982845714401464
 21
21.048281227964111
  0
LINE
  8
_0-1_0
  6
CONTINUOUS
 62
    7
 10
4.7584394770336473
 20
20.885224652241618
 11
4.7346231987241367
 21
20.873504601071204
  0
LINE
  8
_0-1_0
  6
CONTINUOUS
 62
    7
 10
4.7346231987241367
 20
20.873504601071204
 11
4.7122329686431499
 21
20.86170815404941
  0
LINE
  8
_0-1_0
  6
CONTINUOUS
 62
    7
 10
4.7122329686431499
 20
20.86170815404941
 11
4.6912447096314196
 21
20.849808336626921
  0
LINE
  8
_0-1_0
  6
CONTINUOUS
 62
    7
 10
4.6912447096314196
 20
20.849808336626921
 11
4.6716360731431479
 21
20.837775346265204
  0
LINE
  8
_0-1_0
  6
CONTINUOUS
 62
    7
 10
4.6716360731431479
 20
20.837775346265204
 11
4.6533621023919096
 21
20.825561329682927
  0
LINE
  8
_0-1_0
  6
CONTINUOUS
 62
    7
 10
4.6533621023919096
 20
20.825561329682927
 11
4.6363821527221489
 21
20.813111996744908
  0
LINE
  8
_0-1_0
  6
CONTINUOUS
 62
    7
 10
4.6363821527221489
 20
20.813111996744908
 11
4.620680213340151
 21
20.800380832942409
  0
LINE
  8
_0-1_0
  6
CONTINUOUS
 62
    7
 10
4.620680213340151
 20
20.800380832942409
 11
4.6062274748169187
 21
20.787300630254208
  0
LINE
  8
_0-1_0
  6
CONTINUOUS
 62
    7
 10
4.6062274748169187
 20
20.787300630254208
 11
4.5929771656351477
 21
20.77376770216793
  0
LINE
  8
_0-1_0
  6
CONTINUOUS
 62
    7
 10
4.5929771656351477
 20
20.77376770216793
 11
4.580975561652906
 21
20.759751796604206
  0
LINE
  8
_0-1_0
  6
CONTINUOUS
 62
    7
 10
4.580975561652906
 20
20.759751796604206
 11
4.5703184195806443
 21
20.745295939054415
  0
LINE
  8
_0-1_0
  6
CONTINUOUS
 62
    7
 10
4.5703184195806443
 20
20.745295939054415
 11
4.561052908537647
 21
20.730411554606206
  0
LINE
  8
_0-1_0
  6
CONTINUOUS
 62
    7
 10
4.561052908537647
 20
20.730411554606206
 11
4.5531771673763899
 21
20.715027036094426
  0
LINE
  8
_0-1_0
  6
CONTINUOUS
 62
    7
 10
4.5531771673763899
 20
20.715027036094426
 11
4.5467342908403907
 21
20.699107539614204
  0
LINE
  8
_0-1_0
  6
CONTINUOUS
 62
    7
 10
4.5467342908403907
 20
20.699107539614204
 11
4.5418025726438884
 21
20.682670572041218
  0
LINE
  8
_0-1_0
  6
CONTINUOUS
 62
    7
 10
4.5418025726438884
 20
20.682670572041218
 11
4.5384739057133885
 21
20.665780417439919
  0
LINE
  8
_0-1_0
  6
CONTINUOUS
 62
    7
 10
4.5384739057133885
 20
20.665780417439919
 11
4.5368360060649024
 21
20.648533567577203
  0
LINE
  8
_0-1_0
  6
CONTINUOUS
 62
    7
 10
4.5368360060649024
 20
20.648533567577203
 11
4.5369679354531485
 21
20.630949556442118
  0
LINE
  8
_0-1_0
  6
CONTINUOUS
 62
    7
 10
4.5369679354531485
 20
20.630949556442118
 11
4.5389443518623978
 21
20.613224398985125
  0
LINE
  8
_0-1_0
  6
CONTINUOUS
 62
    7
 10
4.5389443518623978
 20
20.613224398985125
 11
4.5427450208731557
 21
20.595733681040116
  0
LINE
  8
_0-1_0
  6
CONTINUOUS
 62
    7
 10
4.5427450208731557
 20
20.595733681040116
 11
4.5483108409779049
 21
20.578618612509729
  0
LINE
  8
_0-1_0
  6
CONTINUOUS
 62
    7
 10
4.5483108409779049
 20
20.578618612509729
 11
4.5556079867536425
 21
20.561895185232714
  0
LINE
  8
_0-1_0
  6
CONTINUOUS
 62
    7
 10
4.5556079867536425
 20
20.561895185232714
 11
4.5645526950706596
 21
20.545677567250522
  0
LINE
  8
_0-1_0
  6
CONTINUOUS
 62
    7
 10
4.5645526950706596
 20
20.545677567250522
 11
4.5751168367814046
 21
20.529942469891409
  0
LINE
  8
_0-1_0
  6
CONTINUOUS
 62
    7
 10
4.5751168367814046
 20
20.529942469891409
 11
4.5872737571791475
 21
20.514678060615722
  0
LINE
  8
_0-1_0
  6
CONTINUOUS
 62
    7
 10
4.5872737571791475
 20
20.514678060615722
 11
4.6009329476311507
 21
20.499934658165216
  0
LINE
  8
_0-1_0
  6
CONTINUOUS
 62
    7
 10
4.6009329476311507
 20
20.499934658165216
 11
4.6160745174406514
 21
20.485659742957409
  0
LINE
  8
_0-1_0
  6
CONTINUOUS
 62
    7
 10
4.6160745174406514
 20
20.485659742957409
 11
4.6327494475718822
 21
20.471749627883128
  0
LINE
  8
_0-1_0
  6
CONTINUOUS
 62
    7
 10
4.6327494475718822
 20
20.471749627883128
 11
4.6509567841681445
 21
20.458163080838915
  0
LINE
  8
_0-1_0
  6
CONTINUOUS
 62
    7
 10
4.6509567841681445
 20
20.458163080838915
 11
4.6706976094411488
 21
20.444858653905726
  0
LINE
  8
_0-1_0
  6
CONTINUOUS
 62
    7
 10
4.6706976094411488
 20
20.444858653905726
 11
4.6920552763816374
 21
20.431747140059912
  0
LINE
  8
_0-1_0
  6
CONTINUOUS
 62
    7
 10
4.6920552763816374
 20
20.431747140059912
 11
4.7151255794604054
 21
20.418751558539725
  0
LINE
  8
_0-1_0
  6
CONTINUOUS
 62
    7
 10
4.7151255794604054
 20
20.418751558539725
 11
4.7399456550623995
 21
20.405840056260615
  0
LINE
  8
_0-1_0
  6
CONTINUOUS
 62
    7
 10
4.7399456550623995
 20
20.405840056260615
 11
4.7662661146463847
 21
20.393116107203213
  0
LINE
  8
_0-1_0
  6
CONTINUOUS
 62
    7
 10
5.0982845714401464
 20
21.048281227964111
 11
5.0042949464633892
 21
21.002163097364217
  0
LINE
  8
_0-1_0
  6
CONTINUOUS
 62
    7
 10
5.0042949464633892
 20
21.002163097364217
 11
4.9062088027081501
 21
20.954953825386724
  0
LINE
  8
_0-1_0
  6
CONTINUOUS
 62
    7
 10
7.1442197743186284
 20
21.280490110358215
 11
7.2423024298028196
 21
21.327686156547003
  0
LINE
  8
_0-1_0
  6
CONTINUOUS
 62
    7
 10
4.9062088027081501
 20
20.954953825386724
 11
4.804064749955387
 21
20.906618214852017
  0
LINE
  8
_0-1_0
  6
CONTINUOUS
 62
    7
 10
7.2423024298028196
 20
21.327686156547003
 11
7.3444446749888215
 21
21.376010946904415
  0
LINE
  8
_0-1_0
  6
CONTINUOUS
 62
    7
 10
7.3444446749888215
 20
21.376010946904415
 11
7.3764479953336206
 21
21.390997322384919
  0
LINE
  8
_0-1_0
  6
CONTINUOUS
 62
    7
 10
4.804064749955387
 20
20.906618214852017
 11
4.7584394770336473
 21
20.885224652241618
  0
LINE
  8
_0-1_0
  6
CONTINUOUS
 62
    7
 10
-21.675713936489871
 20
-53.80712267761507
 11
-21.675713936489871
 21
-47.807272677615089
  0
LINE
  8
_0-1_0
  6
CONTINUOUS
 62
    7
 10
5.1718703124969068
 20
15.085257452210925
 11
5.1229726487003973
 21
15.060710020240407
  0
LINE
  8
_0-1_0
  6
CONTINUOUS
 62
    7
 10
5.1718676118181577
 20
19.085156087468903
 11
5.0982845714401464
 21
19.048331227964212
  0
LINE
  8
_0-1_0
  6
CONTINUOUS
 62
    7
 10
5.1718676118181577
 20
17.085206087468919
 11
5.0982845714401464
 21
17.048381227964228
  0
LINE
  8
_0-1_0
  6
CONTINUOUS
 62
    7
 10
6.9753168765489164
 20
21.196900987153413
 11
7.05023511847142
 21
21.234387835779728
  0
LINE
  8
_0-1_0
  6
CONTINUOUS
 62
    7
 10
6.9753168765489164
 20
19.196950987153429
 11
7.05023511847142
 21
19.234437835779715
  0
LINE
  8
_0-1_0
  6
CONTINUOUS
 62
    7
 10
6.9753168765489164
 20
17.197000987153416
 11
7.05023511847142
 21
17.234487835779618
  0
LINE
  8
_0-1_0
  6
CONTINUOUS
 62
    7
 10
6.9753168765489164
 20
15.197050987153517
 11
7.05023511847142
 21
15.234537835779605
  0
LINE
  8
_0-1_0
  6
CONTINUOUS
 62
    7
 10
5.1229726487003973
 20
15.060710020240407
 11
5.0558689014106477
 21
15.02750144390842
  0
LINE
  8
_0-1_0
  6
CONTINUOUS
 62
    7
 10
4.7579701942883901
 20
18.885050692169216
 11
4.7341894265836402
 21
18.873333947930917
  0
LINE
  8
_0-1_0
  6
CONTINUOUS
 62
    7
 10
4.7341894265836402
 20
18.873333947930917
 11
4.7122757998111666
 21
18.861781791816725
  0
LINE
  8
_0-1_0
  6
CONTINUOUS
 62
    7
 10
4.7122757998111666
 20
18.861781791816725
 11
4.6922191846718988
 21
18.850431258870714
  0
LINE
  8
_0-1_0
  6
CONTINUOUS
 62
    7
 10
4.6922191846718988
 20
18.850431258870714
 11
4.673806677831891
 21
18.839207253806222
  0
LINE
  8
_0-1_0
  6
CONTINUOUS
 62
    7
 10
4.673806677831891
 20
18.839207253806222
 11
4.6566755707471543
 21
18.82790896015112
  0
LINE
  8
_0-1_0
  6
CONTINUOUS
 62
    7
 10
4.6566755707471543
 20
18.82790896015112
 11
4.6407730833938956
 21
18.816499046749414
  0
LINE
  8
_0-1_0
  6
CONTINUOUS
 62
    7
 10
4.6407730833938956
 20
18.816499046749414
 11
4.6260594045286467
 21
18.804944573976712
  0
LINE
  8
_0-1_0
  6
CONTINUOUS
 62
    7
 10
4.6260594045286467
 20
18.804944573976712
 11
4.6122856138073871
 21
18.793017510071223
  0
LINE
  8
_0-1_0
  6
CONTINUOUS
 62
    7
 10
4.6122856138073871
 20
18.793017510071223
 11
4.5993820916274188
 21
18.780574627718124
  0
LINE
  8
_0-1_0
  6
CONTINUOUS
 62
    7
 10
4.5993820916274188
 20
18.780574627718124
 11
4.5874770270226577
 21
18.767639887661915
  0
LINE
  8
_0-1_0
  6
CONTINUOUS
 62
    7
 10
4.5874770270226577
 20
18.767639887661915
 11
4.5766573133431478
 21
18.75421656519373
  0
LINE
  8
_0-1_0
  6
CONTINUOUS
 62
    7
 10
4.5766573133431478
 20
18.75421656519373
 11
4.5669127766641395
 21
18.740179700153902
  0
LINE
  8
_0-1_0
  6
CONTINUOUS
 62
    7
 10
4.5669127766641395
 20
18.740179700153902
 11
4.5583617550718998
 21
18.725560441017706
  0
LINE
  8
_0-1_0
  6
CONTINUOUS
 62
    7
 10
4.5583617550718998
 20
18.725560441017706
 11
4.5512133078173918
 21
18.710645943143106
  0
LINE
  8
_0-1_0
  6
CONTINUOUS
 62
    7
 10
4.5512133078173918
 20
18.710645943143106
 11
4.5455190280883926
 21
18.695593442897916
  0
LINE
  8
_0-1_0
  6
CONTINUOUS
 62
    7
 10
4.5455190280883926
 20
18.695593442897916
 11
4.5412213923976452
 21
18.680309673956913
  0
LINE
  8
_0-1_0
  6
CONTINUOUS
 62
    7
 10
4.5412213923976452
 20
18.680309673956913
 11
4.5383230679918967
 21
18.664770623189213
  0
LINE
  8
_0-1_0
  6
CONTINUOUS
 62
    7
 10
4.5383230679918967
 20
18.664770623189213
 11
4.5368568952441422
 21
18.649035390012727
  0
LINE
  8
_0-1_0
  6
CONTINUOUS
 62
    7
 10
4.5368568952441422
 20
18.649035390012727
 11
4.5368521408854008
 21
18.633191611490219
  0
LINE
  8
_0-1_0
  6
CONTINUOUS
 62
    7
 10
4.5368521408854008
 20
18.633191611490219
 11
4.5383337147406593
 21
18.617280489875213
  0
LINE
  8
_0-1_0
  6
CONTINUOUS
 62
    7
 10
4.5383337147406593
 20
18.617280489875213
 11
4.5413404753906548
 21
18.601315455876716
  0
LINE
  8
_0-1_0
  6
CONTINUOUS
 62
    7
 10
4.5413404753906548
 20
18.601315455876716
 11
4.5458828345153961
 21
18.585447331544913
  0
LINE
  8
_0-1_0
  6
CONTINUOUS
 62
    7
 10
4.5458828345153961
 20
18.585447331544913
 11
4.5519034074301459
 21
18.569895385427913
  0
LINE
  8
_0-1_0
  6
CONTINUOUS
 62
    7
 10
4.5519034074301459
 20
18.569895385427913
 11
4.5593788518826415
 21
18.554681844432707
  0
LINE
  8
_0-1_0
  6
CONTINUOUS
 62
    7
 10
4.5593788518826415
 20
18.554681844432707
 11
4.5682814552821469
 21
18.539837769573722
  0
LINE
  8
_0-1_0
  6
CONTINUOUS
 62
    7
 10
4.5682814552821469
 20
18.539837769573722
 11
4.5784770038198985
 21
18.525520988845415
  0
LINE
  8
_0-1_0
  6
CONTINUOUS
 62
    7
 10
4.5784770038198985
 20
18.525520988845415
 11
4.5898913260666632
 21
18.511734228299218
  0
LINE
  8
_0-1_0
  6
CONTINUOUS
 62
    7
 10
4.5898913260666632
 20
18.511734228299218
 11
4.6025382685419061
 21
18.498380744831223
  0
LINE
  8
_0-1_0
  6
CONTINUOUS
 62
    7
 10
4.6025382685419061
 20
18.498380744831223
 11
4.6163949104754067
 21
18.485425884382408
  0
LINE
  8
_0-1_0
  6
CONTINUOUS
 62
    7
 10
4.6163949104754067
 20
18.485425884382408
 11
4.6314303786091386
 21
18.472843119556416
  0
LINE
  8
_0-1_0
  6
CONTINUOUS
 62
    7
 10
4.6314303786091386
 20
18.472843119556416
 11
4.6477037945994084
 21
18.460537938238417
  0
LINE
  8
_0-1_0
  6
CONTINUOUS
 62
    7
 10
4.6477037945994084
 20
18.460537938238417
 11
4.6653478243831614
 21
18.448388905106214
  0
LINE
  8
_0-1_0
  6
CONTINUOUS
 62
    7
 10
4.6653478243831614
 20
18.448388905106214
 11
4.6844206288944008
 21
18.436350606817427
  0
LINE
  8
_0-1_0
  6
CONTINUOUS
 62
    7
 10
4.6844206288944008
 20
18.436350606817427
 11
4.7049769985544145
 21
18.424386604432414
  0
LINE
  8
_0-1_0
  6
CONTINUOUS
 62
    7
 10
4.7049769985544145
 20
18.424386604432414
 11
4.7271585289276601
 21
18.412418700950923
  0
LINE
  8
_0-1_0
  6
CONTINUOUS
 62
    7
 10
4.7271585289276601
 20
18.412418700950923
 11
4.7510573318903937
 21
18.400408726133207
  0
LINE
  8
_0-1_0
  6
CONTINUOUS
 62
    7
 10
4.7510573318903937
 20
18.400408726133207
 11
4.7661755675071475
 21
18.393208124660106
  0
LINE
  8
_0-1_0
  6
CONTINUOUS
 62
    7
 10
19.758064477033628
 20
20.885224652241618
 11
19.734248198724117
 21
20.873504601071204
  0
LINE
  8
_0-1_0
  6
CONTINUOUS
 62
    7
 10
19.734248198724117
 20
20.873504601071204
 11
19.711857968643116
 21
20.86170815404941
  0
LINE
  8
_0-1_0
  6
CONTINUOUS
 62
    7
 10
19.711857968643116
 20
20.86170815404941
 11
19.690869709631329
 21
20.849808336626921
  0
LINE
  8
_0-1_0
  6
CONTINUOUS
 62
    7
 10
19.690869709631329
 20
20.849808336626921
 11
19.671261073143128
 21
20.837775346265204
  0
LINE
  8
_0-1_0
  6
CONTINUOUS
 62
    7
 10
19.671261073143128
 20
20.837775346265204
 11
19.652987102391918
 21
20.825561329682927
  0
LINE
  8
_0-1_0
  6
CONTINUOUS
 62
    7
 10
19.652987102391918
 20
20.825561329682927
 11
19.636007152722129
 21
20.813111996744908
  0
LINE
  8
_0-1_0
  6
CONTINUOUS
 62
    7
 10
19.636007152722129
 20
20.813111996744908
 11
19.620305213340117
 21
20.800380832942409
  0
LINE
  8
_0-1_0
  6
CONTINUOUS
 62
    7
 10
19.620305213340117
 20
20.800380832942409
 11
19.605852474816928
 21
20.787300630254208
  0
LINE
  8
_0-1_0
  6
CONTINUOUS
 62
    7
 10
19.605852474816928
 20
20.787300630254208
 11
19.592602165635128
 21
20.77376770216793
  0
LINE
  8
_0-1_0
  6
CONTINUOUS
 62
    7
 10
19.592602165635128
 20
20.77376770216793
 11
19.58060056165283
 21
20.759751796604206
  0
LINE
  8
_0-1_0
  6
CONTINUOUS
 62
    7
 10
19.58060056165283
 20
20.759751796604206
 11
19.569943419580625
 21
20.745295939054415
  0
LINE
  8
_0-1_0
  6
CONTINUOUS
 62
    7
 10
19.569943419580625
 20
20.745295939054415
 11
19.560677908537627
 21
20.730411554606206
  0
LINE
  8
_0-1_0
  6
CONTINUOUS
 62
    7
 10
19.560677908537627
 20
20.730411554606206
 11
19.552802167376427
 21
20.715027036094426
  0
LINE
  8
_0-1_0
  6
CONTINUOUS
 62
    7
 10
19.552802167376427
 20
20.715027036094426
 11
19.546359290840428
 21
20.699107539614204
  0
LINE
  8
_0-1_0
  6
CONTINUOUS
 62
    7
 10
19.546359290840428
 20
20.699107539614204
 11
19.541427572643826
 21
20.682670572041218
  0
LINE
  8
_0-1_0
  6
CONTINUOUS
 62
    7
 10
19.541427572643826
 20
20.682670572041218
 11
19.538098905713326
 21
20.665780417439919
  0
LINE
  8
_0-1_0
  6
CONTINUOUS
 62
    7
 10
19.538098905713326
 20
20.665780417439919
 11
19.536461006064826
 21
20.648533567577203
  0
LINE
  8
_0-1_0
  6
CONTINUOUS
 62
    7
 10
19.536461006064826
 20
20.648533567577203
 11
19.536592935453129
 21
20.630949556442118
  0
LINE
  8
_0-1_0
  6
CONTINUOUS
 62
    7
 10
19.536592935453129
 20
20.630949556442118
 11
19.538569351862321
 21
20.613224398985125
  0
LINE
  8
_0-1_0
  6
CONTINUOUS
 62
    7
 10
19.538569351862321
 20
20.613224398985125
 11
19.542370020873122
 21
20.595733681040116
  0
LINE
  8
_0-1_0
  6
CONTINUOUS
 62
    7
 10
19.542370020873122
 20
20.595733681040116
 11
19.547935840977829
 21
20.578618612509729
  0
LINE
  8
_0-1_0
  6
CONTINUOUS
 62
    7
 10
19.547935840977829
 20
20.578618612509729
 11
19.555232986753623
 21
20.561895185232714
  0
LINE
  8
_0-1_0
  6
CONTINUOUS
 62
    7
 10
19.555232986753623
 20
20.561895185232714
 11
19.564177695070626
 21
20.545677567250522
  0
LINE
  8
_0-1_0
  6
CONTINUOUS
 62
    7
 10
19.564177695070626
 20
20.545677567250522
 11
19.574741836781328
 21
20.529942469891409
  0
LINE
  8
_0-1_0
  6
CONTINUOUS
 62
    7
 10
19.574741836781328
 20
20.529942469891409
 11
19.586898757179128
 21
20.514678060615722
  0
LINE
  8
_0-1_0
  6
CONTINUOUS
 62
    7
 10
19.586898757179128
 20
20.514678060615722
 11
19.600557947631117
 21
20.499934658165216
  0
LINE
  8
_0-1_0
  6
CONTINUOUS
 62
    7
 10
19.600557947631117
 20
20.499934658165216
 11
19.615699517440618
 21
20.485659742957409
  0
LINE
  8
_0-1_0
  6
CONTINUOUS
 62
    7
 10
19.615699517440618
 20
20.485659742957409
 11
19.63237444757182
 21
20.471749627883128
  0
LINE
  8
_0-1_0
  6
CONTINUOUS
 62
    7
 10
19.63237444757182
 20
20.471749627883128
 11
19.650581784168125
 21
20.458163080838915
  0
LINE
  8
_0-1_0
  6
CONTINUOUS
 62
    7
 10
19.650581784168125
 20
20.458163080838915
 11
19.670322609441129
 21
20.444858653905726
  0
LINE
  8
_0-1_0
  6
CONTINUOUS
 62
    7
 10
19.670322609441129
 20
20.444858653905726
 11
19.691680276381618
 21
20.431747140059912
  0
LINE
  8
_0-1_0
  6
CONTINUOUS
 62
    7
 10
19.691680276381618
 20
20.431747140059912
 11
19.714750579460329
 21
20.418751558539725
  0
LINE
  8
_0-1_0
  6
CONTINUOUS
 62
    7
 10
19.714750579460329
 20
20.418751558539725
 11
19.739570655062423
 21
20.405840056260615
  0
LINE
  8
_0-1_0
  6
CONTINUOUS
 62
    7
 10
19.739570655062423
 20
20.405840056260615
 11
19.765891114646323
 21
20.393116107203213
  0
LINE
  8
_0-1_0
  6
CONTINUOUS
 62
    7
 10
5.0982845714401464
 20
19.048331227964212
 11
5.0042949464633892
 21
19.00221309736412
  0
LINE
  8
_0-1_0
  6
CONTINUOUS
 62
    7
 10
5.0982845714401464
 20
17.048381227964228
 11
5.0042949464633892
 21
17.002263097364221
  0
LINE
  8
_0-1_0
  6
CONTINUOUS
 62
    7
 10
20.097909571440127
 20
21.048281227964111
 11
20.003919946463427
 21
21.002163097364217
  0
LINE
  8
_0-1_0
  6
CONTINUOUS
 62
    7
 10
7.05023511847142
 20
21.234387835779728
 11
7.1442197743186284
 21
21.280490110358215
  0
LINE
  8
_0-1_0
  6
CONTINUOUS
 62
    7
 10
7.05023511847142
 20
19.234437835779715
 11
7.1442197741694287
 21
19.280540110358203
  0
LINE
  8
_0-1_0
  6
CONTINUOUS
 62
    7
 10
7.05023511847142
 20
17.234487835779618
 11
7.1442197743186284
 21
17.280590110358105
  0
LINE
  8
_0-1_0
  6
CONTINUOUS
 62
    7
 10
7.05023511847142
 20
15.234537835779605
 11
7.1442197743186284
 21
15.280640110358206
  0
LINE
  8
_0-1_0
  6
CONTINUOUS
 62
    7
 10
7.3836842944216272
 20
19.394437185397408
 11
7.410778762714628
 21
19.40764780407892
  0
LINE
  8
_0-1_0
  6
CONTINUOUS
 62
    7
 10
7.410778762714628
 20
19.40764780407892
 11
7.435875780198927
 21
19.420854235700915
  0
LINE
  8
_0-1_0
  6
CONTINUOUS
 62
    7
 10
7.435875780198927
 20
19.420854235700915
 11
7.4590222803279289
 21
19.43407666990791
  0
LINE
  8
_0-1_0
  6
CONTINUOUS
 62
    7
 10
7.4590222803279289
 20
19.43407666990791
 11
7.4803234758443296
 21
19.447370735010708
  0
LINE
  8
_0-1_0
  6
CONTINUOUS
 62
    7
 10
7.4803234758443296
 20
19.447370735010708
 11
7.4999053612103239
 21
19.460819074763918
  0
LINE
  8
_0-1_0
  6
CONTINUOUS
 62
    7
 10
7.4999053612103239
 20
19.460819074763918
 11
7.5178426163498244
 21
19.474488705253407
  0
LINE
  8
_0-1_0
  6
CONTINUOUS
 62
    7
 10
7.5178426163498244
 20
19.474488705253407
 11
7.5341875166724179
 21
19.48844238341772
  0
LINE
  8
_0-1_0
  6
CONTINUOUS
 62
    7
 10
7.5341875166724179
 20
19.48844238341772
 11
7.5490290936833162
 21
19.502793523883923
  0
LINE
  8
_0-1_0
  6
CONTINUOUS
 62
    7
 10
7.5490290936833162
 20
19.502793523883923
 11
7.5624368340038188
 21
19.517681032880915
  0
LINE
  8
_0-1_0
  6
CONTINUOUS
 62
    7
 10
7.5624368340038188
 20
19.517681032880915
 11
7.5743438833351178
 21
19.533125280794906
  0
LINE
  8
_0-1_0
  6
CONTINUOUS
 62
    7
 10
7.5743438833351178
 20
19.533125280794906
 11
7.5846318083693234
 21
19.549044275496726
  0
LINE
  8
_0-1_0
  6
CONTINUOUS
 62
    7
 10
7.5846318083693234
 20
19.549044275496726
 11
7.593285959323623
 21
19.565473402668715
  0
LINE
  8
_0-1_0
  6
CONTINUOUS
 62
    7
 10
7.593285959323623
 20
19.565473402668715
 11
7.6002562764046218
 21
19.582400375603214
  0
LINE
  8
_0-1_0
  6
CONTINUOUS
 62
    7
 10
7.6002562764046218
 20
19.582400375603214
 11
7.6054294954291208
 21
19.599576637529225
  0
LINE
  8
_0-1_0
  6
CONTINUOUS
 62
    7
 10
7.6054294954291208
 20
19.599576637529225
 11
7.6088002336958169
 21
19.61689960280242
  0
LINE
  8
_0-1_0
  6
CONTINUOUS
 62
    7
 10
7.6088002336958169
 20
19.61689960280242
 11
7.6103804326973261
 21
19.634294145689211
  0
LINE
  8
_0-1_0
  6
CONTINUOUS
 62
    7
 10
7.6103804326973261
 20
19.634294145689211
 11
7.6101940485511221
 21
19.651483818175421
  0
LINE
  8
_0-1_0
  6
CONTINUOUS
 62
    7
 10
7.6101940485511221
 20
19.651483818175421
 11
7.6083382340521268
 21
19.668232211992404
  0
LINE
  8
_0-1_0
  6
CONTINUOUS
 62
    7
 10
7.6083382340521268
 20
19.668232211992404
 11
7.6049030711273247
 21
19.684579790904621
  0
LINE
  8
_0-1_0
  6
CONTINUOUS
 62
    7
 10
7.6049030711273247
 20
19.684579790904621
 11
7.5998982305798251
 21
19.700678828120203
  0
LINE
  8
_0-1_0
  6
CONTINUOUS
 62
    7
 10
7.5998982305798251
 20
19.700678828120203
 11
7.5932770420838267
 21
19.716627623868021
  0
LINE
  8
_0-1_0
  6
CONTINUOUS
 62
    7
 10
7.5932770420838267
 20
19.716627623868021
 11
7.58510476490342
 21
19.732226616122205
  0
LINE
  8
_0-1_0
  6
CONTINUOUS
 62
    7
 10
7.58510476490342
 20
19.732226616122205
 11
7.5755436711008173
 21
19.747245956151716
  0
LINE
  8
_0-1_0
  6
CONTINUOUS
 62
    7
 10
7.5755436711008173
 20
19.747245956151716
 11
7.564651883850118
 21
19.761712989242909
  0
LINE
  8
_0-1_0
  6
CONTINUOUS
 62
    7
 10
7.564651883850118
 20
19.761712989242909
 11
7.552460381331926
 21
19.77567967305211
  0
LINE
  8
_0-1_0
  6
CONTINUOUS
 62
    7
 10
7.552460381331926
 20
19.77567967305211
 11
7.5391766974621248
 21
19.789020992794406
  0
LINE
  8
_0-1_0
  6
CONTINUOUS
 62
    7
 10
7.5391766974621248
 20
19.789020992794406
 11
7.5249852779281241
 21
19.80169795974291
  0
LINE
  8
_0-1_0
  6
CONTINUOUS
 62
    7
 10
7.5249852779281241
 20
19.80169795974291
 11
7.5098099525446287
 21
19.813899327686215
  0
LINE
  8
_0-1_0
  6
CONTINUOUS
 62
    7
 10
7.5098099525446287
 20
19.813899327686215
 11
7.4934719462288228
 21
19.825831399973907
  0
LINE
  8
_0-1_0
  6
CONTINUOUS
 62
    7
 10
7.4934719462288228
 20
19.825831399973907
 11
7.4760488651004238
 21
19.837479619955218
  0
LINE
  8
_0-1_0
  6
CONTINUOUS
 62
    7
 10
7.4760488651004238
 20
19.837479619955218
 11
7.4574368014583285
 21
19.848948398452421
  0
LINE
  8
_0-1_0
  6
CONTINUOUS
 62
    7
 10
7.4574368014583285
 20
19.848948398452421
 11
7.437060655949324
 21
19.860577436525119
  0
LINE
  8
_0-1_0
  6
CONTINUOUS
 62
    7
 10
7.437060655949324
 20
19.860577436525119
 11
7.4146058158418242
 21
19.872486181784211
  0
LINE
  8
_0-1_0
  6
CONTINUOUS
 62
    7
 10
7.4146058158418242
 20
19.872486181784211
 11
7.3901169568846257
 21
19.884594760106921
  0
LINE
  8
_0-1_0
  6
CONTINUOUS
 62
    7
 10
7.3901169568846257
 20
19.884594760106921
 11
7.381120577172922
 21
19.888846772162225
  0
LINE
  8
_0-1_0
  6
CONTINUOUS
 62
    7
 10
5.0558689014106477
 20
15.02750144390842
 11
4.9868159670309069
 21
14.993836657489425
  0
LINE
  8
_0-1_0
  6
CONTINUOUS
 62
    7
 10
7.3809202599421297
 20
15.393241904496705
 11
7.4066107096051184
 21
15.405650642927213
  0
LINE
  8
_0-1_0
  6
CONTINUOUS
 62
    7
 10
7.4066107096051184
 20
15.405650642927213
 11
7.4308538432131286
 21
15.418225951223206
  0
LINE
  8
_0-1_0
  6
CONTINUOUS
 62
    7
 10
7.4308538432131286
 20
15.418225951223206
 11
7.4534236573118164
 21
15.430873192795417
  0
LINE
  8
_0-1_0
  6
CONTINUOUS
 62
    7
 10
7.4534236573118164
 20
15.430873192795417
 11
7.4743525112416194
 21
15.443618779520904
  0
LINE
  8
_0-1_0
  6
CONTINUOUS
 62
    7
 10
7.4743525112416194
 20
15.443618779520904
 11
7.493809368240818
 21
15.456586223834222
  0
LINE
  8
_0-1_0
  6
CONTINUOUS
 62
    7
 10
7.493809368240818
 20
15.456586223834222
 11
7.5118873046394299
 21
15.469883209311718
  0
LINE
  8
_0-1_0
  6
CONTINUOUS
 62
    7
 10
7.5118873046394299
 20
15.469883209311718
 11
7.5285353967849176
 21
15.483527234321912
  0
LINE
  8
_0-1_0
  6
CONTINUOUS
 62
    7
 10
7.5285353967849176
 20
15.483527234321912
 11
7.5437236384126294
 21
15.497544334631925
  0
LINE
  8
_0-1_0
  6
CONTINUOUS
 62
    7
 10
7.5437236384126294
 20
15.497544334631925
 11
7.5575082772209186
 21
15.512051135833417
  0
LINE
  8
_0-1_0
  6
CONTINUOUS
 62
    7
 10
7.5575082772209186
 20
15.512051135833417
 11
7.5698471253091242
 21
15.527088081691403
  0
LINE
  8
_0-1_0
  6
CONTINUOUS
 62
    7
 10
7.5698471253091242
 20
15.527088081691403
 11
7.5806068452646258
 21
15.542552828197415
  0
LINE
  8
_0-1_0
  6
CONTINUOUS
 62
    7
 10
7.5806068452646258
 20
15.542552828197415
 11
7.5897496390771266
 21
15.558411327545912
  0
LINE
  8
_0-1_0
  6
CONTINUOUS
 62
    7
 10
7.5897496390771266
 20
15.558411327545912
 11
7.5972966865156195
 21
15.574736513883721
  0
LINE
  8
_0-1_0
  6
CONTINUOUS
 62
    7
 10
7.5972966865156195
 20
15.574736513883721
 11
7.6032033354129283
 21
15.591514323084709
  0
LINE
  8
_0-1_0
  6
CONTINUOUS
 62
    7
 10
7.6032033354129283
 20
15.591514323084709
 11
7.6074223599346169
 21
15.608755259214718
  0
LINE
  8
_0-1_0
  6
CONTINUOUS
 62
    7
 10
7.6074223599346169
 20
15.608755259214718
 11
7.6098687557881277
 21
15.626316799568229
  0
LINE
  8
_0-1_0
  6
CONTINUOUS
 62
    7
 10
7.6098687557881277
 20
15.626316799568229
 11
7.6104920111019254
 21
15.643884510662929
  0
LINE
  8
_0-1_0
  6
CONTINUOUS
 62
    7
 10
7.6104920111019254
 20
15.643884510662929
 11
7.6093179695581199
 21
15.661320236251413
  0
LINE
  8
_0-1_0
  6
CONTINUOUS
 62
    7
 10
7.6093179695581199
 20
15.661320236251413
 11
7.6063845270751216
 21
15.678539164125709
  0
LINE
  8
_0-1_0
  6
CONTINUOUS
 62
    7
 10
7.6063845270751216
 20
15.678539164125709
 11
7.6017817937881205
 21
15.695313340730905
  0
LINE
  8
_0-1_0
  6
CONTINUOUS
 62
    7
 10
7.6017817937881205
 20
15.695313340730905
 11
7.5956199169433205
 21
15.711535141444415
  0
LINE
  8
_0-1_0
  6
CONTINUOUS
 62
    7
 10
7.5956199169433205
 20
15.711535141444415
 11
7.5879745533061254
 21
15.727214736459729
  0
LINE
  8
_0-1_0
  6
CONTINUOUS
 62
    7
 10
7.5879745533061254
 20
15.727214736459729
 11
7.5789041012671277
 21
15.742367856875916
  0
LINE
  8
_0-1_0
  6
CONTINUOUS
 62
    7
 10
7.5789041012671277
 20
15.742367856875916
 11
7.5684275775151235
 21
15.757049370425904
  0
LINE
  8
_0-1_0
  6
CONTINUOUS
 62
    7
 10
7.5684275775151235
 20
15.757049370425904
 11
7.5565919917704178
 21
15.771260290815718
  0
LINE
  8
_0-1_0
  6
CONTINUOUS
 62
    7
 10
7.5565919917704178
 20
15.771260290815718
 11
7.5434709377153268
 21
15.784985928263211
  0
LINE
  8
_0-1_0
  6
CONTINUOUS
 62
    7
 10
7.5434709377153268
 20
15.784985928263211
 11
7.5291030294593213
 21
15.798261406069429
  0
LINE
  8
_0-1_0
  6
CONTINUOUS
 62
    7
 10
7.5291030294593213
 20
15.798261406069429
 11
7.5134435428966242
 21
15.811186529201905
  0
LINE
  8
_0-1_0
  6
CONTINUOUS
 62
    7
 10
7.5134435428966242
 20
15.811186529201905
 11
7.4964382535618199
 21
15.82384451244593
  0
LINE
  8
_0-1_0
  6
CONTINUOUS
 62
    7
 10
7.4964382535618199
 20
15.82384451244593
 11
7.4780618195513284
 21
15.836282912224419
  0
LINE
  8
_0-1_0
  6
CONTINUOUS
 62
    7
 10
7.4780618195513284
 20
15.836282912224419
 11
7.4582612390559291
 21
15.84855896636023
  0
LINE
  8
_0-1_0
  6
CONTINUOUS
 62
    7
 10
7.4582612390559291
 20
15.84855896636023
 11
7.43694830831042
 21
15.860739069461914
  0
LINE
  8
_0-1_0
  6
CONTINUOUS
 62
    7
 10
7.43694830831042
 20
15.860739069461914
 11
7.4140705748948221
 21
15.872859907925914
  0
LINE
  8
_0-1_0
  6
CONTINUOUS
 62
    7
 10
7.4140705748948221
 20
15.872859907925914
 11
7.3895947223288232
 21
15.884944376403723
  0
LINE
  8
_0-1_0
  6
CONTINUOUS
 62
    7
 10
7.3895947223288232
 20
15.884944376403723
 11
7.2915489708474297
 21
15.931051079080419
  0
LINE
  8
_0-1_0
  6
CONTINUOUS
 62
    7
 10
5.0042949464633892
 20
19.00221309736412
 11
4.9062088027081501
 21
18.955003825386711
  0
LINE
  8
_0-1_0
  6
CONTINUOUS
 62
    7
 10
5.0042949464633892
 20
17.002263097364221
 11
4.9062088027081501
 21
16.955053825386727
  0
LINE
  8
_0-1_0
  6
CONTINUOUS
 62
    7
 10
20.003919946463427
 20
21.002163097364217
 11
19.905833802708116
 21
20.954953825386724
  0
LINE
  8
_0-1_0
  6
CONTINUOUS
 62
    7
 10
7.1442197741694287
 20
19.280540110358203
 11
7.2423024298028196
 21
19.327736156546905
  0
LINE
  8
_0-1_0
  6
CONTINUOUS
 62
    7
 10
7.1442197743186284
 20
17.280590110358105
 11
7.2423024298028196
 21
17.327786156546921
  0
LINE
  8
_0-1_0
  6
CONTINUOUS
 62
    7
 10
7.1442197743186284
 20
15.280640110358206
 11
7.2423024298028196
 21
15.327836156546908
  0
LINE
  8
_0-1_0
  6
CONTINUOUS
 62
    7
 10
4.9868159670309069
 20
14.993836657489425
 11
4.9132579797579012
 21
14.958468921257207
  0
LINE
  8
_0-1_0
  6
CONTINUOUS
 62
    7
 10
4.7658732602888989
 20
14.888882075747915
 11
4.7507470584533991
 21
14.881672174358215
  0
LINE
  8
_0-1_0
  6
CONTINUOUS
 62
    7
 10
4.7507470584533991
 20
14.881672174358215
 11
4.7280582528519091
 21
14.870281330927412
  0
LINE
  8
_0-1_0
  6
CONTINUOUS
 62
    7
 10
4.7280582528519091
 20
14.870281330927412
 11
4.7066649988906448
 21
14.858788313334713
  0
LINE
  8
_0-1_0
  6
CONTINUOUS
 62
    7
 10
4.7066649988906448
 20
14.858788313334713
 11
4.6865502984871341
 21
14.847165718235203
  0
LINE
  8
_0-1_0
  6
CONTINUOUS
 62
    7
 10
4.6865502984871341
 20
14.847165718235203
 11
4.667699900952897
 21
14.835384309195717
  0
LINE
  8
_0-1_0
  6
CONTINUOUS
 62
    7
 10
4.667699900952897
 20
14.835384309195717
 11
4.6500826133364086
 21
14.823398384224419
  0
LINE
  8
_0-1_0
  6
CONTINUOUS
 62
    7
 10
4.6500826133364086
 20
14.823398384224419
 11
4.6336689895081378
 21
14.811154587043404
  0
LINE
  8
_0-1_0
  6
CONTINUOUS
 62
    7
 10
4.6336689895081378
 20
14.811154587043404
 11
4.6184506492298851
 21
14.798607154766927
  0
LINE
  8
_0-1_0
  6
CONTINUOUS
 62
    7
 10
4.6184506492298851
 20
14.798607154766927
 11
4.6044089866981466
 21
14.785691452592914
  0
LINE
  8
_0-1_0
  6
CONTINUOUS
 62
    7
 10
4.6044089866981466
 20
14.785691452592914
 11
4.5915066062806318
 21
14.772303049251718
  0
LINE
  8
_0-1_0
  6
CONTINUOUS
 62
    7
 10
4.5915066062806318
 20
14.772303049251718
 11
4.5798008669911496
 21
14.758415097503928
  0
LINE
  8
_0-1_0
  6
CONTINUOUS
 62
    7
 10
4.5798008669911496
 20
14.758415097503928
 11
4.5693984072083964
 21
14.744080143498707
  0
LINE
  8
_0-1_0
  6
CONTINUOUS
 62
    7
 10
4.5693984072083964
 20
14.744080143498707
 11
4.5603286417193942
 21
14.729273102788426
  0
LINE
  8
_0-1_0
  6
CONTINUOUS
 62
    7
 10
4.5603286417193942
 20
14.729273102788426
 11
4.5526242603039009
 21
14.713960543671703
  0
LINE
  8
_0-1_0
  6
CONTINUOUS
 62
    7
 10
4.5526242603039009
 20
14.713960543671703
 11
4.5463780772086579
 21
14.69823822673942
  0
LINE
  8
_0-1_0
  6
CONTINUOUS
 62
    7
 10
4.5463780772086579
 20
14.69823822673942
 11
4.5416572558291648
 21
14.68223041679542
  0
LINE
  8
_0-1_0
  6
CONTINUOUS
 62
    7
 10
4.5416572558291648
 20
14.68223041679542
 11
4.5384712820476523
 21
14.665907488460903
  0
LINE
  8
_0-1_0
  6
CONTINUOUS
 62
    7
 10
4.5384712820476523
 20
14.665907488460903
 11
4.536859369510637
 21
14.649190864446609
  0
LINE
  8
_0-1_0
  6
CONTINUOUS
 62
    7
 10
4.536859369510637
 20
14.649190864446609
 11
4.5369133278631466
 21
14.632060067055619
  0
LINE
  8
_0-1_0
  6
CONTINUOUS
 62
    7
 10
4.5369133278631466
 20
14.632060067055619
 11
4.5387263061196563
 21
14.614732156085211
  0
LINE
  8
_0-1_0
  6
CONTINUOUS
 62
    7
 10
4.5387263061196563
 20
14.614732156085211
 11
4.5423160238371452
 21
14.597497019362407
  0
LINE
  8
_0-1_0
  6
CONTINUOUS
 62
    7
 10
4.5423160238371452
 20
14.597497019362407
 11
4.5476874962633929
 21
14.580433185968928
  0
LINE
  8
_0-1_0
  6
CONTINUOUS
 62
    7
 10
4.5476874962633929
 20
14.580433185968928
 11
4.5548340328194001
 21
14.563631404083708
  0
LINE
  8
_0-1_0
  6
CONTINUOUS
 62
    7
 10
4.5548340328194001
 20
14.563631404083708
 11
4.5636435125769026
 21
14.547328524352423
  0
LINE
  8
_0-1_0
  6
CONTINUOUS
 62
    7
 10
4.5636435125769026
 20
14.547328524352423
 11
4.5740681546408837
 21
14.531533546550207
  0
LINE
  8
_0-1_0
  6
CONTINUOUS
 62
    7
 10
4.5740681546408837
 20
14.531533546550207
 11
4.5860949121733938
 21
14.516207351804212
  0
LINE
  8
_0-1_0
  6
CONTINUOUS
 62
    7
 10
4.5860949121733938
 20
14.516207351804212
 11
4.5996122327394175
 21
14.501422868291229
  0
LINE
  8
_0-1_0
  6
CONTINUOUS
 62
    7
 10
4.5996122327394175
 20
14.501422868291229
 11
4.6145614284031353
 21
14.487156758982707
  0
LINE
  8
_0-1_0
  6
CONTINUOUS
 62
    7
 10
4.6145614284031353
 20
14.487156758982707
 11
4.6310140940911424
 21
14.473274469929208
  0
LINE
  8
_0-1_0
  6
CONTINUOUS
 62
    7
 10
4.6310140940911424
 20
14.473274469929208
 11
4.6490554733439069
 21
14.459667113256018
  0
LINE
  8
_0-1_0
  6
CONTINUOUS
 62
    7
 10
4.6490554733439069
 20
14.459667113256018
 11
4.6687410320881497
 21
14.44627132517391
  0
LINE
  8
_0-1_0
  6
CONTINUOUS
 62
    7
 10
4.6687410320881497
 20
14.44627132517391
 11
4.6901449813043996
 21
14.433023413842704
  0
LINE
  8
_0-1_0
  6
CONTINUOUS
 62
    7
 10
4.6901449813043996
 20
14.433023413842704
 11
4.7133765137851498
 21
14.419850660781719
  0
LINE
  8
_0-1_0
  6
CONTINUOUS
 62
    7
 10
4.7133765137851498
 20
14.419850660781719
 11
4.738537028637154
 21
14.40669725111772
  0
LINE
  8
_0-1_0
  6
CONTINUOUS
 62
    7
 10
4.738537028637154
 20
14.40669725111772
 11
4.7662348449803886
 21
14.393280468485926
  0
LINE
  8
_0-1_0
  6
CONTINUOUS
 62
    7
 10
7.3810799914711254
 20
17.393266399201423
 11
7.3934041133604183
 21
17.399115580281716
  0
LINE
  8
_0-1_0
  6
CONTINUOUS
 62
    7
 10
7.3934041133604183
 20
17.399115580281716
 11
7.4169854624686167
 21
17.410868404364209
  0
LINE
  8
_0-1_0
  6
CONTINUOUS
 62
    7
 10
7.4169854624686167
 20
17.410868404364209
 11
7.4388400823581264
 21
17.422536876525726
  0
LINE
  8
_0-1_0
  6
CONTINUOUS
 62
    7
 10
7.4388400823581264
 20
17.422536876525726
 11
7.4590887316516188
 21
17.434166363243918
  0
LINE
  8
_0-1_0
  6
CONTINUOUS
 62
    7
 10
7.4590887316516188
 20
17.434166363243918
 11
7.4779317372811249
 21
17.445864724508908
  0
LINE
  8
_0-1_0
  6
CONTINUOUS
 62
    7
 10
7.4779317372811249
 20
17.445864724508908
 11
7.495420564228624
 21
17.457667834796922
  0
LINE
  8
_0-1_0
  6
CONTINUOUS
 62
    7
 10
7.495420564228624
 20
17.457667834796922
 11
7.5116029835386229
 21
17.469613323764207
  0
LINE
  8
_0-1_0
  6
CONTINUOUS
 62
    7
 10
7.5116029835386229
 20
17.469613323764207
 11
7.5266389255411212
 21
17.48184169058473
  0
LINE
  8
_0-1_0
  6
CONTINUOUS
 62
    7
 10
7.5266389255411212
 20
17.48184169058473
 11
7.5405925044541249
 21
17.494456741767721
  0
LINE
  8
_0-1_0
  6
CONTINUOUS
 62
    7
 10
7.5405925044541249
 20
17.494456741767721
 11
7.5534077403338244
 21
17.507471152667904
  0
LINE
  8
_0-1_0
  6
CONTINUOUS
 62
    7
 10
7.5534077403338244
 20
17.507471152667904
 11
7.5650471709826235
 21
17.52090760271841
  0
LINE
  8
_0-1_0
  6
CONTINUOUS
 62
    7
 10
7.5650471709826235
 20
17.52090760271841
 11
7.5755283671551297
 21
17.534864553935222
  0
LINE
  8
_0-1_0
  6
CONTINUOUS
 62
    7
 10
7.5755283671551297
 20
17.534864553935222
 11
7.584778492911127
 21
17.549344075072412
  0
LINE
  8
_0-1_0
  6
CONTINUOUS
 62
    7
 10
7.584778492911127
 20
17.549344075072412
 11
7.5926537530396274
 21
17.564187062495904
  0
LINE
  8
_0-1_0
  6
CONTINUOUS
 62
    7
 10
7.5926537530396274
 20
17.564187062495904
 11
7.5991235697976265
 21
17.579355449545403
  0
LINE
  8
_0-1_0
  6
CONTINUOUS
 62
    7
 10
7.5991235697976265
 20
17.579355449545403
 11
7.6041773473306193
 21
17.594853024932206
  0
LINE
  8
_0-1_0
  6
CONTINUOUS
 62
    7
 10
7.6041773473306193
 20
17.594853024932206
 11
7.6077594477758197
 21
17.610512989990411
  0
LINE
  8
_0-1_0
  6
CONTINUOUS
 62
    7
 10
7.6077594477758197
 20
17.610512989990411
 11
7.609862355948124
 21
17.626186548290917
  0
LINE
  8
_0-1_0
  6
CONTINUOUS
 62
    7
 10
7.609862355948124
 20
17.626186548290917
 11
7.6105128004328293
 21
17.641874192955726
  0
LINE
  8
_0-1_0
  6
CONTINUOUS
 62
    7
 10
7.6105128004328293
 20
17.641874192955726
 11
7.6097139241366278
 21
17.657600378149425
  0
LINE
  8
_0-1_0
  6
CONTINUOUS
 62
    7
 10
7.6097139241366278
 20
17.657600378149425
 11
7.6074535024396255
 21
17.673313182035912
  0
LINE
  8
_0-1_0
  6
CONTINUOUS
 62
    7
 10
7.6074535024396255
 20
17.673313182035912
 11
7.6037329736641226
 21
17.688905360729223
  0
LINE
  8
_0-1_0
  6
CONTINUOUS
 62
    7
 10
7.6037329736641226
 20
17.688905360729223
 11
7.5985497035476186
 21
17.704333662026926
  0
LINE
  8
_0-1_0
  6
CONTINUOUS
 62
    7
 10
7.5985497035476186
 20
17.704333662026926
 11
7.5918418209503216
 21
17.719673146888425
  0
LINE
  8
_0-1_0
  6
CONTINUOUS
 62
    7
 10
7.5918418209503216
 20
17.719673146888425
 11
7.583642643248325
 21
17.734758676606418
  0
LINE
  8
_0-1_0
  6
CONTINUOUS
 62
    7
 10
7.583642643248325
 20
17.734758676606418
 11
7.5741657504751174
 21
17.749257419054203
  0
LINE
  8
_0-1_0
  6
CONTINUOUS
 62
    7
 10
7.5741657504751174
 20
17.749257419054203
 11
7.5635459825431184
 21
17.763113759204117
  0
LINE
  8
_0-1_0
  6
CONTINUOUS
 62
    7
 10
7.5635459825431184
 20
17.763113759204117
 11
7.5517667470313228
 21
17.776469746340922
  0
LINE
  8
_0-1_0
  6
CONTINUOUS
 62
    7
 10
7.5517667470313228
 20
17.776469746340922
 11
7.5388831094288236
 21
17.789348686001205
  0
LINE
  8
_0-1_0
  6
CONTINUOUS
 62
    7
 10
7.5388831094288236
 20
17.789348686001205
 11
7.5249828638093277
 21
17.80174976880221
  0
LINE
  8
_0-1_0
  6
CONTINUOUS
 62
    7
 10
7.5249828638093277
 20
17.80174976880221
 11
7.5100086035483287
 21
17.813796684935227
  0
LINE
  8
_0-1_0
  6
CONTINUOUS
 62
    7
 10
7.5100086035483287
 20
17.813796684935227
 11
7.4937544309576225
 21
17.825684275797727
  0
LINE
  8
_0-1_0
  6
CONTINUOUS
 62
    7
 10
7.4937544309576225
 20
17.825684275797727
 11
7.4761631344823201
 21
17.837456707748203
  0
LINE
  8
_0-1_0
  6
CONTINUOUS
 62
    7
 10
7.4761631344823201
 20
17.837456707748203
 11
7.4571807653221214
 21
17.849149910336223
  0
LINE
  8
_0-1_0
  6
CONTINUOUS
 62
    7
 10
7.4571807653221214
 20
17.849149910336223
 11
7.4365390349603189
 21
17.860913847424513
  0
LINE
  8
_0-1_0
  6
CONTINUOUS
 62
    7
 10
7.4365390349603189
 20
17.860913847424513
 11
7.4140723555966161
 21
17.872809337492413
  0
LINE
  8
_0-1_0
  6
CONTINUOUS
 62
    7
 10
7.4140723555966161
 20
17.872809337492413
 11
7.3897469932981181
 21
17.884821647028019
  0
LINE
  8
_0-1_0
  6
CONTINUOUS
 62
    7
 10
7.3897469932981181
 20
17.884821647028019
 11
7.2915489708474297
 21
17.931001079080403
  0
LINE
  8
_0-1_0
  6
CONTINUOUS
 62
    7
 10
4.7656616887126262
 20
16.888733753579118
 11
4.7556839860719009
 21
16.884007229804922
  0
LINE
  8
_0-1_0
  6
CONTINUOUS
 62
    7
 10
4.7556839860719009
 20
16.884007229804922
 11
4.729740222891138
 21
16.871101785284907
  0
LINE
  8
_0-1_0
  6
CONTINUOUS
 62
    7
 10
4.729740222891138
 20
16.871101785284907
 11
4.7057849344748774
 21
16.858247260387429
  0
LINE
  8
_0-1_0
  6
CONTINUOUS
 62
    7
 10
4.7057849344748774
 20
16.858247260387429
 11
4.683771869143655
 21
16.845438071371404
  0
LINE
  8
_0-1_0
  6
CONTINUOUS
 62
    7
 10
4.683771869143655
 20
16.845438071371404
 11
4.6635641779306525
 21
16.832613403936421
  0
LINE
  8
_0-1_0
  6
CONTINUOUS
 62
    7
 10
4.6635641779306525
 20
16.832613403936421
 11
4.6449426184066454
 21
16.819638167579228
  0
LINE
  8
_0-1_0
  6
CONTINUOUS
 62
    7
 10
4.6449426184066454
 20
16.819638167579228
 11
4.6278383830381529
 21
16.806450970700212
  0
LINE
  8
_0-1_0
  6
CONTINUOUS
 62
    7
 10
4.6278383830381529
 20
16.806450970700212
 11
4.612206539515654
 21
16.792995924398213
  0
LINE
  8
_0-1_0
  6
CONTINUOUS
 62
    7
 10
4.612206539515654
 20
16.792995924398213
 11
4.5979081065376448
 21
16.779107561914429
  0
LINE
  8
_0-1_0
  6
CONTINUOUS
 62
    7
 10
4.5979081065376448
 20
16.779107561914429
 11
4.5848797722541548
 21
16.764633242288909
  0
LINE
  8
_0-1_0
  6
CONTINUOUS
 62
    7
 10
4.5848797722541548
 20
16.764633242288909
 11
4.5732240194761431
 21
16.749571336308719
  0
LINE
  8
_0-1_0
  6
CONTINUOUS
 62
    7
 10
4.5732240194761431
 20
16.749571336308719
 11
4.563069781845897
 21
16.733991166867412
  0
LINE
  8
_0-1_0
  6
CONTINUOUS
 62
    7
 10
4.563069781845897
 20
16.733991166867412
 11
4.5544302254521654
 21
16.717808658305927
  0
LINE
  8
_0-1_0
  6
CONTINUOUS
 62
    7
 10
4.5544302254521654
 20
16.717808658305927
 11
4.5474019723569086
 21
16.701070673034621
  0
LINE
  8
_0-1_0
  6
CONTINUOUS
 62
    7
 10
4.5474019723569086
 20
16.701070673034621
 11
4.5421483826551423
 21
16.684137677116524
  0
LINE
  8
_0-1_0
  6
CONTINUOUS
 62
    7
 10
4.5421483826551423
 20
16.684137677116524
 11
4.5386756717138894
 21
16.667223320881419
  0
LINE
  8
_0-1_0
  6
CONTINUOUS
 62
    7
 10
4.5386756717138894
 20
16.667223320881419
 11
4.5369167352406379
 21
16.650286279094217
  0
LINE
  8
_0-1_0
  6
CONTINUOUS
 62
    7
 10
4.5369167352406379
 20
16.650286279094217
 11
4.536846251778897
 21
16.633373222080422
  0
LINE
  8
_0-1_0
  6
CONTINUOUS
 62
    7
 10
4.536846251778897
 20
16.633373222080422
 11
4.5384386819671505
 21
16.616598658171426
  0
LINE
  8
_0-1_0
  6
CONTINUOUS
 62
    7
 10
4.5384386819671505
 20
16.616598658171426
 11
4.5416588266853779
 21
16.600045333805923
  0
LINE
  8
_0-1_0
  6
CONTINUOUS
 62
    7
 10
4.5416588266853779
 20
16.600045333805923
 11
4.5464969693109083
 21
16.583701166599411
  0
LINE
  8
_0-1_0
  6
CONTINUOUS
 62
    7
 10
4.5464969693109083
 20
16.583701166599411
 11
4.5529795703761522
 21
16.567536430578713
  0
LINE
  8
_0-1_0
  6
CONTINUOUS
 62
    7
 10
4.5529795703761522
 20
16.567536430578713
 11
4.5610680680094049
 21
16.551694119183708
  0
LINE
  8
_0-1_0
  6
CONTINUOUS
 62
    7
 10
4.5610680680094049
 20
16.551694119183708
 11
4.5706479043283963
 21
16.536353542856915
  0
LINE
  8
_0-1_0
  6
CONTINUOUS
 62
    7
 10
4.5706479043283963
 20
16.536353542856915
 11
4.5816954736546478
 21
16.521480583197729
  0
LINE
  8
_0-1_0
  6
CONTINUOUS
 62
    7
 10
4.5816954736546478
 20
16.521480583197729
 11
4.5941956541273896
 21
16.507044154714521
  0
LINE
  8
_0-1_0
  6
CONTINUOUS
 62
    7
 10
4.5941956541273896
 20
16.507044154714521
 11
4.6079874287273981
 21
16.49315515627643
  0
LINE
  8
_0-1_0
  6
CONTINUOUS
 62
    7
 10
4.6079874287273981
 20
16.49315515627643
 11
4.6229672166113858
 21
16.479811588232224
  0
LINE
  8
_0-1_0
  6
CONTINUOUS
 62
    7
 10
4.6229672166113858
 20
16.479811588232224
 11
4.6392071813483966
 21
16.466863199561914
  0
LINE
  8
_0-1_0
  6
CONTINUOUS
 62
    7
 10
4.6392071813483966
 20
16.466863199561914
 11
4.6567843405651388
 21
16.454198359026719
  0
LINE
  8
_0-1_0
  6
CONTINUOUS
 62
    7
 10
4.6567843405651388
 20
16.454198359026719
 11
4.675648968340667
 21
16.44181212361562
  0
LINE
  8
_0-1_0
  6
CONTINUOUS
 62
    7
 10
4.675648968340667
 20
16.44181212361562
 11
4.6959000180219022
 21
16.429604838357704
  0
LINE
  8
_0-1_0
  6
CONTINUOUS
 62
    7
 10
4.6959000180219022
 20
16.429604838357704
 11
4.7178893648416533
 21
16.41736352738323
  0
LINE
  8
_0-1_0
  6
CONTINUOUS
 62
    7
 10
4.7178893648416533
 20
16.41736352738323
 11
4.7417654256864097
 21
16.405030598997712
  0
LINE
  8
_0-1_0
  6
CONTINUOUS
 62
    7
 10
4.7417654256864097
 20
16.405030598997712
 11
4.7662048355813909
 21
16.393244732756216
  0
LINE
  8
_0-1_0
  6
CONTINUOUS
 62
    7
 10
4.9132579797579012
 20
14.958468921257207
 11
4.8222426474369087
 21
14.915315096846228
  0
LINE
  8
_0-1_0
  6
CONTINUOUS
 62
    7
 10
4.9062088027081501
 20
18.955003825386711
 11
4.804064749955387
 21
18.906668214851919
  0
LINE
  8
_0-1_0
  6
CONTINUOUS
 62
    7
 10
7.2423024298028196
 20
19.327736156546905
 11
7.3444446749888215
 21
19.376060946904403
  0
LINE
  8
_0-1_0
  6
CONTINUOUS
 62
    7
 10
7.3444446749888215
 20
19.376060946904403
 11
7.3836842944216272
 21
19.394437185397408
  0
LINE
  8
_0-1_0
  6
CONTINUOUS
 62
    7
 10
4.9062088027081501
 20
16.955053825386727
 11
4.804064749955387
 21
16.906718214851907
  0
LINE
  8
_0-1_0
  6
CONTINUOUS
 62
    7
 10
7.2423024298028196
 20
17.327786156546921
 11
7.3444446749888215
 21
17.376110946904419
  0
LINE
  8
_0-1_0
  6
CONTINUOUS
 62
    7
 10
7.3444446749888215
 20
17.376110946904419
 11
7.3809805478378223
 21
17.393219806037905
  0
LINE
  8
_0-1_0
  6
CONTINUOUS
 62
    7
 10
7.2423024298028196
 20
15.327836156546908
 11
7.3444446749888215
 21
15.376160946904406
  0
LINE
  8
_0-1_0
  6
CONTINUOUS
 62
    7
 10
7.3444446749888215
 20
15.376160946904406
 11
7.3809799693449207
 21
15.393269535746214
  0
LINE
  8
_0-1_0
  6
CONTINUOUS
 62
    7
 10
19.905833802708116
 20
20.954953825386724
 11
19.803689749955325
 21
20.906618214852017
  0
LINE
  8
_0-1_0
  6
CONTINUOUS
 62
    7
 10
22.292499415919323
 20
21.351708187324419
 11
22.376072995333629
 21
21.390997322384919
  0
LINE
  8
_0-1_0
  6
CONTINUOUS
 62
    7
 10
4.804064749955387
 20
16.906718214851907
 11
4.7656671112636388
 21
16.888736328440217
  0
LINE
  8
_0-1_0
  6
CONTINUOUS
 62
    7
 10
4.8222426474369087
 20
14.915315096846228
 11
4.7658733004371356
 21
14.88888275826821
  0
LINE
  8
_0-1_0
  6
CONTINUOUS
 62
    7
 10
19.803689749955325
 20
20.906618214852017
 11
19.758064477033628
 21
20.885224652241618
  0
LINE
  8
_0-1_0
  6
CONTINUOUS
 62
    7
 10
4.804064749955387
 20
18.906668214851919
 11
4.7579701942883901
 21
18.885050692169216
  0
LINE
  8
_0-1_0
  6
CONTINUOUS
 62
    9
 10
4.7771994062326542
 20
14.894096387924208
 11
4.7662063001716604
 21
14.889038376019414
  0
LINE
  8
_0-1_0
  6
CONTINUOUS
 62
    7
 10
-12.675938936489871
 20
12.691214822384921
 11
-12.675938936489871
 21
13.691189822384928
  0
LINE
  8
_0-1_0
  6
CONTINUOUS
 62
    9
 10
-12.175951436489854
 20
12.691214822384921
 11
-12.175951436489854
 21
14.191177322384902
  0
LINE
  8
_0-1_0
  6
CONTINUOUS
 62
    7
 10
20.171495312496816
 20
15.085257452210925
 11
20.122597648700321
 21
15.060710020240407
  0
LINE
  8
_0-1_0
  6
CONTINUOUS
 62
    7
 10
20.171492611818124
 20
21.085106087468915
 11
20.097909571440127
 21
21.048281227964111
  0
LINE
  8
_0-1_0
  6
CONTINUOUS
 62
    7
 10
20.171492611818124
 20
19.085156087468903
 11
20.097909571440127
 21
19.048331227964212
  0
LINE
  8
_0-1_0
  6
CONTINUOUS
 62
    7
 10
20.171492611818124
 20
17.085206087468919
 11
20.097909571440127
 21
17.048381227964228
  0
LINE
  8
_0-1_0
  6
CONTINUOUS
 62
    7
 10
21.974941876548826
 20
21.196900987153413
 11
22.049860118471429
 21
21.234387835779728
  0
LINE
  8
_0-1_0
  6
CONTINUOUS
 62
    7
 10
21.974941876548826
 20
19.196950987153429
 11
22.049860118471429
 21
19.234437835779715
  0
LINE
  8
_0-1_0
  6
CONTINUOUS
 62
    7
 10
21.974941876548826
 20
17.197000987153416
 11
22.049860118471429
 21
17.234487835779618
  0
LINE
  8
_0-1_0
  6
CONTINUOUS
 62
    7
 10
20.122597648700321
 20
15.060710020240407
 11
20.055493901410628
 21
15.02750144390842
  0
LINE
  8
_0-1_0
  6
CONTINUOUS
 62
    7
 10
19.757595194288427
 20
18.885050692169216
 11
19.733814426583621
 21
18.873333947930917
  0
LINE
  8
_0-1_0
  6
CONTINUOUS
 62
    7
 10
19.733814426583621
 20
18.873333947930917
 11
19.711900799811119
 21
18.861781791816725
  0
LINE
  8
_0-1_0
  6
CONTINUOUS
 62
    7
 10
19.711900799811119
 20
18.861781791816725
 11
19.691844184671822
 21
18.850431258870714
  0
LINE
  8
_0-1_0
  6
CONTINUOUS
 62
    7
 10
19.691844184671822
 20
18.850431258870714
 11
19.673431677831928
 21
18.839207253806222
  0
LINE
  8
_0-1_0
  6
CONTINUOUS
 62
    7
 10
19.673431677831928
 20
18.839207253806222
 11
19.656300570747121
 21
18.82790896015112
  0
LINE
  8
_0-1_0
  6
CONTINUOUS
 62
    7
 10
19.656300570747121
 20
18.82790896015112
 11
19.640398083393919
 21
18.816499046749414
  0
LINE
  8
_0-1_0
  6
CONTINUOUS
 62
    7
 10
19.640398083393919
 20
18.816499046749414
 11
19.625684404528627
 21
18.804944573976712
  0
LINE
  8
_0-1_0
  6
CONTINUOUS
 62
    7
 10
19.625684404528627
 20
18.804944573976712
 11
19.611910613807424
 21
18.793017510071223
  0
LINE
  8
_0-1_0
  6
CONTINUOUS
 62
    7
 10
19.611910613807424
 20
18.793017510071223
 11
19.599007091627428
 21
18.780574627718124
  0
LINE
  8
_0-1_0
  6
CONTINUOUS
 62
    7
 10
19.599007091627428
 20
18.780574627718124
 11
19.587102027022624
 21
18.767639887661915
  0
LINE
  8
_0-1_0
  6
CONTINUOUS
 62
    7
 10
19.587102027022624
 20
18.767639887661915
 11
19.576282313343128
 21
18.75421656519373
  0
LINE
  8
_0-1_0
  6
CONTINUOUS
 62
    7
 10
19.576282313343128
 20
18.75421656519373
 11
19.56653777666412
 21
18.740179700153902
  0
LINE
  8
_0-1_0
  6
CONTINUOUS
 62
    7
 10
19.56653777666412
 20
18.740179700153902
 11
19.557986755071923
 21
18.725560441017706
  0
LINE
  8
_0-1_0
  6
CONTINUOUS
 62
    7
 10
19.557986755071923
 20
18.725560441017706
 11
19.550838307817429
 21
18.710645943143106
  0
LINE
  8
_0-1_0
  6
CONTINUOUS
 62
    7
 10
19.550838307817429
 20
18.710645943143106
 11
19.545144028088316
 21
18.695593442897916
  0
LINE
  8
_0-1_0
  6
CONTINUOUS
 62
    7
 10
19.545144028088316
 20
18.695593442897916
 11
19.540846392397626
 21
18.680309673956913
  0
LINE
  8
_0-1_0
  6
CONTINUOUS
 62
    7
 10
19.540846392397626
 20
18.680309673956913
 11
19.53794806799182
 21
18.664770623189213
  0
LINE
  8
_0-1_0
  6
CONTINUOUS
 62
    7
 10
19.53794806799182
 20
18.664770623189213
 11
19.536481895244123
 21
18.649035390012727
  0
LINE
  8
_0-1_0
  6
CONTINUOUS
 62
    7
 10
19.536481895244123
 20
18.649035390012727
 11
19.536477140885324
 21
18.633191611490219
  0
LINE
  8
_0-1_0
  6
CONTINUOUS
 62
    7
 10
19.536477140885324
 20
18.633191611490219
 11
19.537958714740626
 21
18.617280489875213
  0
LINE
  8
_0-1_0
  6
CONTINUOUS
 62
    7
 10
19.537958714740626
 20
18.617280489875213
 11
19.540965475390621
 21
18.601315455876716
  0
LINE
  8
_0-1_0
  6
CONTINUOUS
 62
    7
 10
19.540965475390621
 20
18.601315455876716
 11
19.54550783451532
 21
18.585447331544913
  0
LINE
  8
_0-1_0
  6
CONTINUOUS
 62
    7
 10
19.54550783451532
 20
18.585447331544913
 11
19.551528407430126
 21
18.569895385427913
  0
LINE
  8
_0-1_0
  6
CONTINUOUS
 62
    7
 10
19.551528407430126
 20
18.569895385427913
 11
19.559003851882622
 21
18.554681844432707
  0
LINE
  8
_0-1_0
  6
CONTINUOUS
 62
    7
 10
19.559003851882622
 20
18.554681844432707
 11
19.567906455282127
 21
18.539837769573722
  0
LINE
  8
_0-1_0
  6
CONTINUOUS
 62
    7
 10
19.567906455282127
 20
18.539837769573722
 11
19.578102003819922
 21
18.525520988845415
  0
LINE
  8
_0-1_0
  6
CONTINUOUS
 62
    7
 10
19.578102003819922
 20
18.525520988845415
 11
19.589516326066629
 21
18.511734228299218
  0
LINE
  8
_0-1_0
  6
CONTINUOUS
 62
    7
 10
19.589516326066629
 20
18.511734228299218
 11
19.60216326854183
 21
18.498380744831223
  0
LINE
  8
_0-1_0
  6
CONTINUOUS
 62
    7
 10
19.60216326854183
 20
18.498380744831223
 11
19.616019910475316
 21
18.485425884382408
  0
LINE
  8
_0-1_0
  6
CONTINUOUS
 62
    7
 10
19.616019910475316
 20
18.485425884382408
 11
19.631055378609119
 21
18.472843119556416
  0
LINE
  8
_0-1_0
  6
CONTINUOUS
 62
    7
 10
19.631055378609119
 20
18.472843119556416
 11
19.647328794599318
 21
18.460537938238417
  0
LINE
  8
_0-1_0
  6
CONTINUOUS
 62
    7
 10
19.647328794599318
 20
18.460537938238417
 11
19.664972824383128
 21
18.448388905106214
  0
LINE
  8
_0-1_0
  6
CONTINUOUS
 62
    7
 10
19.664972824383128
 20
18.448388905106214
 11
19.684045628894324
 21
18.436350606817427
  0
LINE
  8
_0-1_0
  6
CONTINUOUS
 62
    7
 10
19.684045628894324
 20
18.436350606817427
 11
19.704601998554423
 21
18.424386604432414
  0
LINE
  8
_0-1_0
  6
CONTINUOUS
 62
    7
 10
19.704601998554423
 20
18.424386604432414
 11
19.726783528927626
 21
18.412418700950923
  0
LINE
  8
_0-1_0
  6
CONTINUOUS
 62
    7
 10
19.726783528927626
 20
18.412418700950923
 11
19.750682331890417
 21
18.400408726133207
  0
LINE
  8
_0-1_0
  6
CONTINUOUS
 62
    7
 10
19.750682331890417
 20
18.400408726133207
 11
19.765800567507128
 21
18.393208124660106
  0
LINE
  8
_0-1_0
  6
CONTINUOUS
 62
    7
 10
20.097909571440127
 20
19.048331227964212
 11
20.003919946463427
 21
19.00221309736412
  0
LINE
  8
_0-1_0
  6
CONTINUOUS
 62
    7
 10
20.097909571440127
 20
17.048381227964228
 11
20.003919946463427
 21
17.002263097364221
  0
LINE
  8
_0-1_0
  6
CONTINUOUS
 62
    7
 10
22.049860118471429
 20
21.234387835779728
 11
22.143844774318623
 21
21.280490110358215
  0
LINE
  8
_0-1_0
  6
CONTINUOUS
 62
    7
 10
22.049860118471429
 20
19.234437835779715
 11
22.143844774169324
 21
19.280540110358203
  0
LINE
  8
_0-1_0
  6
CONTINUOUS
 62
    7
 10
22.049860118471429
 20
17.234487835779618
 11
22.143844774318623
 21
17.280590110358105
  0
LINE
  8
_0-1_0
  6
CONTINUOUS
 62
    7
 10
22.049860118471429
 20
15.234537835779605
 11
22.143844774318623
 21
15.280640110358206
  0
LINE
  8
_0-1_0
  6
CONTINUOUS
 62
    7
 10
22.383309294421622
 20
19.394437185397408
 11
22.410403762714623
 21
19.40764780407892
  0
LINE
  8
_0-1_0
  6
CONTINUOUS
 62
    7
 10
22.410403762714623
 20
19.40764780407892
 11
22.435500780198922
 21
19.420854235700915
  0
LINE
  8
_0-1_0
  6
CONTINUOUS
 62
    7
 10
22.435500780198922
 20
19.420854235700915
 11
22.458647280327824
 21
19.43407666990791
  0
LINE
  8
_0-1_0
  6
CONTINUOUS
 62
    7
 10
22.458647280327824
 20
19.43407666990791
 11
22.479948475844424
 21
19.447370735010708
  0
LINE
  8
_0-1_0
  6
CONTINUOUS
 62
    7
 10
22.479948475844424
 20
19.447370735010708
 11
22.499530361210319
 21
19.460819074763918
  0
LINE
  8
_0-1_0
  6
CONTINUOUS
 62
    7
 10
22.499530361210319
 20
19.460819074763918
 11
22.517467616349919
 21
19.474488705253407
  0
LINE
  8
_0-1_0
  6
CONTINUOUS
 62
    7
 10
22.517467616349919
 20
19.474488705253407
 11
22.533812516672327
 21
19.48844238341772
  0
LINE
  8
_0-1_0
  6
CONTINUOUS
 62
    7
 10
22.533812516672327
 20
19.48844238341772
 11
22.548654093683325
 21
19.502793523883923
  0
LINE
  8
_0-1_0
  6
CONTINUOUS
 62
    7
 10
22.548654093683325
 20
19.502793523883923
 11
22.562061834003828
 21
19.517681032880915
  0
LINE
  8
_0-1_0
  6
CONTINUOUS
 62
    7
 10
22.562061834003828
 20
19.517681032880915
 11
22.573968883335127
 21
19.533125280794906
  0
LINE
  8
_0-1_0
  6
CONTINUOUS
 62
    7
 10
22.573968883335127
 20
19.533125280794906
 11
22.584256808369318
 21
19.549044275496726
  0
LINE
  8
_0-1_0
  6
CONTINUOUS
 62
    7
 10
22.584256808369318
 20
19.549044275496726
 11
22.592910959323618
 21
19.565473402668715
  0
LINE
  8
_0-1_0
  6
CONTINUOUS
 62
    7
 10
22.592910959323618
 20
19.565473402668715
 11
22.599881276404616
 21
19.582400375603214
  0
LINE
  8
_0-1_0
  6
CONTINUOUS
 62
    7
 10
22.599881276404616
 20
19.582400375603214
 11
22.60505449542913
 21
19.599576637529225
  0
LINE
  8
_0-1_0
  6
CONTINUOUS
 62
    7
 10
22.60505449542913
 20
19.599576637529225
 11
22.608425233695925
 21
19.61689960280242
  0
LINE
  8
_0-1_0
  6
CONTINUOUS
 62
    7
 10
22.608425233695925
 20
19.61689960280242
 11
22.610005432697321
 21
19.634294145689211
  0
LINE
  8
_0-1_0
  6
CONTINUOUS
 62
    7
 10
22.610005432697321
 20
19.634294145689211
 11
22.609819048551117
 21
19.651483818175421
  0
LINE
  8
_0-1_0
  6
CONTINUOUS
 62
    7
 10
22.609819048551117
 20
19.651483818175421
 11
22.607963234052121
 21
19.668232211992404
  0
LINE
  8
_0-1_0
  6
CONTINUOUS
 62
    7
 10
22.607963234052121
 20
19.668232211992404
 11
22.604528071127319
 21
19.684579790904621
  0
LINE
  8
_0-1_0
  6
CONTINUOUS
 62
    7
 10
22.604528071127319
 20
19.684579790904621
 11
22.59952323057982
 21
19.700678828120203
  0
LINE
  8
_0-1_0
  6
CONTINUOUS
 62
    7
 10
22.59952323057982
 20
19.700678828120203
 11
22.592902042083921
 21
19.716627623868021
  0
LINE
  8
_0-1_0
  6
CONTINUOUS
 62
    7
 10
22.592902042083921
 20
19.716627623868021
 11
22.584729764903329
 21
19.732226616122205
  0
LINE
  8
_0-1_0
  6
CONTINUOUS
 62
    7
 10
22.584729764903329
 20
19.732226616122205
 11
22.575168671100826
 21
19.747245956151716
  0
LINE
  8
_0-1_0
  6
CONTINUOUS
 62
    7
 10
22.575168671100826
 20
19.747245956151716
 11
22.564276883850127
 21
19.761712989242909
  0
LINE
  8
_0-1_0
  6
CONTINUOUS
 62
    7
 10
22.564276883850127
 20
19.761712989242909
 11
22.552085381331821
 21
19.77567967305211
  0
LINE
  8
_0-1_0
  6
CONTINUOUS
 62
    7
 10
22.552085381331821
 20
19.77567967305211
 11
22.538801697462119
 21
19.789020992794406
  0
LINE
  8
_0-1_0
  6
CONTINUOUS
 62
    7
 10
22.538801697462119
 20
19.789020992794406
 11
22.524610277928119
 21
19.80169795974291
  0
LINE
  8
_0-1_0
  6
CONTINUOUS
 62
    7
 10
22.524610277928119
 20
19.80169795974291
 11
22.509434952544623
 21
19.813899327686215
  0
LINE
  8
_0-1_0
  6
CONTINUOUS
 62
    7
 10
22.509434952544623
 20
19.813899327686215
 11
22.493096946228818
 21
19.825831399973907
  0
LINE
  8
_0-1_0
  6
CONTINUOUS
 62
    7
 10
22.493096946228818
 20
19.825831399973907
 11
22.475673865100319
 21
19.837479619955218
  0
LINE
  8
_0-1_0
  6
CONTINUOUS
 62
    7
 10
22.475673865100319
 20
19.837479619955218
 11
22.457061801458323
 21
19.848948398452421
  0
LINE
  8
_0-1_0
  6
CONTINUOUS
 62
    7
 10
22.457061801458323
 20
19.848948398452421
 11
22.436685655949319
 21
19.860577436525119
  0
LINE
  8
_0-1_0
  6
CONTINUOUS
 62
    7
 10
22.436685655949319
 20
19.860577436525119
 11
22.414230815841918
 21
19.872486181784211
  0
LINE
  8
_0-1_0
  6
CONTINUOUS
 62
    7
 10
22.414230815841918
 20
19.872486181784211
 11
22.38974195688462
 21
19.884594760106921
  0
LINE
  8
_0-1_0
  6
CONTINUOUS
 62
    7
 10
22.38974195688462
 20
19.884594760106921
 11
22.380745577172817
 21
19.888846772162225
  0
LINE
  8
_0-1_0
  6
CONTINUOUS
 62
    7
 10
20.055493901410628
 20
15.02750144390842
 11
19.986440967030816
 21
14.993836657489425
  0
LINE
  8
_0-1_0
  6
CONTINUOUS
 62
    7
 10
22.380545259942124
 20
15.393241904496705
 11
22.406235709605127
 21
15.405650642927213
  0
LINE
  8
_0-1_0
  6
CONTINUOUS
 62
    7
 10
22.406235709605127
 20
15.405650642927213
 11
22.430478843213123
 21
15.418225951223206
  0
LINE
  8
_0-1_0
  6
CONTINUOUS
 62
    7
 10
22.430478843213123
 20
15.418225951223206
 11
22.453048657311825
 21
15.430873192795417
  0
LINE
  8
_0-1_0
  6
CONTINUOUS
 62
    7
 10
22.453048657311825
 20
15.430873192795417
 11
22.473977511241628
 21
15.443618779520904
  0
LINE
  8
_0-1_0
  6
CONTINUOUS
 62
    7
 10
22.473977511241628
 20
15.443618779520904
 11
22.493434368240827
 21
15.456586223834222
  0
LINE
  8
_0-1_0
  6
CONTINUOUS
 62
    7
 10
22.493434368240827
 20
15.456586223834222
 11
22.511512304639325
 21
15.469883209311718
  0
LINE
  8
_0-1_0
  6
CONTINUOUS
 62
    7
 10
22.511512304639325
 20
15.469883209311718
 11
22.528160396784827
 21
15.483527234321912
  0
LINE
  8
_0-1_0
  6
CONTINUOUS
 62
    7
 10
22.528160396784827
 20
15.483527234321912
 11
22.543348638412624
 21
15.497544334631925
  0
LINE
  8
_0-1_0
  6
CONTINUOUS
 62
    7
 10
22.543348638412624
 20
15.497544334631925
 11
22.557133277220828
 21
15.512051135833417
  0
LINE
  8
_0-1_0
  6
CONTINUOUS
 62
    7
 10
22.557133277220828
 20
15.512051135833417
 11
22.569472125309119
 21
15.527088081691403
  0
LINE
  8
_0-1_0
  6
CONTINUOUS
 62
    7
 10
22.569472125309119
 20
15.527088081691403
 11
22.58023184526462
 21
15.542552828197415
  0
LINE
  8
_0-1_0
  6
CONTINUOUS
 62
    7
 10
22.58023184526462
 20
15.542552828197415
 11
22.589374639077121
 21
15.558411327545912
  0
LINE
  8
_0-1_0
  6
CONTINUOUS
 62
    7
 10
22.589374639077121
 20
15.558411327545912
 11
22.596921686515628
 21
15.574736513883721
  0
LINE
  8
_0-1_0
  6
CONTINUOUS
 62
    7
 10
22.596921686515628
 20
15.574736513883721
 11
22.602828335412823
 21
15.591514323084709
  0
LINE
  8
_0-1_0
  6
CONTINUOUS
 62
    7
 10
22.602828335412823
 20
15.591514323084709
 11
22.607047359934626
 21
15.608755259214718
  0
LINE
  8
_0-1_0
  6
CONTINUOUS
 62
    7
 10
22.607047359934626
 20
15.608755259214718
 11
22.609493755788122
 21
15.626316799568229
  0
LINE
  8
_0-1_0
  6
CONTINUOUS
 62
    7
 10
22.609493755788122
 20
15.626316799568229
 11
22.610117011101821
 21
15.643884510662929
  0
LINE
  8
_0-1_0
  6
CONTINUOUS
 62
    7
 10
22.610117011101821
 20
15.643884510662929
 11
22.608942969558129
 21
15.661320236251413
  0
LINE
  8
_0-1_0
  6
CONTINUOUS
 62
    7
 10
22.608942969558129
 20
15.661320236251413
 11
22.606009527075116
 21
15.678539164125709
  0
LINE
  8
_0-1_0
  6
CONTINUOUS
 62
    7
 10
22.606009527075116
 20
15.678539164125709
 11
22.601406793788129
 21
15.695313340730905
  0
LINE
  8
_0-1_0
  6
CONTINUOUS
 62
    7
 10
22.601406793788129
 20
15.695313340730905
 11
22.595244916943329
 21
15.711535141444415
  0
LINE
  8
_0-1_0
  6
CONTINUOUS
 62
    7
 10
22.595244916943329
 20
15.711535141444415
 11
22.58759955330612
 21
15.727214736459729
  0
LINE
  8
_0-1_0
  6
CONTINUOUS
 62
    7
 10
22.58759955330612
 20
15.727214736459729
 11
22.578529101267122
 21
15.742367856875916
  0
LINE
  8
_0-1_0
  6
CONTINUOUS
 62
    7
 10
22.578529101267122
 20
15.742367856875916
 11
22.568052577515118
 21
15.757049370425904
  0
LINE
  8
_0-1_0
  6
CONTINUOUS
 62
    7
 10
22.568052577515118
 20
15.757049370425904
 11
22.556216991770327
 21
15.771260290815718
  0
LINE
  8
_0-1_0
  6
CONTINUOUS
 62
    7
 10
22.556216991770327
 20
15.771260290815718
 11
22.543095937715421
 21
15.784985928263211
  0
LINE
  8
_0-1_0
  6
CONTINUOUS
 62
    7
 10
22.543095937715421
 20
15.784985928263211
 11
22.528728029459316
 21
15.798261406069429
  0
LINE
  8
_0-1_0
  6
CONTINUOUS
 62
    7
 10
22.528728029459316
 20
15.798261406069429
 11
22.513068542896619
 21
15.811186529201905
  0
LINE
  8
_0-1_0
  6
CONTINUOUS
 62
    7
 10
22.513068542896619
 20
15.811186529201905
 11
22.496063253561829
 21
15.82384451244593
  0
LINE
  8
_0-1_0
  6
CONTINUOUS
 62
    7
 10
22.496063253561829
 20
15.82384451244593
 11
22.477686819551323
 21
15.836282912224419
  0
LINE
  8
_0-1_0
  6
CONTINUOUS
 62
    7
 10
22.477686819551323
 20
15.836282912224419
 11
22.457886239055924
 21
15.84855896636023
  0
LINE
  8
_0-1_0
  6
CONTINUOUS
 62
    7
 10
22.457886239055924
 20
15.84855896636023
 11
22.436573308310329
 21
15.860739069461914
  0
LINE
  8
_0-1_0
  6
CONTINUOUS
 62
    7
 10
22.436573308310329
 20
15.860739069461914
 11
22.413695574894817
 21
15.872859907925914
  0
LINE
  8
_0-1_0
  6
CONTINUOUS
 62
    7
 10
22.413695574894817
 20
15.872859907925914
 11
22.389219722328818
 21
15.884944376403723
  0
LINE
  8
_0-1_0
  6
CONTINUOUS
 62
    7
 10
22.389219722328818
 20
15.884944376403723
 11
22.291173970847325
 21
15.931051079080419
  0
LINE
  8
_0-1_0
  6
CONTINUOUS
 62
    7
 10
20.003919946463427
 20
19.00221309736412
 11
19.905833802708116
 21
18.955003825386711
  0
LINE
  8
_0-1_0
  6
CONTINUOUS
 62
    7
 10
20.003919946463427
 20
17.002263097364221
 11
19.905833802708116
 21
16.955053825386727
  0
LINE
  8
_0-1_0
  6
CONTINUOUS
 62
    7
 10
22.143844774318623
 20
21.280490110358215
 11
22.241927429802928
 21
21.327686156547003
  0
LINE
  8
_0-1_0
  6
CONTINUOUS
 62
    7
 10
22.241927429802928
 20
21.327686156547003
 11
22.292499415919323
 21
21.351708187324419
  0
LINE
  8
_0-1_0
  6
CONTINUOUS
 62
    7
 10
22.143844774169324
 20
19.280540110358203
 11
22.241927429802928
 21
19.327736156546905
  0
LINE
  8
_0-1_0
  6
CONTINUOUS
 62
    7
 10
22.143844774318623
 20
17.280590110358105
 11
22.241927429802928
 21
17.327786156546921
  0
LINE
  8
_0-1_0
  6
CONTINUOUS
 62
    7
 10
22.143844774318623
 20
15.280640110358206
 11
22.241927429802928
 21
15.327836156546908
  0
LINE
  8
_0-1_0
  6
CONTINUOUS
 62
    7
 10
19.986440967030816
 20
14.993836657489425
 11
19.912882979757825
 21
14.958468921257207
  0
LINE
  8
_0-1_0
  6
CONTINUOUS
 62
    7
 10
19.765498260288922
 20
14.888882075747915
 11
19.750372058453422
 21
14.881672174358215
  0
LINE
  8
_0-1_0
  6
CONTINUOUS
 62
    7
 10
19.750372058453422
 20
14.881672174358215
 11
19.727683252851918
 21
14.870281330927412
  0
LINE
  8
_0-1_0
  6
CONTINUOUS
 62
    7
 10
19.727683252851918
 20
14.870281330927412
 11
19.706289998890625
 21
14.858788313334713
  0
LINE
  8
_0-1_0
  6
CONTINUOUS
 62
    7
 10
19.706289998890625
 20
14.858788313334713
 11
19.686175298487129
 21
14.847165718235203
  0
LINE
  8
_0-1_0
  6
CONTINUOUS
 62
    7
 10
19.686175298487129
 20
14.847165718235203
 11
19.66732490095292
 21
14.835384309195717
  0
LINE
  8
_0-1_0
  6
CONTINUOUS
 62
    7
 10
19.66732490095292
 20
14.835384309195717
 11
19.649707613336318
 21
14.823398384224419
  0
LINE
  8
_0-1_0
  6
CONTINUOUS
 62
    7
 10
19.649707613336318
 20
14.823398384224419
 11
19.633293989508118
 21
14.811154587043404
  0
LINE
  8
_0-1_0
  6
CONTINUOUS
 62
    7
 10
19.633293989508118
 20
14.811154587043404
 11
19.618075649229922
 21
14.798607154766927
  0
LINE
  8
_0-1_0
  6
CONTINUOUS
 62
    7
 10
19.618075649229922
 20
14.798607154766927
 11
19.604033986698127
 21
14.785691452592914
  0
LINE
  8
_0-1_0
  6
CONTINUOUS
 62
    7
 10
19.604033986698127
 20
14.785691452592914
 11
19.591131606280626
 21
14.772303049251718
  0
LINE
  8
_0-1_0
  6
CONTINUOUS
 62
    7
 10
19.591131606280626
 20
14.772303049251718
 11
19.57942586699113
 21
14.758415097503928
  0
LINE
  8
_0-1_0
  6
CONTINUOUS
 62
    7
 10
19.57942586699113
 20
14.758415097503928
 11
19.56902340720832
 21
14.744080143498707
  0
LINE
  8
_0-1_0
  6
CONTINUOUS
 62
    7
 10
19.56902340720832
 20
14.744080143498707
 11
19.559953641719417
 21
14.729273102788426
  0
LINE
  8
_0-1_0
  6
CONTINUOUS
 62
    7
 10
19.559953641719417
 20
14.729273102788426
 11
19.552249260303924
 21
14.713960543671703
  0
LINE
  8
_0-1_0
  6
CONTINUOUS
 62
    7
 10
19.552249260303924
 20
14.713960543671703
 11
19.546003077208624
 21
14.69823822673942
  0
LINE
  8
_0-1_0
  6
CONTINUOUS
 62
    7
 10
19.546003077208624
 20
14.69823822673942
 11
19.541282255829117
 21
14.68223041679542
  0
LINE
  8
_0-1_0
  6
CONTINUOUS
 62
    7
 10
19.541282255829117
 20
14.68223041679542
 11
19.538096282047619
 21
14.665907488460903
  0
LINE
  8
_0-1_0
  6
CONTINUOUS
 62
    7
 10
19.538096282047619
 20
14.665907488460903
 11
19.536484369510617
 21
14.649190864446609
  0
LINE
  8
_0-1_0
  6
CONTINUOUS
 62
    7
 10
19.536484369510617
 20
14.649190864446609
 11
19.536538327863127
 21
14.632060067055619
  0
LINE
  8
_0-1_0
  6
CONTINUOUS
 62
    7
 10
19.536538327863127
 20
14.632060067055619
 11
19.538351306119623
 21
14.614732156085211
  0
LINE
  8
_0-1_0
  6
CONTINUOUS
 62
    7
 10
19.538351306119623
 20
14.614732156085211
 11
19.541941023837126
 21
14.597497019362407
  0
LINE
  8
_0-1_0
  6
CONTINUOUS
 62
    7
 10
19.541941023837126
 20
14.597497019362407
 11
19.54731249626343
 21
14.580433185968928
  0
LINE
  8
_0-1_0
  6
CONTINUOUS
 62
    7
 10
19.54731249626343
 20
14.580433185968928
 11
19.554459032819324
 21
14.563631404083708
  0
LINE
  8
_0-1_0
  6
CONTINUOUS
 62
    7
 10
19.554459032819324
 20
14.563631404083708
 11
19.563268512576826
 21
14.547328524352423
  0
LINE
  8
_0-1_0
  6
CONTINUOUS
 62
    7
 10
19.563268512576826
 20
14.547328524352423
 11
19.573693154640921
 21
14.531533546550207
  0
LINE
  8
_0-1_0
  6
CONTINUOUS
 62
    7
 10
19.573693154640921
 20
14.531533546550207
 11
19.585719912173417
 21
14.516207351804212
  0
LINE
  8
_0-1_0
  6
CONTINUOUS
 62
    7
 10
19.585719912173417
 20
14.516207351804212
 11
19.599237232739327
 21
14.501422868291229
  0
LINE
  8
_0-1_0
  6
CONTINUOUS
 62
    7
 10
19.599237232739327
 20
14.501422868291229
 11
19.61418642840313
 21
14.487156758982707
  0
LINE
  8
_0-1_0
  6
CONTINUOUS
 62
    7
 10
19.61418642840313
 20
14.487156758982707
 11
19.630639094091123
 21
14.473274469929208
  0
LINE
  8
_0-1_0
  6
CONTINUOUS
 62
    7
 10
19.630639094091123
 20
14.473274469929208
 11
19.648680473343816
 21
14.459667113256018
  0
LINE
  8
_0-1_0
  6
CONTINUOUS
 62
    7
 10
19.648680473343816
 20
14.459667113256018
 11
19.66836603208813
 21
14.44627132517391
  0
LINE
  8
_0-1_0
  6
CONTINUOUS
 62
    7
 10
19.66836603208813
 20
14.44627132517391
 11
19.689769981304323
 21
14.433023413842704
  0
LINE
  8
_0-1_0
  6
CONTINUOUS
 62
    7
 10
19.689769981304323
 20
14.433023413842704
 11
19.713001513785116
 21
14.419850660781719
  0
LINE
  8
_0-1_0
  6
CONTINUOUS
 62
    7
 10
19.713001513785116
 20
14.419850660781719
 11
19.73816202863712
 21
14.40669725111772
  0
LINE
  8
_0-1_0
  6
CONTINUOUS
 62
    7
 10
19.73816202863712
 20
14.40669725111772
 11
19.765859844980426
 21
14.393280468485926
  0
LINE
  8
_0-1_0
  6
CONTINUOUS
 62
    7
 10
22.38070499147112
 20
17.393266399201423
 11
22.393029113360427
 21
17.399115580281716
  0
LINE
  8
_0-1_0
  6
CONTINUOUS
 62
    7
 10
22.393029113360427
 20
17.399115580281716
 11
22.416610462468626
 21
17.410868404364209
  0
LINE
  8
_0-1_0
  6
CONTINUOUS
 62
    7
 10
22.416610462468626
 20
17.410868404364209
 11
22.438465082358121
 21
17.422536876525726
  0
LINE
  8
_0-1_0
  6
CONTINUOUS
 62
    7
 10
22.438465082358121
 20
17.422536876525726
 11
22.458713731651628
 21
17.434166363243918
  0
LINE
  8
_0-1_0
  6
CONTINUOUS
 62
    7
 10
22.458713731651628
 20
17.434166363243918
 11
22.47755673728112
 21
17.445864724508908
  0
LINE
  8
_0-1_0
  6
CONTINUOUS
 62
    7
 10
22.47755673728112
 20
17.445864724508908
 11
22.495045564228619
 21
17.457667834796922
  0
LINE
  8
_0-1_0
  6
CONTINUOUS
 62
    7
 10
22.495045564228619
 20
17.457667834796922
 11
22.511227983538618
 21
17.469613323764207
  0
LINE
  8
_0-1_0
  6
CONTINUOUS
 62
    7
 10
22.511227983538618
 20
17.469613323764207
 11
22.52626392554113
 21
17.48184169058473
  0
LINE
  8
_0-1_0
  6
CONTINUOUS
 62
    7
 10
22.52626392554113
 20
17.48184169058473
 11
22.54021750445412
 21
17.494456741767721
  0
LINE
  8
_0-1_0
  6
CONTINUOUS
 62
    7
 10
22.54021750445412
 20
17.494456741767721
 11
22.553032740333819
 21
17.507471152667904
  0
LINE
  8
_0-1_0
  6
CONTINUOUS
 62
    7
 10
22.553032740333819
 20
17.507471152667904
 11
22.564672170982618
 21
17.52090760271841
  0
LINE
  8
_0-1_0
  6
CONTINUOUS
 62
    7
 10
22.564672170982618
 20
17.52090760271841
 11
22.575153367155124
 21
17.534864553935222
  0
LINE
  8
_0-1_0
  6
CONTINUOUS
 62
    7
 10
22.575153367155124
 20
17.534864553935222
 11
22.584403492911122
 21
17.549344075072412
  0
LINE
  8
_0-1_0
  6
CONTINUOUS
 62
    7
 10
22.584403492911122
 20
17.549344075072412
 11
22.592278753039622
 21
17.564187062495904
  0
LINE
  8
_0-1_0
  6
CONTINUOUS
 62
    7
 10
22.592278753039622
 20
17.564187062495904
 11
22.598748569797621
 21
17.579355449545403
  0
LINE
  8
_0-1_0
  6
CONTINUOUS
 62
    7
 10
22.598748569797621
 20
17.579355449545403
 11
22.603802347330628
 21
17.594853024932206
  0
LINE
  8
_0-1_0
  6
CONTINUOUS
 62
    7
 10
22.603802347330628
 20
17.594853024932206
 11
22.607384447775928
 21
17.610512989990411
  0
LINE
  8
_0-1_0
  6
CONTINUOUS
 62
    7
 10
22.607384447775928
 20
17.610512989990411
 11
22.609487355948119
 21
17.626186548290917
  0
LINE
  8
_0-1_0
  6
CONTINUOUS
 62
    7
 10
22.609487355948119
 20
17.626186548290917
 11
22.610137800432923
 21
17.641874192955726
  0
LINE
  8
_0-1_0
  6
CONTINUOUS
 62
    7
 10
22.610137800432923
 20
17.641874192955726
 11
22.609338924136622
 21
17.657600378149425
  0
LINE
  8
_0-1_0
  6
CONTINUOUS
 62
    7
 10
22.609338924136622
 20
17.657600378149425
 11
22.60707850243962
 21
17.673313182035912
  0
LINE
  8
_0-1_0
  6
CONTINUOUS
 62
    7
 10
22.60707850243962
 20
17.673313182035912
 11
22.603357973664117
 21
17.688905360729223
  0
LINE
  8
_0-1_0
  6
CONTINUOUS
 62
    7
 10
22.603357973664117
 20
17.688905360729223
 11
22.598174703547627
 21
17.704333662026926
  0
LINE
  8
_0-1_0
  6
CONTINUOUS
 62
    7
 10
22.598174703547627
 20
17.704333662026926
 11
22.591466820950316
 21
17.719673146888425
  0
LINE
  8
_0-1_0
  6
CONTINUOUS
 62
    7
 10
22.591466820950316
 20
17.719673146888425
 11
22.583267643248419
 21
17.734758676606418
  0
LINE
  8
_0-1_0
  6
CONTINUOUS
 62
    7
 10
22.583267643248419
 20
17.734758676606418
 11
22.573790750475126
 21
17.749257419054203
  0
LINE
  8
_0-1_0
  6
CONTINUOUS
 62
    7
 10
22.573790750475126
 20
17.749257419054203
 11
22.563170982543127
 21
17.763113759204117
  0
LINE
  8
_0-1_0
  6
CONTINUOUS
 62
    7
 10
22.563170982543127
 20
17.763113759204117
 11
22.551391747031417
 21
17.776469746340922
  0
LINE
  8
_0-1_0
  6
CONTINUOUS
 62
    7
 10
22.551391747031417
 20
17.776469746340922
 11
22.538508109428818
 21
17.789348686001205
  0
LINE
  8
_0-1_0
  6
CONTINUOUS
 62
    7
 10
22.538508109428818
 20
17.789348686001205
 11
22.524607863809322
 21
17.80174976880221
  0
LINE
  8
_0-1_0
  6
CONTINUOUS
 62
    7
 10
22.524607863809322
 20
17.80174976880221
 11
22.509633603548423
 21
17.813796684935227
  0
LINE
  8
_0-1_0
  6
CONTINUOUS
 62
    7
 10
22.509633603548423
 20
17.813796684935227
 11
22.493379430957617
 21
17.825684275797727
  0
LINE
  8
_0-1_0
  6
CONTINUOUS
 62
    7
 10
22.493379430957617
 20
17.825684275797727
 11
22.475788134482428
 21
17.837456707748203
  0
LINE
  8
_0-1_0
  6
CONTINUOUS
 62
    7
 10
22.475788134482428
 20
17.837456707748203
 11
22.456805765322116
 21
17.849149910336223
  0
LINE
  8
_0-1_0
  6
CONTINUOUS
 62
    7
 10
22.456805765322116
 20
17.849149910336223
 11
22.436164034960427
 21
17.860913847424513
  0
LINE
  8
_0-1_0
  6
CONTINUOUS
 62
    7
 10
22.436164034960427
 20
17.860913847424513
 11
22.413697355596625
 21
17.872809337492413
  0
LINE
  8
_0-1_0
  6
CONTINUOUS
 62
    7
 10
22.413697355596625
 20
17.872809337492413
 11
22.389371993298127
 21
17.884821647028019
  0
LINE
  8
_0-1_0
  6
CONTINUOUS
 62
    7
 10
22.389371993298127
 20
17.884821647028019
 11
22.291173970847325
 21
17.931001079080403
  0
LINE
  8
_0-1_0
  6
CONTINUOUS
 62
    7
 10
19.765286688712621
 20
16.888733753579118
 11
19.755308986071825
 21
16.884007229804922
  0
LINE
  8
_0-1_0
  6
CONTINUOUS
 62
    7
 10
19.755308986071825
 20
16.884007229804922
 11
19.729365222891118
 21
16.871101785284907
  0
LINE
  8
_0-1_0
  6
CONTINUOUS
 62
    7
 10
19.729365222891118
 20
16.871101785284907
 11
19.705409934474829
 21
16.858247260387429
  0
LINE
  8
_0-1_0
  6
CONTINUOUS
 62
    7
 10
19.705409934474829
 20
16.858247260387429
 11
19.683396869143621
 21
16.845438071371404
  0
LINE
  8
_0-1_0
  6
CONTINUOUS
 62
    7
 10
19.683396869143621
 20
16.845438071371404
 11
19.663189177930619
 21
16.832613403936421
  0
LINE
  8
_0-1_0
  6
CONTINUOUS
 62
    7
 10
19.663189177930619
 20
16.832613403936421
 11
19.644567618406626
 21
16.819638167579228
  0
LINE
  8
_0-1_0
  6
CONTINUOUS
 62
    7
 10
19.644567618406626
 20
16.819638167579228
 11
19.627463383038119
 21
16.806450970700212
  0
LINE
  8
_0-1_0
  6
CONTINUOUS
 62
    7
 10
19.627463383038119
 20
16.806450970700212
 11
19.61183153951562
 21
16.792995924398213
  0
LINE
  8
_0-1_0
  6
CONTINUOUS
 62
    7
 10
19.61183153951562
 20
16.792995924398213
 11
19.597533106537625
 21
16.779107561914429
  0
LINE
  8
_0-1_0
  6
CONTINUOUS
 62
    7
 10
19.597533106537625
 20
16.779107561914429
 11
19.584504772254121
 21
16.764633242288909
  0
LINE
  8
_0-1_0
  6
CONTINUOUS
 62
    7
 10
19.584504772254121
 20
16.764633242288909
 11
19.572849019476124
 21
16.749571336308719
  0
LINE
  8
_0-1_0
  6
CONTINUOUS
 62
    7
 10
19.572849019476124
 20
16.749571336308719
 11
19.562694781845821
 21
16.733991166867412
  0
LINE
  8
_0-1_0
  6
CONTINUOUS
 62
    7
 10
19.562694781845821
 20
16.733991166867412
 11
19.554055225452117
 21
16.717808658305927
  0
LINE
  8
_0-1_0
  6
CONTINUOUS
 62
    7
 10
19.554055225452117
 20
16.717808658305927
 11
19.547026972356818
 21
16.701070673034621
  0
LINE
  8
_0-1_0
  6
CONTINUOUS
 62
    7
 10
19.547026972356818
 20
16.701070673034621
 11
19.541773382655123
 21
16.684137677116524
  0
LINE
  8
_0-1_0
  6
CONTINUOUS
 62
    7
 10
19.541773382655123
 20
16.684137677116524
 11
19.538300671713827
 21
16.667223320881419
  0
LINE
  8
_0-1_0
  6
CONTINUOUS
 62
    7
 10
19.538300671713827
 20
16.667223320881419
 11
19.536541735240618
 21
16.650286279094217
  0
LINE
  8
_0-1_0
  6
CONTINUOUS
 62
    7
 10
19.536541735240618
 20
16.650286279094217
 11
19.536471251778821
 21
16.633373222080422
  0
LINE
  8
_0-1_0
  6
CONTINUOUS
 62
    7
 10
19.536471251778821
 20
16.633373222080422
 11
19.538063681967117
 21
16.616598658171426
  0
LINE
  8
_0-1_0
  6
CONTINUOUS
 62
    7
 10
19.538063681967117
 20
16.616598658171426
 11
19.541283826685429
 21
16.600045333805923
  0
LINE
  8
_0-1_0
  6
CONTINUOUS
 62
    7
 10
19.541283826685429
 20
16.600045333805923
 11
19.546121969310818
 21
16.583701166599411
  0
LINE
  8
_0-1_0
  6
CONTINUOUS
 62
    7
 10
19.546121969310818
 20
16.583701166599411
 11
19.552604570376118
 21
16.567536430578713
  0
LINE
  8
_0-1_0
  6
CONTINUOUS
 62
    7
 10
19.552604570376118
 20
16.567536430578713
 11
19.560693068009328
 21
16.551694119183708
  0
LINE
  8
_0-1_0
  6
CONTINUOUS
 62
    7
 10
19.560693068009328
 20
16.551694119183708
 11
19.57027290432832
 21
16.536353542856915
  0
LINE
  8
_0-1_0
  6
CONTINUOUS
 62
    7
 10
19.57027290432832
 20
16.536353542856915
 11
19.581320473654628
 21
16.521480583197729
  0
LINE
  8
_0-1_0
  6
CONTINUOUS
 62
    7
 10
19.581320473654628
 20
16.521480583197729
 11
19.593820654127427
 21
16.507044154714521
  0
LINE
  8
_0-1_0
  6
CONTINUOUS
 62
    7
 10
19.593820654127427
 20
16.507044154714521
 11
19.607612428727421
 21
16.49315515627643
  0
LINE
  8
_0-1_0
  6
CONTINUOUS
 62
    7
 10
19.607612428727421
 20
16.49315515627643
 11
19.622592216611324
 21
16.479811588232224
  0
LINE
  8
_0-1_0
  6
CONTINUOUS
 62
    7
 10
19.622592216611324
 20
16.479811588232224
 11
19.63883218134832
 21
16.466863199561914
  0
LINE
  8
_0-1_0
  6
CONTINUOUS
 62
    7
 10
19.63883218134832
 20
16.466863199561914
 11
19.656409340565119
 21
16.454198359026719
  0
LINE
  8
_0-1_0
  6
CONTINUOUS
 62
    7
 10
19.656409340565119
 20
16.454198359026719
 11
19.675273968340619
 21
16.44181212361562
  0
LINE
  8
_0-1_0
  6
CONTINUOUS
 62
    7
 10
19.675273968340619
 20
16.44181212361562
 11
19.695525018021826
 21
16.429604838357704
  0
LINE
  8
_0-1_0
  6
CONTINUOUS
 62
    7
 10
19.695525018021826
 20
16.429604838357704
 11
19.71751436484162
 21
16.41736352738323
  0
LINE
  8
_0-1_0
  6
CONTINUOUS
 62
    7
 10
19.71751436484162
 20
16.41736352738323
 11
19.741390425686419
 21
16.405030598997712
  0
LINE
  8
_0-1_0
  6
CONTINUOUS
 62
    7
 10
19.741390425686419
 20
16.405030598997712
 11
19.765829835581329
 21
16.393244732756216
  0
LINE
  8
_0-1_0
  6
CONTINUOUS
 62
    7
 10
19.912882979757825
 20
14.958468921257207
 11
19.821867647436818
 21
14.915315096846228
  0
LINE
  8
_0-1_0
  6
CONTINUOUS
 62
    7
 10
19.905833802708116
 20
18.955003825386711
 11
19.803689749955325
 21
18.906668214851919
  0
LINE
  8
_0-1_0
  6
CONTINUOUS
 62
    7
 10
22.241927429802928
 20
19.327736156546905
 11
22.344069674988816
 21
19.376060946904403
  0
LINE
  8
_0-1_0
  6
CONTINUOUS
 62
    7
 10
22.344069674988816
 20
19.376060946904403
 11
22.383309294421622
 21
19.394437185397408
  0
LINE
  8
_0-1_0
  6
CONTINUOUS
 62
    7
 10
19.905833802708116
 20
16.955053825386727
 11
19.803689749955325
 21
16.906718214851907
  0
LINE
  8
_0-1_0
  6
CONTINUOUS
 62
    7
 10
22.241927429802928
 20
17.327786156546921
 11
22.344069674988816
 21
17.376110946904419
  0
LINE
  8
_0-1_0
  6
CONTINUOUS
 62
    7
 10
22.344069674988816
 20
17.376110946904419
 11
22.380605547837817
 21
17.393219806037905
  0
LINE
  8
_0-1_0
  6
CONTINUOUS
 62
    7
 10
22.241927429802928
 20
15.327836156546908
 11
22.344069674988816
 21
15.376160946904406
  0
LINE
  8
_0-1_0
  6
CONTINUOUS
 62
    7
 10
22.344069674988816
 20
15.376160946904406
 11
22.38060496934483
 21
15.393269535746214
  0
LINE
  8
_0-1_0
  6
CONTINUOUS
 62
    7
 10
19.803689749955325
 20
16.906718214851907
 11
19.765292111263619
 21
16.888736328440217
  0
LINE
  8
_0-1_0
  6
CONTINUOUS
 62
    7
 10
19.821867647436818
 20
14.915315096846228
 11
19.765498300437116
 21
14.88888275826821
  0
LINE
  8
_0-1_0
  6
CONTINUOUS
 62
    7
 10
19.803689749955325
 20
18.906668214851919
 11
19.757595194288427
 21
18.885050692169216
  0
LINE
  8
_0-1_0
  6
CONTINUOUS
 62
    9
 10
19.77682440623262
 20
14.894096387924208
 11
19.765831300171627
 21
14.889038376019414
  0
LINE
  8
_0-1_0
  6
CONTINUOUS
 62
    7
 10
21.974941876548826
 20
15.197050987153517
 11
22.049860118471429
 21
15.234537835779605
  0
LINE
  8
_0-1_0
  6
CONTINUOUS
 62
    7
 10
36.822823563510127
 20
12.691214822384921
 11
-12.175951436489854
 21
12.691214822384921
  0
LINE
  8
_0-1_0
  6
CONTINUOUS
 62
    9
 10
-12.675938936489871
 20
13.691189822384928
 11
37.32281106351013
 21
13.691189822384928
  0
LINE
  8
_0-1_0
  6
CONTINUOUS
 62
    7
 10
-12.175951436489854
 20
14.191177322384902
 11
36.822823563510127
 21
14.191177322384902
  0
LINE
  8
_0-1_0
  6
CONTINUOUS
 62
    7
 10
-2.676188936489865
 20
-55.307085177615079
 11
-2.676188936489865
 21
-25.807822677615093
  0
LINE
  8
_0-1_0
  6
CONTINUOUS
 62
    9
 10
-2.1762014364898619
 20
-25.807889279382891
 11
-2.1762014364898619
 21
-55.807072677615082
  0
LINE
  8
_0-1_0
  6
CONTINUOUS
 62
    7
 10
2.5705158166419153
 20
22.390972322384926
 11
3.045606625044897
 21
32.43957818334593
  0
LINE
  8
_0-1_0
  6
CONTINUOUS
 62
    7
 10
2.1736898135101512
 20
22.390972322384926
 11
2.4477391324044078
 21
27.651592936715929
  0
LINE
  8
_0-1_0
  6
CONTINUOUS
 62
    7
 10
2.4477391324044078
 20
27.651592936715929
 11
3.0736673135101569
 21
32.749368883160912
  0
LINE
  8
_0-1_0
  6
CONTINUOUS
 62
    7
 10
19.273570422822118
 20
51.679957998989209
 11
19.752569217403618
 21
52.98179168875123
  0
LINE
  8
_0-1_0
  6
CONTINUOUS
 62
    7
 10
19.44677117344132
 20
51.679957998989209
 11
19.925769968022919
 21
52.98179168875123
  0
LINE
  8
_0-1_0
  6
CONTINUOUS
 62
    7
 10
9.0235185635101232
 20
21.390997322384919
 11
3.123666063510143
 21
21.390997322384919
  0
LINE
  8
_0-1_0
  6
CONTINUOUS
 62
    7
 10
18.123291063510123
 20
21.390997322384919
 11
24.023143563510118
 21
21.390997322384919
  0
LINE
  8
_0-1_0
  6
CONTINUOUS
 62
    7
 10
24.973119813510124
 20
22.390972322384926
 11
17.173314813510117
 21
22.390972322384926
  0
LINE
  8
_0-1_0
  6
CONTINUOUS
 62
    7
 10
9.9734948135101291
 20
22.390972322384926
 11
2.1736898135101512
 21
22.390972322384926
  0
LINE
  8
_0-1_0
  6
CONTINUOUS
 62
    7
 10
4.766203902022653
 20
14.393294888722409
 11
4.8543102187126408
 21
14.351883183742416
  0
LINE
  8
_0-1_0
  6
CONTINUOUS
 62
    7
 10
6.4273258412941203
 20
22.390972322384926
 11
6.319598234850119
 21
32.43957818334593
  0
LINE
  8
_0-1_0
  6
CONTINUOUS
 62
    7
 10
6.4261212820059228
 20
50.390272322385044
 11
6.5129087186836188
 21
33.91114798885269
  0
LINE
  8
_0-1_0
  6
CONTINUOUS
 62
    7
 10
2.1736898135101512
 20
22.390972322384926
 11
2.1736898135101512
 21
21.599362747298215
  0
LINE
  8
_0-1_0
  6
CONTINUOUS
 62
    7
 10
2.5705158166419153
 20
22.390972322384926
 11
2.5705158166419153
 21
21.468936044763609
  0
LINE
  8
_0-1_0
  6
CONTINUOUS
 62
    7
 10
3.056509963051667
 20
34.793002165529117
 11
3.056509963051667
 21
51.679957998989209
  0
LINE
  8
_0-1_0
  6
CONTINUOUS
 62
    7
 10
3.1565074630516534
 20
34.793002165529117
 11
3.1565074630516534
 21
51.679957998989209
  0
LINE
  8
_0-1_0
  6
CONTINUOUS
 62
    7
 10
3.3159448098541446
 20
22.390972322384926
 11
3.3159448098541446
 21
21.599362747298215
  0
LINE
  8
_0-1_0
  6
CONTINUOUS
 62
    7
 10
4.0736423135101631
 20
56.390122322384912
 11
4.0736423135101631
 21
55.998959272750426
  0
LINE
  8
_0-1_0
  6
CONTINUOUS
 62
    7
 10
4.9736198135101404
 20
21.390997322384919
 11
4.9736198135101404
 21
20.987331626070613
  0
LINE
  8
_0-1_0
  6
CONTINUOUS
 62
    7
 10
4.9736198135101404
 20
20.391022322384913
 11
4.9736198135101404
 21
18.987381626070714
  0
LINE
  8
_0-1_0
  6
CONTINUOUS
 62
    7
 10
4.9736198135101404
 20
18.391072322384929
 11
4.9736198135101404
 21
16.987431626070617
  0
LINE
  8
_0-1_0
  6
CONTINUOUS
 62
    7
 10
4.9736198135101404
 20
16.391122322384916
 11
4.9736198135101404
 21
14.987469563984206
  0
LINE
  8
_0-1_0
  6
CONTINUOUS
 62
    7
 10
4.9736198135101404
 20
14.391172322384904
 11
4.9736198135101404
 21
14.191177322384902
  0
LINE
  8
_0-1_0
  6
CONTINUOUS
 62
    7
 10
5.7198587857261174
 20
22.390972322384926
 11
5.7198587857261174
 21
21.468936044763609
  0
LINE
  8
_0-1_0
  6
CONTINUOUS
 62
    7
 10
6.0735923135101189
 20
21.599362747298215
 11
6.0735923135101189
 21
27.651592936715929
  0
LINE
  8
_0-1_0
  6
CONTINUOUS
 62
    7
 10
6.4273258412941203
 20
22.390972322384926
 11
6.4273258412941203
 21
21.468936044763609
  0
LINE
  8
_0-1_0
  6
CONTINUOUS
 62
    7
 10
7.1735648135101258
 20
21.294674859014208
 11
7.1735648135101258
 21
19.89103482238491
  0
LINE
  8
_0-1_0
  6
CONTINUOUS
 62
    7
 10
7.1735648135101258
 20
19.29472485901411
 11
7.1735648135101258
 21
17.891084822384926
  0
LINE
  8
_0-1_0
  6
CONTINUOUS
 62
    7
 10
7.1735648135101258
 20
17.294774859014126
 11
7.1735648135101258
 21
15.891134822384913
  0
LINE
  8
_0-1_0
  6
CONTINUOUS
 62
    7
 10
7.1735648135101258
 20
15.294824859014227
 11
7.1735648135101258
 21
14.191177322384902
  0
LINE
  8
_0-1_0
  6
CONTINUOUS
 62
    7
 10
8.0735423135101172
 20
56.390122322384912
 11
8.0735423135101172
 21
55.998959272750426
  0
LINE
  8
_0-1_0
  6
CONTINUOUS
 62
    7
 10
5.6342759084858187
 20
33.91114798885269
 11
5.7210633450144286
 21
50.390272322385044
  0
LINE
  8
_0-1_0
  6
CONTINUOUS
 62
    7
 10
5.7198587857261174
 20
22.390972322384926
 11
5.8275863923193185
 21
32.43957818334593
  0
LINE
  8
_0-1_0
  6
CONTINUOUS
 62
    7
 10
3.0736673135101569
 20
32.749368883160912
 11
3.118659284802149
 21
34.467542948929406
  0
LINE
  8
_0-1_0
  6
CONTINUOUS
 62
    7
 10
3.5913587774671498
 20
52.519208281088197
 11
3.6824792640248916
 21
55.998959272750426
  0
LINE
  8
_0-1_0
  6
CONTINUOUS
 62
    7
 10
3.6927222289891404
 20
56.390122322384912
 11
3.7853988387323909
 21
59.929299263137409
  0
LINE
  8
_0-1_0
  6
CONTINUOUS
 62
    7
 10
3.3159448098541446
 20
22.390972322384926
 11
3.5266876304056751
 21
27.846943525664926
  0
LINE
  8
_0-1_0
  6
CONTINUOUS
 62
    7
 10
8.618065282632827
 20
32.841734356354436
 11
8.9906771641178267
 21
34.793002165529117
  0
LINE
  8
_0-1_0
  6
CONTINUOUS
 62
    7
 10
8.7180627826328276
 20
32.841734356354436
 11
9.0906746641179268
 21
34.793002165529117
  0
LINE
  8
_0-1_0
  6
CONTINUOUS
 62
    7
 10
4.766204520663905
 20
16.39324459977442
 11
4.8543102112501373
 21
16.351833187324416
  0
LINE
  8
_0-1_0
  6
CONTINUOUS
 62
    7
 10
4.7662039648569134
 20
18.393194859469418
 11
4.8543102112501373
 21
18.351783187324514
  0
LINE
  8
_0-1_0
  6
CONTINUOUS
 62
    7
 10
4.766204137240635
 20
20.393144779023714
 11
4.8543102112501373
 21
20.351733187324413
  0
LINE
  8
_0-1_0
  6
CONTINUOUS
 62
    7
 10
7.3811279546003163
 20
19.888843470006009
 11
7.2915489708474297
 21
19.930951079080415
  0
LINE
  8
_0-1_0
  6
CONTINUOUS
 62
    7
 10
7.2915489708474297
 20
19.930951079080415
 11
7.2409758243121161
 21
19.954978825386718
  0
LINE
  8
_0-1_0
  6
CONTINUOUS
 62
    7
 10
4.8543102187126408
 20
14.351883183742416
 11
4.9544362634094199
 21
14.304122766588705
  0
LINE
  8
_0-1_0
  6
CONTINUOUS
 62
    7
 10
4.9544362634094199
 20
14.304122766588705
 11
4.9736198135101404
 21
14.294849859014221
  0
LINE
  8
_0-1_0
  6
CONTINUOUS
 62
    7
 10
4.8543102112501373
 20
16.351833187324416
 11
4.9544362583349084
 21
16.30407276897671
  0
LINE
  8
_0-1_0
  6
CONTINUOUS
 62
    7
 10
4.9544362583349084
 20
16.30407276897671
 11
4.9736198135101404
 21
16.29479985901412
  0
LINE
  8
_0-1_0
  6
CONTINUOUS
 62
    7
 10
7.2915489708474297
 20
15.931051079080419
 11
7.1914202006964274
 21
15.978823520411225
  0
LINE
  8
_0-1_0
  6
CONTINUOUS
 62
    7
 10
7.1914202006964274
 20
15.978823520411225
 11
7.1735648135101258
 21
15.987456626070724
  0
LINE
  8
_0-1_0
  6
CONTINUOUS
 62
    7
 10
4.8543102112501373
 20
18.351783187324514
 11
4.9544362583349084
 21
18.304022768976722
  0
LINE
  8
_0-1_0
  6
CONTINUOUS
 62
    7
 10
4.9544362583349084
 20
18.304022768976722
 11
4.9736198135101404
 21
18.294749859014217
  0
LINE
  8
_0-1_0
  6
CONTINUOUS
 62
    7
 10
7.2915489708474297
 20
17.931001079080403
 11
7.1914202006964274
 21
17.97877352041121
  0
LINE
  8
_0-1_0
  6
CONTINUOUS
 62
    7
 10
7.1914202006964274
 20
17.97877352041121
 11
7.1735648135101258
 21
17.987406626070623
  0
LINE
  8
_0-1_0
  6
CONTINUOUS
 62
    7
 10
4.8543102112501373
 20
20.351733187324413
 11
4.9544362583349084
 21
20.303972768976706
  0
LINE
  8
_0-1_0
  6
CONTINUOUS
 62
    7
 10
4.9544362583349084
 20
20.303972768976706
 11
4.9736198135101404
 21
20.29469985901423
  0
LINE
  8
_0-1_0
  6
CONTINUOUS
 62
    7
 10
9.9734948135101291
 20
22.390972322384926
 11
9.6994454947651292
 21
27.651592936715929
  0
LINE
  8
_0-1_0
  6
CONTINUOUS
 62
    7
 10
9.5766688105276216
 20
22.390972322384926
 11
9.101578001975426
 21
32.43957818334593
  0
LINE
  8
_0-1_0
  6
CONTINUOUS
 62
    7
 10
8.8312398173154207
 20
22.390972322384926
 11
8.6204969966146194
 21
27.846943525664926
  0
LINE
  8
_0-1_0
  6
CONTINUOUS
 62
    7
 10
9.0735173135101235
 20
32.749368883160912
 11
9.0285253422181171
 21
34.467542948929406
  0
LINE
  8
_0-1_0
  6
CONTINUOUS
 62
    7
 10
8.5558258497023161
 20
52.519208281088197
 11
8.464705363144617
 21
55.998959272750426
  0
LINE
  8
_0-1_0
  6
CONTINUOUS
 62
    7
 10
8.4544623981803255
 20
56.390122322384912
 11
8.3617857882878184
 21
59.929299263137409
  0
LINE
  8
_0-1_0
  6
CONTINUOUS
 62
    7
 10
8.8312398173154207
 20
22.390972322384926
 11
8.8312398173154207
 21
21.599362747298215
  0
LINE
  8
_0-1_0
  6
CONTINUOUS
 62
    7
 10
8.9906771641178267
 20
34.793002165529117
 11
8.9906771641178267
 21
51.679957998989209
  0
LINE
  8
_0-1_0
  6
CONTINUOUS
 62
    7
 10
9.0906746641179268
 20
34.793002165529117
 11
9.0906746641179268
 21
51.679957998989209
  0
LINE
  8
_0-1_0
  6
CONTINUOUS
 62
    7
 10
9.5766688105276216
 20
22.390972322384926
 11
9.5766688105276216
 21
21.468936044763609
  0
LINE
  8
_0-1_0
  6
CONTINUOUS
 62
    7
 10
9.9734948135101291
 20
22.390972322384926
 11
9.9734948135101291
 21
21.599362747298215
  0
LINE
  8
_0-1_0
  6
CONTINUOUS
 62
    7
 10
17.447364132404317
 20
27.651592936715929
 11
18.073292313510123
 21
32.749368883160912
  0
LINE
  8
_0-1_0
  6
CONTINUOUS
 62
    7
 10
3.0736673135101569
 20
32.749368883160912
 11
9.0735173135101235
 21
32.749368883160912
  0
LINE
  8
_0-1_0
  6
CONTINUOUS
 62
    7
 10
18.073292313510123
 20
32.749368883160912
 11
24.073142313510118
 21
32.749368883160912
  0
LINE
  8
_0-1_0
  6
CONTINUOUS
 62
    7
 10
19.44677117344132
 20
34.793002165529117
 11
19.273570422822118
 21
34.793002165529117
  0
LINE
  8
_0-1_0
  6
CONTINUOUS
 62
    7
 10
9.0906746641179268
 20
34.793002165529117
 11
8.9906771641178267
 21
34.793002165529117
  0
LINE
  8
_0-1_0
  6
CONTINUOUS
 62
    7
 10
3.1565074630516534
 20
34.793002165529117
 11
3.056509963051667
 21
34.793002165529117
  0
LINE
  8
_0-1_0
  6
CONTINUOUS
 62
    7
 10
19.765828902022619
 20
14.393294888722409
 11
19.853935218712621
 21
14.351883183742416
  0
LINE
  8
_0-1_0
  6
CONTINUOUS
 62
    7
 10
19.765829520663928
 20
16.39324459977442
 11
19.853935211250118
 21
16.351833187324416
  0
LINE
  8
_0-1_0
  6
CONTINUOUS
 62
    7
 10
19.765828964856922
 20
18.393194859469418
 11
19.853935211250118
 21
18.351783187324514
  0
LINE
  8
_0-1_0
  6
CONTINUOUS
 62
    7
 10
19.76582913724063
 20
20.393144779023714
 11
19.853935211250118
 21
20.351733187324413
  0
LINE
  8
_0-1_0
  6
CONTINUOUS
 62
    7
 10
19.853935218712621
 20
14.351883183742416
 11
19.954061263409329
 21
14.304122766588705
  0
LINE
  8
_0-1_0
  6
CONTINUOUS
 62
    7
 10
19.954061263409329
 20
14.304122766588705
 11
19.973244813510121
 21
14.294849859014221
  0
LINE
  8
_0-1_0
  6
CONTINUOUS
 62
    7
 10
19.853935211250118
 20
16.351833187324416
 11
19.954061258334818
 21
16.30407276897671
  0
LINE
  8
_0-1_0
  6
CONTINUOUS
 62
    7
 10
19.954061258334818
 20
16.30407276897671
 11
19.973244813510121
 21
16.29479985901412
  0
LINE
  8
_0-1_0
  6
CONTINUOUS
 62
    7
 10
22.291173970847325
 20
15.931051079080419
 11
22.191045200696323
 21
15.978823520411225
  0
LINE
  8
_0-1_0
  6
CONTINUOUS
 62
    7
 10
22.191045200696323
 20
15.978823520411225
 11
22.17318981351012
 21
15.987456626070724
  0
LINE
  8
_0-1_0
  6
CONTINUOUS
 62
    7
 10
19.853935211250118
 20
18.351783187324514
 11
19.954061258334818
 21
18.304022768976722
  0
LINE
  8
_0-1_0
  6
CONTINUOUS
 62
    7
 10
19.954061258334818
 20
18.304022768976722
 11
19.973244813510121
 21
18.294749859014217
  0
LINE
  8
_0-1_0
  6
CONTINUOUS
 62
    7
 10
22.291173970847325
 20
17.931001079080403
 11
22.191045200696323
 21
17.97877352041121
  0
LINE
  8
_0-1_0
  6
CONTINUOUS
 62
    7
 10
22.191045200696323
 20
17.97877352041121
 11
22.17318981351012
 21
17.987406626070623
  0
LINE
  8
_0-1_0
  6
CONTINUOUS
 62
    7
 10
19.853935211250118
 20
20.351733187324413
 11
19.954061258334818
 21
20.303972768976706
  0
LINE
  8
_0-1_0
  6
CONTINUOUS
 62
    7
 10
19.954061258334818
 20
20.303972768976706
 11
19.973244813510121
 21
20.29469985901423
  0
LINE
  8
_0-1_0
  6
CONTINUOUS
 62
    7
 10
7.2409758243121161
 20
19.954978825386718
 11
7.1735648135101258
 21
19.987356626070721
  0
LINE
  8
_0-1_0
  6
CONTINUOUS
 62
    7
 10
3.4291218443873959
 20
32.841734356354436
 11
3.056509963051667
 21
34.793002165529117
  0
LINE
  8
_0-1_0
  6
CONTINUOUS
 62
    7
 10
3.5291193443873965
 20
32.841734356354436
 11
3.1565074630516534
 21
34.793002165529117
  0
LINE
  8
_0-1_0
  6
CONTINUOUS
 62
    7
 10
9.6994454947651292
 20
27.651592936715929
 11
9.0735173135101235
 21
32.749368883160912
  0
LINE
  8
_0-1_0
  6
CONTINUOUS
 62
    7
 10
17.173314813510117
 20
22.390972322384926
 11
17.173314813510117
 21
21.599362747298215
  0
LINE
  8
_0-1_0
  6
CONTINUOUS
 62
    7
 10
17.570140816641825
 20
22.390972322384926
 11
17.570140816641825
 21
21.468936044763609
  0
LINE
  8
_0-1_0
  6
CONTINUOUS
 62
    7
 10
18.315569809854125
 20
22.390972322384926
 11
18.315569809854125
 21
21.599362747298215
  0
LINE
  8
_0-1_0
  6
CONTINUOUS
 62
    7
 10
19.073267313510129
 20
56.390122322384912
 11
19.073267313510129
 21
55.998959272750426
  0
LINE
  8
_0-1_0
  6
CONTINUOUS
 62
    7
 10
19.273570422822118
 20
34.793002165529117
 11
19.273570422822118
 21
51.679957998989209
  0
LINE
  8
_0-1_0
  6
CONTINUOUS
 62
    7
 10
19.44677117344132
 20
34.793002165529117
 11
19.44677117344132
 21
51.679957998989209
  0
LINE
  8
_0-1_0
  6
CONTINUOUS
 62
    7
 10
19.973244813510121
 20
21.390997322384919
 11
19.973244813510121
 21
20.987331626070613
  0
LINE
  8
_0-1_0
  6
CONTINUOUS
 62
    7
 10
19.973244813510121
 20
20.391022322384913
 11
19.973244813510121
 21
18.987381626070714
  0
LINE
  8
_0-1_0
  6
CONTINUOUS
 62
    7
 10
19.973244813510121
 20
18.391072322384929
 11
19.973244813510121
 21
16.987431626070617
  0
LINE
  8
_0-1_0
  6
CONTINUOUS
 62
    7
 10
19.973244813510121
 20
16.391122322384916
 11
19.973244813510121
 21
14.987469563984206
  0
LINE
  8
_0-1_0
  6
CONTINUOUS
 62
    7
 10
19.973244813510121
 20
14.391172322384904
 11
19.973244813510121
 21
14.191177322384902
  0
LINE
  8
_0-1_0
  6
CONTINUOUS
 62
    7
 10
18.073292313510123
 20
32.749368883160912
 11
18.102887087652121
 21
33.879547711715134
  0
LINE
  8
_0-1_0
  6
CONTINUOUS
 62
    7
 10
18.535235627474421
 20
50.390272322385044
 11
18.682104264024829
 21
55.998959272750426
  0
LINE
  8
_0-1_0
  6
CONTINUOUS
 62
    7
 10
18.692347228989121
 20
56.390122322384912
 11
18.785023838881628
 21
59.929299269256603
  0
LINE
  8
_0-1_0
  6
CONTINUOUS
 62
    7
 10
18.315569809854125
 20
22.390972322384926
 11
18.526312630405627
 21
27.846943525664926
  0
LINE
  8
_0-1_0
  6
CONTINUOUS
 62
    7
 10
17.570140816641825
 20
22.390972322384926
 11
18.045231625044821
 21
32.43957818334593
  0
LINE
  8
_0-1_0
  6
CONTINUOUS
 62
    7
 10
17.173314813510117
 20
22.390972322384926
 11
17.447364132404317
 21
27.651592936715929
  0
LINE
  8
_0-1_0
  6
CONTINUOUS
 62
    7
 10
24.069055204347123
 20
32.841734356354436
 11
24.499310344416116
 21
34.793002165529117
  0
LINE
  8
_0-1_0
  6
CONTINUOUS
 62
    7
 10
22.380752954600425
 20
19.888843470006009
 11
22.291173970847325
 21
19.930951079080415
  0
LINE
  8
_0-1_0
  6
CONTINUOUS
 62
    7
 10
22.291173970847325
 20
19.930951079080415
 11
22.191045200696323
 21
19.978723520411108
  0
LINE
  8
_0-1_0
  6
CONTINUOUS
 62
    7
 10
22.191045200696323
 20
19.978723520411108
 11
22.17318981351012
 21
19.987356626070721
  0
LINE
  8
_0-1_0
  6
CONTINUOUS
 62
    7
 10
24.973119813510124
 20
22.390972322384926
 11
24.699070494765124
 21
27.651592936715929
  0
LINE
  8
_0-1_0
  6
CONTINUOUS
 62
    7
 10
24.576293810527616
 20
22.390972322384926
 11
24.101203001975421
 21
32.43957818334593
  0
LINE
  8
_0-1_0
  6
CONTINUOUS
 62
    7
 10
23.83086481731533
 20
22.390972322384926
 11
23.620121996614628
 21
27.846943525664926
  0
LINE
  8
_0-1_0
  6
CONTINUOUS
 62
    7
 10
24.073142313510118
 20
32.749368883160912
 11
24.070722495201125
 21
32.841778016009243
  0
LINE
  8
_0-1_0
  6
CONTINUOUS
 62
    7
 10
23.543412388731127
 20
52.97893855560369
 11
23.464330363144626
 21
55.998959272750426
  0
LINE
  8
_0-1_0
  6
CONTINUOUS
 62
    7
 10
23.45408739818032
 20
56.390122322384912
 11
23.361410788138627
 21
59.929299269256603
  0
LINE
  8
_0-1_0
  6
CONTINUOUS
 62
    7
 10
21.426950841294129
 20
22.390972322384926
 11
21.319223234850128
 21
32.43957818334593
  0
LINE
  8
_0-1_0
  6
CONTINUOUS
 62
    7
 10
20.719483785726126
 20
22.390972322384926
 11
20.719483785726126
 21
21.468936044763609
  0
LINE
  8
_0-1_0
  6
CONTINUOUS
 62
    7
 10
21.073217313510128
 20
21.599362747298215
 11
21.073217313510128
 21
27.651592936715929
  0
LINE
  8
_0-1_0
  6
CONTINUOUS
 62
    7
 10
21.426950841294129
 20
22.390972322384926
 11
21.426950841294129
 21
21.468936044763609
  0
LINE
  8
_0-1_0
  6
CONTINUOUS
 62
    7
 10
22.17318981351012
 20
36.366317669120917
 11
22.17318981351012
 21
35.890634822384925
  0
LINE
  8
_0-1_0
  6
CONTINUOUS
 62
    7
 10
22.17318981351012
 20
21.294674859014208
 11
22.17318981351012
 21
19.89103482238491
  0
LINE
  8
_0-1_0
  6
CONTINUOUS
 62
    7
 10
22.17318981351012
 20
19.29472485901411
 11
22.17318981351012
 21
17.891084822384926
  0
LINE
  8
_0-1_0
  6
CONTINUOUS
 62
    7
 10
22.17318981351012
 20
17.294774859014126
 11
22.17318981351012
 21
15.891134822384913
  0
LINE
  8
_0-1_0
  6
CONTINUOUS
 62
    7
 10
22.17318981351012
 20
15.294824859014227
 11
22.17318981351012
 21
14.191177322384902
  0
LINE
  8
_0-1_0
  6
CONTINUOUS
 62
    7
 10
23.073167313510126
 20
56.390122322384912
 11
23.073167313510126
 21
55.998959272750426
  0
LINE
  8
_0-1_0
  6
CONTINUOUS
 62
    7
 10
23.83086481731533
 20
22.390972322384926
 11
23.83086481731533
 21
21.599362747298215
  0
LINE
  8
_0-1_0
  6
CONTINUOUS
 62
    7
 10
24.499310344416116
 20
34.793002165529117
 11
24.499310344416116
 21
51.679957998989209
  0
LINE
  8
_0-1_0
  6
CONTINUOUS
 62
    7
 10
24.576293810527616
 20
22.390972322384926
 11
24.576293810527616
 21
21.468936044763609
  0
LINE
  8
_0-1_0
  6
CONTINUOUS
 62
    7
 10
24.973119813510124
 20
22.390972322384926
 11
24.973119813510124
 21
21.599362747298215
  0
LINE
  8
_0-1_0
  6
CONTINUOUS
 62
    7
 10
20.719483785726126
 20
22.390972322384926
 11
20.827211392319327
 21
32.43957818334593
  0
LINE
  8
_0-1_0
  6
CONTINUOUS
 62
    7
 10
19.488697992856629
 20
32.841734356354436
 11
19.273570422822118
 21
34.793002165529117
  0
LINE
  8
_0-1_0
  6
CONTINUOUS
 62
    7
 10
19.661898743475817
 20
32.841734356354436
 11
19.44677117344132
 21
34.793002165529117
  0
LINE
  8
_0-1_0
  6
CONTINUOUS
 62
    9
 10
26.823073563510121
 20
-55.807072677615082
 11
26.823073563510121
 21
-25.807887297790586
  0
LINE
  8
_0-1_0
  6
CONTINUOUS
 62
    7
 10
27.323061063510124
 20
-55.307085177615079
 11
27.323061063510124
 21
-25.807822677615093
  0
LINE
  8
_0-1_0
  6
CONTINUOUS
 62
    7
 10
5.7210633450144286
 20
50.390272322385044
 11
6.4261212820059228
 21
50.390272322385044
  0
LINE
  8
_0-1_0
  6
CONTINUOUS
 62
    7
 10
18.535235627474421
 20
50.390272322385044
 11
18.559838240304117
 21
50.390272322385044
  0
LINE
  8
_0-1_0
  6
CONTINUOUS
 62
    7
 10
22.03630037433912
 20
50.390272322385044
 11
22.641111173243317
 21
50.390272322385044
  0
LINE
  8
_0-1_0
  6
CONTINUOUS
 62
    7
 10
19.44677117344132
 20
51.679957998989209
 11
19.273570422822118
 21
51.679957998989209
  0
LINE
  8
_0-1_0
  6
CONTINUOUS
 62
    7
 10
9.0906746641179268
 20
51.679957998989209
 11
8.9906771641178267
 21
51.679957998989209
  0
LINE
  8
_0-1_0
  6
CONTINUOUS
 62
    7
 10
3.1565074630516534
 20
51.679957998989209
 11
3.056509963051667
 21
51.679957998989209
  0
LINE
  8
_0-1_0
  6
CONTINUOUS
 62
    7
 10
22.245607158404326
 20
33.952250272016101
 11
22.175047416322627
 21
33.98610847240559
  0
LINE
  8
_0-1_0
  6
CONTINUOUS
 62
    7
 10
22.184757967433328
 20
35.981363406800199
 11
22.17318981351012
 21
35.986956626070707
  0
LINE
  8
_0-1_0
  6
CONTINUOUS
 62
    7
 10
8.9906771641178267
 20
51.679957998989209
 11
8.1610269149971231
 21
52.98179168875123
  0
LINE
  8
_0-1_0
  6
CONTINUOUS
 62
    7
 10
9.0906746641179268
 20
51.679957998989209
 11
8.2610244149971237
 21
52.98179168875123
  0
LINE
  8
_0-1_0
  6
CONTINUOUS
 62
    7
 10
24.699070494765124
 20
27.651592936715929
 11
24.073142313510118
 21
32.749368883160912
  0
LINE
  8
_0-1_0
  6
CONTINUOUS
 62
    9
 10
36.822823563510127
 20
14.191177322384902
 11
36.822823563510127
 21
12.691214822384921
  0
LINE
  8
_0-1_0
  6
CONTINUOUS
 62
    7
 10
37.32281106351013
 20
13.691189822384928
 11
37.32281106351013
 21
12.691214822384921
  0
LINE
  8
_0-1_0
  6
CONTINUOUS
 62
    7
 10
3.6824792640248916
 20
55.998959272750426
 11
8.464705363144617
 21
55.998959272750426
  0
LINE
  8
_0-1_0
  6
CONTINUOUS
 62
    7
 10
18.682211775366923
 20
55.998959272750426
 11
23.464222851653417
 21
55.998959272750426
  0
LINE
  8
_0-1_0
  6
CONTINUOUS
 62
    7
 10
23.453980347274623
 20
56.390122322384912
 11
18.692454279745618
 21
56.390122322384912
  0
LINE
  8
_0-1_0
  6
CONTINUOUS
 62
    7
 10
8.4544623981803255
 20
56.390122322384912
 11
3.6927222289891404
 21
56.390122322384912
  0
LINE
  8
_0-1_0
  6
CONTINUOUS
 62
    9
 10
3.7853988387323909
 20
59.929299263137409
 11
8.3617857882878184
 21
59.929299263137409
  0
LINE
  8
_0-1_0
  6
CONTINUOUS
 62
    9
 10
18.785023838881628
 20
59.92929926851042
 11
23.361410788287827
 21
59.92929926851042
  0
LINE
  8
_0-1_0
  6
CONTINUOUS
 62
    7
 10
5.2848473390453989
 20
61.389997322384943
 11
6.8623372879748246
 21
61.389997322384943
  0
LINE
  8
_0-1_0
  6
CONTINUOUS
 62
    7
 10
20.284507550403816
 20
61.389997322384943
 11
21.861927076765625
 21
61.389997322384943
  0
LINE
  8
_0-1_0
  6
CONTINUOUS
 62
    7
 10
24.499310344416116
 20
51.679957998989209
 11
23.541312755103817
 21
52.98179168875123
  0
LINE
  8
_0-1_0
  6
CONTINUOUS
 62
    7
 10
46.32258606351013
 20
-47.807272677615089
 11
46.32258606351013
 21
-53.80712267761507
  0
LINE
  8
_0-1_0
  6
CONTINUOUS
 62
    7
 10
52.322436063510111
 20
-53.80712267761507
 11
52.322436063510111
 21
-47.807272677615089
  0
LINE
  8
_0-1_0
  6
CONTINUOUS
 62
    7
 10
53.322411063510117
 20
-54.807097677615076
 11
53.322411063510117
 21
-46.807297677615082
  0
ARC
  8
_0-1_0
  6
CONTINUOUS
 62
    7
 10
122.97432872472163
 20
192.98705169601413
 40
1.499962499999999
 50
180
 51
268.49999976929962
  0
ARC
  8
_0-1_0
  6
CONTINUOUS
 62
    7
 10
122.97432872472163
 20
194.56454164509302
 40
1.499962499999999
 50
91.500000230700394
 51
180
  0
ARC
  8
_0-1_0
  6
CONTINUOUS
 62
    7
 10
158.97393640590991
 20
196.67534351029411
 40
2.4999375000000001
 50
1.154718065800483
 51
16.110037904999771
  0
ARC
  8
_0-1_0
  6
CONTINUOUS
 62
    7
 10
208.67218622472163
 20
324.39582569438227
 40
124.996875
 50
252.06125753450041
 51
270.00003052879953
  0
ARC
  8
_0-1_0
  6
CONTINUOUS
 62
    7
 10
208.67218622472163
 20
169.39970069438249
 40
19.999500000000001
 50
0
 51
90
  0
ARC
  8
_0-1_0
  6
CONTINUOUS
 62
    7
 10
208.67218622472163
 20
91.902512228053411
 40
97.496688466478247
 50
90
 51
113.2581992403012
  0
ARC
  8
_0-1_0
  6
CONTINUOUS
 62
    7
 10
208.67218622472163
 20
169.39970069438249
 40
29.99925
 50
0
 51
90
  0
ARC
  8
_0-1_0
  6
CONTINUOUS
 62
    7
 10
169.17317372472164
 20
181.97609167047892
 40
0.4999875
 50
180
 51
270
  0
ARC
  8
_0-1_0
  6
CONTINUOUS
 62
    7
 10
169.17317372472164
 20
204.9755166704789
 40
0.4999875
 50
90
 51
180
  0
ARC
  8
_0-1_0
  6
CONTINUOUS
 62
    7
 10
229.17167372472173
 20
159.8999381943824
 40
0.4999875
 50
180
 51
270
  0
ARC
  8
_0-1_0
  6
CONTINUOUS
 62
    7
 10
238.17144872472161
 20
159.8999381943824
 40
0.4999875
 50
270
 51
0
  0
ARC
  8
_0-1_0
  6
CONTINUOUS
 62
    9
 10
208.67218622472163
 20
169.39970069438249
 40
29.499262280303999
 50
0
 51
89.999465892501192
  0
ARC
  8
_0-1_0
  6
CONTINUOUS
 62
    9
 10
208.67218622472163
 20
169.39970069438249
 40
20.49948702135525
 50
0
 51
89.999587984099776
  0
ARC
  8
_0-1_0
  6
CONTINUOUS
 62
    7
 10
-2.1762014364898619
 20
198.8989631943823
 40
0.4999875
 50
90
 51
180
  0
ARC
  8
_0-1_0
  6
CONTINUOUS
 62
    7
 10
26.823073563510121
 20
198.8989631943823
 40
0.4999875
 50
0
 51
90
  0
ARC
  8
_0-1_0
  6
CONTINUOUS
 62
    7
 10
26.823073563510121
 20
159.8999381943824
 40
0.4999875
 50
270
 51
0
  0
ARC
  8
_0-1_0
  6
CONTINUOUS
 62
    7
 10
36.822823563510127
 20
181.97609167047892
 40
0.4999875
 50
270
 51
0
  0
ARC
  8
_0-1_0
  6
CONTINUOUS
 62
    7
 10
-12.175951436489854
 20
181.97609167047892
 40
0.4999875
 50
180
 51
270
  0
ARC
  8
_0-1_0
  6
CONTINUOUS
 62
    7
 10
-2.1762014364898619
 20
159.8999381943824
 40
0.4999875
 50
180
 51
270
  0
ARC
  8
_0-1_0
  6
CONTINUOUS
 62
    7
 10
-12.175951436489854
 20
204.9755166704789
 40
0.4999875
 50
90
 51
180
  0
ARC
  8
_0-1_0
  6
CONTINUOUS
 62
    7
 10
36.822823563510127
 20
204.9755166704789
 40
0.4999875
 50
0
 51
90
  0
ARC
  8
_0-1_0
  6
CONTINUOUS
 62
    7
 10
21.861962287974819
 20
59.890034822385019
 40
1.499962499999999
 50
1.5000002307003839
 51
90
  0
ARC
  8
_0-1_0
  6
CONTINUOUS
 62
    7
 10
20.284472339045323
 20
59.890034822385019
 40
1.499962499999999
 50
90
 51
178.49999976929959
  0
ARC
  8
_0-1_0
  6
CONTINUOUS
 62
    7
 10
18.173670473844126
 20
23.890427141047525
 40
2.4999375000000001
 50
246.41230217539979
 51
268.84528193420113
  0
ARC
  8
_0-1_0
  6
CONTINUOUS
 62
    7
 10
23.972764153325329
 20
23.890427141047525
 40
2.4999375000000001
 50
271.15471806580058
 51
286.11003790499967
  0
ARC
  8
_0-1_0
  6
CONTINUOUS
 62
    7
 10
5.2848473390453989
 20
59.890034822385019
 40
1.499962499999999
 50
90
 51
178.49999999999969
  0
ARC
  8
_0-1_0
  6
CONTINUOUS
 62
    7
 10
6.8623372879748246
 20
59.890034822385019
 40
1.499962499999999
 50
1.5000000000002951
 51
90
  0
ARC
  8
_0-1_0
  6
CONTINUOUS
 62
    7
 10
3.1740454738441457
 20
23.890427141047525
 40
2.4999375000000001
 50
246.41230217539979
 51
268.84528193420113
  0
ARC
  8
_0-1_0
  6
CONTINUOUS
 62
    7
 10
8.9731391533254197
 20
23.890427141047525
 40
2.4999375000000001
 50
271.15471806580058
 51
286.11003790499967
  0
ARC
  8
_0-1_0
  6
CONTINUOUS
 62
    7
 10
-81.786711123989846
 20
-25.807822677615093
 40
79.110522187499996
 50
359.99980083839966
 51
29.12055123870029
  0
ARC
  8
_0-1_0
  6
CONTINUOUS
 62
    7
 10
106.43358325101013
 20
-25.807822677615093
 40
79.110522187499996
 50
150.87944876129973
 51
180.00019372770001
  0
ARC
  8
_0-1_0
  6
CONTINUOUS
 62
    7
 10
-2.1762014364898619
 20
-55.307085177615079
 40
0.4999875
 50
180
 51
270
  0
ARC
  8
_0-1_0
  6
CONTINUOUS
 62
    7
 10
-12.175951436489854
 20
13.691189822384928
 40
0.4999875
 50
90
 51
180
  0
ARC
  8
_0-1_0
  6
CONTINUOUS
 62
    7
 10
36.822823563510127
 20
13.691189822384928
 40
0.4999875
 50
0
 51
90
  0
ARC
  8
_0-1_0
  6
CONTINUOUS
 62
    7
 10
26.823073563510121
 20
-55.307085177615079
 40
0.4999875
 50
270
 51
0
  0
LINE
  8
_0-1_0
  6
CONTINUOUS
 62
    2
 10
-12.675938936489871
 20
15.437464822384925
 11
-12.675938936489871
 21
94.286152336533917
  0
LINE
  8
_0-1_0
  6
CONTINUOUS
 62
    2
 10
37.32281106351013
 20
16.437439822384903
 11
37.32281106351013
 21
94.286152336533917
  0
LINE
  8
_0-1_0
  6
CONTINUOUS
 62
    2
 10
-8.6759389364898709
 20
94.286152336533917
 11
33.322811063510116
 21
94.286152336533917
  0
LINE
  8
_0-1_0
  6
CONTINUOUS
 62
    2
 10
6.0735923135101189
 20
63.389997322384943
 11
6.0735923135101189
 21
82.510507115889141
  0
LINE
  8
_0-1_0
  6
CONTINUOUS
 62
    2
 10
21.073217313584721
 20
63.389997322384943
 11
21.073217313584721
 21
82.510507115889141
  0
LINE
  8
_0-1_0
  6
CONTINUOUS
 62
    2
 10
10.073592313510119
 20
82.510507115889141
 11
17.073217313584721
 21
82.510507115889141
  0
LINE
  8
_0-1_0
  6
CONTINUOUS
 62
    2
 10
53.322411063510117
 20
156.8536956943824
 11
53.322411063510117
 21
141.64448323559913
  0
LINE
  8
_0-1_0
  6
CONTINUOUS
 62
    2
 10
-28.675538936489858
 20
156.8536956943824
 11
-28.675538936489858
 21
141.64448323559913
  0
LINE
  8
_0-1_0
  6
CONTINUOUS
 62
    2
 10
49.322411063510117
 20
141.64448323559913
 11
-24.675538936489858
 21
141.64448323559913
  0
LINE
  8
_0-1_0
  6
CONTINUOUS
 62
    2
 10
29.569323563510125
 20
159.39995069438243
 11
68.412561136446215
 21
159.39995069438231
  0
LINE
  8
_0-1_0
  6
CONTINUOUS
 62
    2
 10
39.56907356351013
 20
205.47550417047881
 11
68.412561136446215
 21
205.47550417047881
  0
LINE
  8
_0-1_0
  6
CONTINUOUS
 62
    2
 10
68.412561136446215
 20
163.39995069438231
 11
68.412561136446215
 21
201.47550417047881
  0
LINE
  8
_0-1_0
  6
CONTINUOUS
 62
    2
 10
167.42689872472161
 20
205.47550417047881
 11
99.485969768674721
 21
205.47550417047881
  0
LINE
  8
_0-1_0
  6
CONTINUOUS
 62
    2
 10
166.4269237247216
 20
181.47610417047883
 11
99.485969768674721
 21
181.47610417047883
  0
LINE
  8
_0-1_0
  6
CONTINUOUS
 62
    2
 10
99.485969768674721
 20
201.47550417047881
 11
99.485969768674721
 21
185.47610417047883
  0
LINE
  8
_0-1_0
  6
CONTINUOUS
 62
    2
 10
168.6731862247216
 20
179.22984167047889
 11
168.6731862247216
 21
126.0414211404111
  0
LINE
  8
_0-1_0
  6
CONTINUOUS
 62
    2
 10
238.67143622472165
 20
157.15368819438243
 11
238.67143622472165
 21
126.0414211404111
  0
LINE
  8
_0-1_0
  6
CONTINUOUS
 62
    2
 10
172.6731862247216
 20
126.0414211404111
 11
234.67143622472165
 21
126.0414211404111
  0
LINE
  8
_0-1_0
  6
CONTINUOUS
 62
    2
 10
168.6731862247216
 20
179.22984167047889
 11
168.6731862247216
 21
146.21998448849172
  0
LINE
  8
_0-1_0
  6
CONTINUOUS
 62
    2
 10
233.67156122472161
 20
156.8536956943824
 11
233.67156122472161
 21
146.21998448849172
  0
LINE
  8
_0-1_0
  6
CONTINUOUS
 62
    2
 10
172.6731862247216
 20
146.21998448849172
 11
229.67156122472173
 21
146.21998448849172
  0
LINE
  8
_0-1_0
  6
CONTINUOUS
 62
    2
 10
64.786915373154926
 20
-41.063199024141284
 11
64.786915373154926
 21
-37.331956603354797
  0
LINE
  8
_0-1_0
  6
CONTINUOUS
 62
    2
 10
64.786915373154926
 20
-37.331956603354797
 11
61.055672952368411
 21
-37.331956603354797
  0
LINE
  8
_0-1_0
  6
CONTINUOUS
 62
    2
 10
61.055672952368411
 20
-37.331956603354797
 11
61.055672952368411
 21
-41.063199024141284
  0
LINE
  8
_0-1_0
  6
CONTINUOUS
 62
    2
 10
61.055672952368411
 20
-41.063199024141284
 11
64.786915373154926
 21
-41.063199024141284
  0
LINE
  8
_0-1_0
  6
CONTINUOUS
 62
    2
 10
55.322411063510117
 20
-54.807097677615076
 11
66.293543200681626
 21
-54.807097677615076
  0
LINE
  8
_0-1_0
  6
CONTINUOUS
 62
    2
 10
55.322411063510117
 20
-46.807297677615082
 11
66.293543200681626
 21
-46.807297677615082
  0
LINE
  8
_0-1_0
  6
CONTINUOUS
 62
    2
 10
66.293543200681626
 20
-58.807097677615076
 11
66.293543200681626
 21
-62.807097677615076
  0
LINE
  8
_0-1_0
  6
CONTINUOUS
 62
    2
 10
66.293543200681626
 20
-42.807297677615082
 11
66.293543200681711
 21
-31.807297677615082
  0
LINE
  8
_0-1_0
  6
CONTINUOUS
 62
    2
 10
66.293543200681626
 20
-54.807097677615076
 11
66.293543200681626
 21
-46.807297677615082
  0
TEXT
  8
_0-1_0
 62
    7
 10
9.4781667183093248
 20
83.510507115889141
 40
4
 41
1
 50
0
  1
15
  0
LINE
  8
_0-1_0
  6
CONTINUOUS
 62
    7
 10
17.073217313584721
 20
83.582303875889124
 11
21.073217313584721
 21
82.510507115889141
  0
LINE
  8
_0-1_0
  6
CONTINUOUS
 62
    7
 10
21.073217313584721
 20
82.510507115889141
 11
17.073217313584721
 21
81.4387103558891
  0
LINE
  8
_0-1_0
  6
CONTINUOUS
 62
    7
 10
21.073217313584721
 20
82.510507115889141
 11
17.073217313584721
 21
82.510507115889141
  0
LINE
  8
_0-1_0
  6
CONTINUOUS
 62
    7
 10
10.073592313510119
 20
81.4387103558891
 11
6.0735923135101189
 21
82.510507115889141
  0
LINE
  8
_0-1_0
  6
CONTINUOUS
 62
    7
 10
6.0735923135101189
 20
82.510507115889141
 11
10.073592313510119
 21
83.582303875889124
  0
LINE
  8
_0-1_0
  6
CONTINUOUS
 62
    7
 10
6.0735923135101189
 20
82.510507115889141
 11
10.073592313510119
 21
82.510507115889141
  0
TEXT
  8
_0-1_0
 62
    7
 10
8.5139122539863195
 20
95.286152336533917
 40
4
 41
1
 50
0
  1
50
  0
LINE
  8
_0-1_0
  6
CONTINUOUS
 62
    7
 10
33.322811063510116
 20
95.357949096533901
 11
37.32281106351013
 21
94.286152336533917
  0
LINE
  8
_0-1_0
  6
CONTINUOUS
 62
    7
 10
37.32281106351013
 20
94.286152336533917
 11
33.322811063510116
 21
93.214355576533933
  0
LINE
  8
_0-1_0
  6
CONTINUOUS
 62
    7
 10
37.32281106351013
 20
94.286152336533917
 11
33.322811063510116
 21
94.286152336533917
  0
LINE
  8
_0-1_0
  6
CONTINUOUS
 62
    7
 10
-8.6759389364898709
 20
93.214355576533933
 11
-12.675938936489871
 21
94.286152336533917
  0
LINE
  8
_0-1_0
  6
CONTINUOUS
 62
    7
 10
-12.675938936489871
 20
94.286152336533917
 11
-8.6759389364898709
 21
95.357949096533901
  0
LINE
  8
_0-1_0
  6
CONTINUOUS
 62
    7
 10
-12.675938936489871
 20
94.286152336533917
 11
-8.6759389364898709
 21
94.286152336533917
  0
TEXT
  8
_0-1_0
 62
    7
 10
8.4167211351683164
 20
142.64448323559913
 40
4
 41
1
 50
0
  1
82
  0
LINE
  8
_0-1_0
  6
CONTINUOUS
 62
    7
 10
-24.675538936489858
 20
140.57268647559914
 11
-28.675538936489858
 21
141.64448323559913
  0
LINE
  8
_0-1_0
  6
CONTINUOUS
 62
    7
 10
-28.675538936489858
 20
141.64448323559913
 11
-24.675538936489858
 21
142.71627999559911
  0
LINE
  8
_0-1_0
  6
CONTINUOUS
 62
    7
 10
-28.675538936489858
 20
141.64448323559913
 11
-24.675538936489858
 21
141.64448323559913
  0
LINE
  8
_0-1_0
  6
CONTINUOUS
 62
    7
 10
49.322411063510117
 20
142.71627999559911
 11
53.322411063510117
 21
141.64448323559913
  0
LINE
  8
_0-1_0
  6
CONTINUOUS
 62
    7
 10
53.322411063510117
 20
141.64448323559913
 11
49.322411063510117
 21
140.57268647559914
  0
LINE
  8
_0-1_0
  6
CONTINUOUS
 62
    7
 10
53.322411063510117
 20
141.64448323559913
 11
49.322411063510117
 21
141.64448323559913
  0
TEXT
  8
_0-1_0
 62
    7
 10
67.412561136446129
 20
179.95534441505009
 40
4
 41
1
 50
90
  1
46
  0
LINE
  8
_0-1_0
  6
CONTINUOUS
 62
    7
 10
67.340764376446231
 20
201.47550417047881
 11
68.412561136446215
 21
205.47550417047881
  0
LINE
  8
_0-1_0
  6
CONTINUOUS
 62
    7
 10
68.412561136446215
 20
205.47550417047881
 11
69.484357896446227
 21
201.47550417047881
  0
LINE
  8
_0-1_0
  6
CONTINUOUS
 62
    7
 10
68.412561136446215
 20
205.47550417047881
 11
68.412561136446215
 21
201.47550417047881
  0
LINE
  8
_0-1_0
  6
CONTINUOUS
 62
    7
 10
69.484357896446227
 20
163.39995069438231
 11
68.412561136446215
 21
159.39995069438231
  0
LINE
  8
_0-1_0
  6
CONTINUOUS
 62
    7
 10
68.412561136446215
 20
159.39995069438231
 11
67.340764376446231
 21
163.39995069438231
  0
LINE
  8
_0-1_0
  6
CONTINUOUS
 62
    7
 10
68.412561136446215
 20
159.39995069438231
 11
68.412561136446215
 21
163.39995069438231
  0
TEXT
  8
_0-1_0
 62
    7
 10
98.485969768674636
 20
189.530305883555
 40
4
 41
1
 50
90
  1
24
  0
LINE
  8
_0-1_0
  6
CONTINUOUS
 62
    7
 10
100.55776652867473
 20
185.47610417047883
 11
99.485969768674721
 21
181.47610417047883
  0
LINE
  8
_0-1_0
  6
CONTINUOUS
 62
    7
 10
99.485969768674721
 20
181.47610417047883
 11
98.414173008674624
 21
185.47610417047883
  0
LINE
  8
_0-1_0
  6
CONTINUOUS
 62
    7
 10
99.485969768674721
 20
181.47610417047883
 11
99.485969768674721
 21
185.47610417047883
  0
LINE
  8
_0-1_0
  6
CONTINUOUS
 62
    7
 10
98.414173008674624
 20
201.47550417047881
 11
99.485969768674721
 21
205.47550417047881
  0
LINE
  8
_0-1_0
  6
CONTINUOUS
 62
    7
 10
99.485969768674721
 20
205.47550417047881
 11
100.55776652867473
 21
201.47550417047881
  0
LINE
  8
_0-1_0
  6
CONTINUOUS
 62
    7
 10
99.485969768674721
 20
205.47550417047881
 11
99.485969768674721
 21
201.47550417047881
  0
TEXT
  8
_0-1_0
 62
    7
 10
199.59879617380065
 20
127.04142114041122
 40
4
 41
1
 50
0
  1
70
  0
LINE
  8
_0-1_0
  6
CONTINUOUS
 62
    7
 10
234.67143622472165
 20
127.11321790041114
 11
238.67143622472165
 21
126.0414211404111
  0
LINE
  8
_0-1_0
  6
CONTINUOUS
 62
    7
 10
238.67143622472165
 20
126.0414211404111
 11
234.67143622472165
 21
124.96962438041123
  0
LINE
  8
_0-1_0
  6
CONTINUOUS
 62
    7
 10
238.67143622472165
 20
126.0414211404111
 11
234.67143622472165
 21
126.0414211404111
  0
LINE
  8
_0-1_0
  6
CONTINUOUS
 62
    7
 10
172.6731862247216
 20
124.96962438041123
 11
168.6731862247216
 21
126.0414211404111
  0
LINE
  8
_0-1_0
  6
CONTINUOUS
 62
    7
 10
168.6731862247216
 20
126.0414211404111
 11
172.6731862247216
 21
127.11321790041114
  0
LINE
  8
_0-1_0
  6
CONTINUOUS
 62
    7
 10
168.6731862247216
 20
126.0414211404111
 11
172.6731862247216
 21
126.0414211404111
  0
TEXT
  8
_0-1_0
 62
    7
 10
197.05874490355424
 20
147.2199844884916
 40
4
 41
1
 50
0
  1
65
  0
LINE
  8
_0-1_0
  6
CONTINUOUS
 62
    7
 10
229.67156122472173
 20
147.29178124849159
 11
233.67156122472161
 21
146.21998448849172
  0
LINE
  8
_0-1_0
  6
CONTINUOUS
 62
    7
 10
233.67156122472161
 20
146.21998448849172
 11
229.67156122472173
 21
145.14818772849173
  0
LINE
  8
_0-1_0
  6
CONTINUOUS
 62
    7
 10
233.67156122472161
 20
146.21998448849172
 11
229.67156122472173
 21
146.21998448849172
  0
LINE
  8
_0-1_0
  6
CONTINUOUS
 62
    7
 10
172.6731862247216
 20
145.14818772849173
 11
168.6731862247216
 21
146.21998448849172
  0
LINE
  8
_0-1_0
  6
CONTINUOUS
 62
    7
 10
168.6731862247216
 20
146.21998448849172
 11
172.6731862247216
 21
147.29178124849159
  0
LINE
  8
_0-1_0
  6
CONTINUOUS
 62
    7
 10
168.6731862247216
 20
146.21998448849172
 11
172.6731862247216
 21
146.21998448849172
  0
TEXT
  8
_0-1_0
 62
    7
 10
65.293543200681626
 20
-36.045392915710295
 40
4
 41
1
 50
90
  1
8
  0
LINE
  8
_0-1_0
  6
CONTINUOUS
 62
    7
 10
67.365339960681609
 20
-42.807297677615082
 11
66.293543200681626
 21
-46.807297677615082
  0
LINE
  8
_0-1_0
  6
CONTINUOUS
 62
    7
 10
66.293543200681626
 20
-46.807297677615082
 11
65.221746440681613
 21
-42.807297677615082
  0
LINE
  8
_0-1_0
  6
CONTINUOUS
 62
    7
 10
66.293543200681626
 20
-46.807297677615082
 11
66.293543200681626
 21
-42.807297677615082
  0
LINE
  8
_0-1_0
  6
CONTINUOUS
 62
    7
 10
65.221746440681613
 20
-58.807097677615076
 11
66.293543200681626
 21
-54.807097677615076
  0
LINE
  8
_0-1_0
  6
CONTINUOUS
 62
    7
 10
66.293543200681626
 20
-54.807097677615076
 11
67.365339960681609
 21
-58.807097677615076
  0
LINE
  8
_0-1_0
  6
CONTINUOUS
 62
    7
 10
66.293543200681626
 20
-54.807097677615076
 11
66.293543200681626
 21
-58.807097677615076
  0
LINE
  8
_0-4_図面枠
  6
CONTINUOUS
 62
    6
 10
301.65381481224779
 20
341.97096037084515
 11
301.65381481224779
 21
-212.35879606393161
  0
LINE
  8
_0-4_図面枠
  6
CONTINUOUS
 62
    6
 10
-83.239299089634557
 20
341.97096037084515
 11
301.65381481224779
 21
341.97096037084515
  0
LINE
  8
_0-4_図面枠
  6
CONTINUOUS
 62
    6
 10
301.65381481224779
 20
-212.35879606393161
 11
-83.239299089634557
 21
-212.35879606393161
  0
LINE
  8
_0-4_図面枠
  6
CONTINUOUS
 62
    6
 10
171.65381481224821
 20
-176.35879606753161
 11
171.65381481224821
 21
-212.35879606393161
  0
LINE
  8
_0-4_図面枠
  6
CONTINUOUS
 62
    6
 10
301.65381481224779
 20
-176.35879606753184
 11
-83.239299089634557
 21
-176.35879606753184
  0
LINE
  8
_0-5_細線
  6
CONTINUOUS
 62
    7
 10
-59.970416827547439
 20
-205.39693841963134
 11
-51.562717223151509
 21
-205.39693841963134
  0
LINE
  8
_0-5_細線
  6
CONTINUOUS
 62
    7
 10
-51.562717223151509
 20
-205.39693841963134
 11
-51.562717223151509
 21
-196.97739999814752
  0
LINE
  8
_0-5_細線
  6
CONTINUOUS
 62
    7
 10
-59.970416827547439
 20
-196.97739999814752
 11
-59.970416827547439
 21
-205.39693841963134
  0
LINE
  8
_0-5_細線
  6
CONTINUOUS
 62
    7
 10
-51.562717223151509
 20
-196.97739999814752
 11
-59.970416827547439
 21
-196.97739999814752
  0
LINE
  8
_0-5_細線
  6
CONTINUOUS
 62
    7
 10
-50.610072898234563
 20
-194.23181647189966
 11
-46.310072898234836
 21
-186.78399799935374
  0
LINE
  8
_0-5_細線
  6
CONTINUOUS
 62
    7
 10
-50.610072898234563
 20
-194.23181647189966
 11
-42.010072898234654
 21
-194.23181647189966
  0
LINE
  8
_0-5_細線
  6
CONTINUOUS
 62
    7
 10
-46.310072898234836
 20
-186.78399799935374
 11
-42.010072898234654
 21
-194.23181647189966
  0
CIRCLE
  8
_0-5_細線
  6
CONTINUOUS
 62
    7
 10
-39.544533977894758
 20
-185.19245804334338
 40
2.9517431670324772
  0
LINE
  8
_0-5_細線
  6
CONTINUOUS
 62
    7
 10
-33.610942182993682
 20
-201.00393809527253
 11
-29.986412245303114
 21
-201.00393809527253
  0
LINE
  8
_0-5_細線
  6
CONTINUOUS
 62
    7
 10
-29.053796928992966
 20
-203.00393809527242
 11
-27.841397017789774
 21
-205.60393809527255
  0
LINE
  8
_0-5_細線
  6
CONTINUOUS
 62
    7
 10
-34.54355749930383
 20
-203.00393809527242
 11
-35.755957410506568
 21
-205.60393809527255
  0
LINE
  8
_0-5_細線
  6
CONTINUOUS
 62
    7
 10
-31.798677214148398
 20
-197.11752332778627
 11
-29.986412245303114
 21
-201.00393809527253
  0
LINE
  8
_0-5_細線
  6
CONTINUOUS
 62
    7
 10
-31.798677214148398
 20
-197.11752332778627
 11
-33.610942182993682
 21
-201.00393809527253
  0
LINE
  8
_0-5_細線
  6
CONTINUOUS
 62
    7
 10
-32.988636846378455
 20
-194.09368200090597
 11
-38.355957410506932
 21
-205.60393809527255
  0
LINE
  8
_0-5_細線
  6
CONTINUOUS
 62
    7
 10
-17.302891268187892
 20
-196.09368200090597
 11
-17.153263251681352
 21
-196.17579549042495
  0
LINE
  8
_0-5_細線
  6
CONTINUOUS
 62
    7
 10
-17.153263251681352
 20
-196.17579549042495
 11
-16.89807034608512
 21
-196.31925455592096
  0
LINE
  8
_0-5_細線
  6
CONTINUOUS
 62
    7
 10
-16.89807034608512
 20
-196.31925455592096
 11
-16.650617532735765
 21
-196.4679471868821
  0
LINE
  8
_0-5_細線
  6
CONTINUOUS
 62
    7
 10
-16.650617532735765
 20
-196.4679471868821
 11
-16.415803604194849
 21
-196.62518576651308
  0
LINE
  8
_0-5_細線
  6
CONTINUOUS
 62
    7
 10
-16.415803604194849
 20
-196.62518576651308
 11
-16.198527353022115
 21
-196.7942826780199
  0
LINE
  8
_0-5_細線
  6
CONTINUOUS
 62
    7
 10
-16.198527353022115
 20
-196.7942826780199
 11
-16.003687571780034
 21
-196.97855030460772
  0
LINE
  8
_0-5_細線
  6
CONTINUOUS
 62
    7
 10
-16.003687571780034
 20
-196.97855030460772
 11
-15.902891268188256
 21
-197.09368200090597
  0
LINE
  8
_0-5_細線
  6
CONTINUOUS
 62
    7
 10
-15.902891268188256
 20
-197.09368200090597
 11
-15.75899399372193
 21
-197.29675106045505
  0
LINE
  8
_0-5_細線
  6
CONTINUOUS
 62
    7
 10
-15.75899399372193
 20
-197.29675106045505
 11
-15.568082852210793
 21
-197.68510695948629
  0
LINE
  8
_0-5_細線
  6
CONTINUOUS
 62
    7
 10
-15.568082852210793
 20
-197.68510695948629
 11
-15.439209305442006
 21
-198.11421227336785
  0
LINE
  8
_0-5_細線
  6
CONTINUOUS
 62
    7
 10
-15.439209305442006
 20
-198.11421227336785
 11
-15.360336397687121
 21
-198.57516974994957
  0
LINE
  8
_0-5_細線
  6
CONTINUOUS
 62
    7
 10
-15.360336397687121
 20
-198.57516974994957
 11
-15.319427173218543
 21
-199.05908213708
  0
LINE
  8
_0-5_細線
  6
CONTINUOUS
 62
    7
 10
-15.319427173218543
 20
-199.05908213708
 11
-15.304444676307781
 21
-199.55705218260886
  0
LINE
  8
_0-5_細線
  6
CONTINUOUS
 62
    7
 10
-15.304444676307781
 20
-199.55705218260886
 11
-15.302891268187892
 21
-199.84881004808921
  0
LINE
  8
_0-5_細線
  6
CONTINUOUS
 62
    7
 10
-15.302891268187892
 20
-199.84881004808921
 11
-15.304444676307781
 21
-200.14056791356944
  0
LINE
  8
_0-5_細線
  6
CONTINUOUS
 62
    7
 10
-15.304444676307781
 20
-200.14056791356944
 11
-15.319427173218543
 21
-200.6385379590983
  0
LINE
  8
_0-5_細線
  6
CONTINUOUS
 62
    7
 10
-15.319427173218543
 20
-200.6385379590983
 11
-15.360336397687121
 21
-201.12245034622862
  0
LINE
  8
_0-5_細線
  6
CONTINUOUS
 62
    7
 10
-15.360336397687121
 20
-201.12245034622862
 11
-15.439209305442006
 21
-201.58340782281033
  0
LINE
  8
_0-5_細線
  6
CONTINUOUS
 62
    7
 10
-15.439209305442006
 20
-201.58340782281033
 11
-15.568082852210793
 21
-202.01251313669223
  0
LINE
  8
_0-5_細線
  6
CONTINUOUS
 62
    7
 10
-15.568082852210793
 20
-202.01251313669223
 11
-15.75899399372193
 21
-202.40086903572336
  0
LINE
  8
_0-5_細線
  6
CONTINUOUS
 62
    7
 10
-15.75899399372193
 20
-202.40086903572336
 11
-15.902891268188256
 21
-202.60393809527255
  0
LINE
  8
_0-5_細線
  6
CONTINUOUS
 62
    7
 10
-15.902891268188256
 20
-202.60393809527255
 11
-16.003687571780034
 21
-202.71906979157046
  0
LINE
  8
_0-5_細線
  6
CONTINUOUS
 62
    7
 10
-16.003687571780034
 20
-202.71906979157046
 11
-16.198527353022115
 21
-202.90333741815829
  0
LINE
  8
_0-5_細線
  6
CONTINUOUS
 62
    7
 10
-16.198527353022115
 20
-202.90333741815829
 11
-16.415803604194849
 21
-203.07243432966533
  0
LINE
  8
_0-5_細線
  6
CONTINUOUS
 62
    7
 10
-16.415803604194849
 20
-203.07243432966533
 11
-16.650617532735765
 21
-203.22967290929631
  0
LINE
  8
_0-5_細線
  6
CONTINUOUS
 62
    7
 10
-16.650617532735765
 20
-203.22967290929631
 11
-16.89807034608512
 21
-203.37836554025733
  0
LINE
  8
_0-5_細線
  6
CONTINUOUS
 62
    7
 10
-16.89807034608512
 20
-203.37836554025733
 11
-17.153263251681352
 21
-203.52182460575369
  0
LINE
  8
_0-5_細線
  6
CONTINUOUS
 62
    7
 10
-17.153263251681352
 20
-203.52182460575369
 11
-17.302891268187892
 21
-203.60393809527255
  0
LINE
  8
_0-5_細線
  6
CONTINUOUS
 62
    7
 10
-17.302891268187892
 20
-205.60393809527255
 11
-17.17191381513922
 21
-205.57003048536302
  0
LINE
  8
_0-5_細線
  6
CONTINUOUS
 62
    7
 10
-17.17191381513922
 20
-205.57003048536302
 11
-16.945959084219254
 21
-205.51098164398098
  0
LINE
  8
_0-5_細線
  6
CONTINUOUS
 62
    7
 10
-16.945959084219254
 20
-205.51098164398098
 11
-16.719638975498953
 21
-205.45030101096899
  0
LINE
  8
_0-5_細線
  6
CONTINUOUS
 62
    7
 10
-16.719638975498953
 20
-205.45030101096899
 11
-16.492722237204731
 21
-205.38695580681502
  0
LINE
  8
_0-5_細線
  6
CONTINUOUS
 62
    7
 10
-16.492722237204731
 20
-205.38695580681502
 11
-16.264977617564824
 21
-205.31991325200732
  0
LINE
  8
_0-5_細線
  6
CONTINUOUS
 62
    7
 10
-16.264977617564824
 20
-205.31991325200732
 11
-16.036173864806557
 21
-205.24814056703252
  0
LINE
  8
_0-5_細線
  6
CONTINUOUS
 62
    7
 10
-16.036173864806557
 20
-205.24814056703252
 11
-15.902891268188256
 21
-205.20393809527258
  0
LINE
  8
_0-5_細線
  6
CONTINUOUS
 62
    7
 10
-15.902891268188256
 20
-205.20393809527258
 11
-15.637882789601377
 21
-205.10997262891129
  0
LINE
  8
_0-5_細線
  6
CONTINUOUS
 62
    7
 10
-15.637882789601377
 20
-205.10997262891129
 11
-15.184077607406749
 21
-204.92569154232541
  0
LINE
  8
_0-5_細線
  6
CONTINUOUS
 62
    7
 10
-15.184077607406749
 20
-204.92569154232541
 11
-14.74557775063559
 21
-204.70936707045274
  0
LINE
  8
_0-5_細線
  6
CONTINUOUS
 62
    7
 10
-14.74557775063559
 20
-204.70936707045274
 11
-14.335608446403441
 21
-204.45652083155716
  0
LINE
  8
_0-5_細線
  6
CONTINUOUS
 62
    7
 10
-14.335608446403441
 20
-204.45652083155716
 11
-13.967394921826241
 21
-204.16267444390229
  0
LINE
  8
_0-5_細線
  6
CONTINUOUS
 62
    7
 10
-13.967394921826241
 20
-204.16267444390229
 11
-13.654162404018663
 21
-203.82334952575235
  0
LINE
  8
_0-5_細線
  6
CONTINUOUS
 62
    7
 10
-13.654162404018663
 20
-203.82334952575235
 11
-13.502891268188165
 21
-203.60393809527255
  0
LINE
  8
_0-5_細線
  6
CONTINUOUS
 62
    7
 10
-13.502891268188165
 20
-203.60393809527255
 11
-13.452750266694608
 21
-203.51756884922673
  0
LINE
  8
_0-5_細線
  6
CONTINUOUS
 62
    7
 10
-13.452750266694608
 20
-203.51756884922673
 11
-13.37393167374411
 21
-203.36350463255297
  0
LINE
  8
_0-5_細線
  6
CONTINUOUS
 62
    7
 10
-13.37393167374411
 20
-203.36350463255297
 11
-13.30367542972445
 21
-203.20388211664277
  0
LINE
  8
_0-5_細線
  6
CONTINUOUS
 62
    7
 10
-13.30367542972445
 20
-203.20388211664277
 11
-13.240705182013613
 21
-203.03982091747201
  0
LINE
  8
_0-5_細線
  6
CONTINUOUS
 62
    7
 10
-13.240705182013613
 20
-203.03982091747201
 11
-13.183744577991902
 21
-202.87244065101623
  0
LINE
  8
_0-5_細線
  6
CONTINUOUS
 62
    7
 10
-13.183744577991902
 20
-202.87244065101623
 11
-13.131517265037388
 21
-202.70286093325143
  0
LINE
  8
_0-5_細線
  6
CONTINUOUS
 62
    7
 10
-13.131517265037388
 20
-202.70286093325143
 11
-13.102891268188074
 21
-202.60393809527255
  0
LINE
  8
_0-5_細線
  6
CONTINUOUS
 62
    7
 10
-13.102891268188074
 20
-202.60393809527255
 11
-13.033260938308018
 21
-202.3474834329424
  0
LINE
  8
_0-5_細線
  6
CONTINUOUS
 62
    7
 10
-13.033260938308018
 20
-202.3474834329424
 11
-12.927954511903778
 21
-201.90331362215551
  0
LINE
  8
_0-5_細線
  6
CONTINUOUS
 62
    7
 10
-12.927954511903778
 20
-201.90331362215551
 11
-12.841927545539335
 21
-201.45700535562156
  0
LINE
  8
_0-5_細線
  6
CONTINUOUS
 62
    7
 10
-12.841927545539335
 20
-201.45700535562156
 11
-12.775893767413351
 21
-201.00902554507576
  0
LINE
  8
_0-5_細線
  6
CONTINUOUS
 62
    7
 10
-12.775893767413351
 20
-201.00902554507576
 11
-12.730566905726761
 21
-200.5598411022533
  0
LINE
  8
_0-5_細線
  6
CONTINUOUS
 62
    7
 10
-12.730566905726761
 20
-200.5598411022533
 11
-12.706660688678213
 21
-200.10991893888928
  0
LINE
  8
_0-5_細線
  6
CONTINUOUS
 62
    7
 10
-12.706660688678213
 20
-200.10991893888928
 11
-12.702891268187983
 21
-199.84881004808921
  0
LINE
  8
_0-5_細線
  6
CONTINUOUS
 62
    7
 10
-12.702891268187983
 20
-199.84881004808921
 11
-12.706660688678213
 21
-199.58770115728902
  0
LINE
  8
_0-5_細線
  6
CONTINUOUS
 62
    7
 10
-12.706660688678213
 20
-199.58770115728902
 11
-12.730566905726761
 21
-199.13777899392511
  0
LINE
  8
_0-5_細線
  6
CONTINUOUS
 62
    7
 10
-12.730566905726761
 20
-199.13777899392511
 11
-12.775893767413351
 21
-198.68859455110288
  0
LINE
  8
_0-5_細線
  6
CONTINUOUS
 62
    7
 10
-12.775893767413351
 20
-198.68859455110288
 11
-12.841927545539335
 21
-198.24061474055708
  0
LINE
  8
_0-5_細線
  6
CONTINUOUS
 62
    7
 10
-12.841927545539335
 20
-198.24061474055708
 11
-12.927954511903778
 21
-197.7943064740229
  0
LINE
  8
_0-5_細線
  6
CONTINUOUS
 62
    7
 10
-12.927954511903778
 20
-197.7943064740229
 11
-13.033260938308018
 21
-197.35013666323613
  0
LINE
  8
_0-5_細線
  6
CONTINUOUS
 62
    7
 10
-13.033260938308018
 20
-197.35013666323613
 11
-13.102891268188074
 21
-197.09368200090597
  0
LINE
  8
_0-5_細線
  6
CONTINUOUS
 62
    7
 10
-13.102891268188074
 20
-197.09368200090597
 11
-13.131517265037388
 21
-196.99475916292698
  0
LINE
  8
_0-5_細線
  6
CONTINUOUS
 62
    7
 10
-13.131517265037388
 20
-196.99475916292698
 11
-13.183744577991902
 21
-196.82517944516241
  0
LINE
  8
_0-5_細線
  6
CONTINUOUS
 62
    7
 10
-13.183744577991902
 20
-196.82517944516241
 11
-13.240705182013613
 21
-196.65779917870663
  0
LINE
  8
_0-5_細線
  6
CONTINUOUS
 62
    7
 10
-13.240705182013613
 20
-196.65779917870663
 11
-13.30367542972445
 21
-196.49373797953552
  0
LINE
  8
_0-5_細線
  6
CONTINUOUS
 62
    7
 10
-13.30367542972445
 20
-196.49373797953552
 11
-13.37393167374411
 21
-196.33411546362544
  0
LINE
  8
_0-5_細線
  6
CONTINUOUS
 62
    7
 10
-13.37393167374411
 20
-196.33411546362544
 11
-13.452750266694608
 21
-196.1800512469519
  0
LINE
  8
_0-5_細線
  6
CONTINUOUS
 62
    7
 10
-13.452750266694608
 20
-196.1800512469519
 11
-13.502891268188165
 21
-196.09368200090597
  0
LINE
  8
_0-5_細線
  6
CONTINUOUS
 62
    7
 10
-13.502891268188165
 20
-196.09368200090597
 11
-13.654162404018663
 21
-195.87427057042595
  0
LINE
  8
_0-5_細線
  6
CONTINUOUS
 62
    7
 10
-13.654162404018663
 20
-195.87427057042595
 11
-13.967394921826241
 21
-195.53494565227601
  0
LINE
  8
_0-5_細線
  6
CONTINUOUS
 62
    7
 10
-13.967394921826241
 20
-195.53494565227601
 11
-14.335608446403441
 21
-195.24109926462137
  0
LINE
  8
_0-5_細線
  6
CONTINUOUS
 62
    7
 10
-14.335608446403441
 20
-195.24109926462137
 11
-14.74557775063559
 21
-194.9882530257259
  0
LINE
  8
_0-5_細線
  6
CONTINUOUS
 62
    7
 10
-14.74557775063559
 20
-194.9882530257259
 11
-15.184077607406749
 21
-194.77192855385312
  0
LINE
  8
_0-5_細線
  6
CONTINUOUS
 62
    7
 10
-15.184077607406749
 20
-194.77192855385312
 11
-15.637882789601377
 21
-194.58764746726723
  0
LINE
  8
_0-5_細線
  6
CONTINUOUS
 62
    7
 10
-15.637882789601377
 20
-194.58764746726723
 11
-15.902891268188256
 21
-194.49368200090595
  0
LINE
  8
_0-5_細線
  6
CONTINUOUS
 62
    7
 10
-15.902891268188256
 20
-194.49368200090595
 11
-16.036173864806557
 21
-194.44947952914612
  0
LINE
  8
_0-5_細線
  6
CONTINUOUS
 62
    7
 10
-16.036173864806557
 20
-194.44947952914612
 11
-16.264977617564824
 21
-194.37770684417109
  0
LINE
  8
_0-5_細線
  6
CONTINUOUS
 62
    7
 10
-16.264977617564824
 20
-194.37770684417109
 11
-16.492722237204731
 21
-194.31066428936316
  0
LINE
  8
_0-5_細線
  6
CONTINUOUS
 62
    7
 10
-16.492722237204731
 20
-194.31066428936316
 11
-16.719638975498953
 21
-194.24731908520954
  0
LINE
  8
_0-5_細線
  6
CONTINUOUS
 62
    7
 10
-16.719638975498953
 20
-194.24731908520954
 11
-16.945959084219254
 21
-194.18663845219766
  0
LINE
  8
_0-5_細線
  6
CONTINUOUS
 62
    7
 10
-16.945959084219254
 20
-194.18663845219766
 11
-17.17191381513922
 21
-194.12758961081562
  0
LINE
  8
_0-5_細線
  6
CONTINUOUS
 62
    7
 10
-17.17191381513922
 20
-194.12758961081562
 11
-17.302891268187892
 21
-194.09368200090597
  0
LINE
  8
_0-5_細線
  6
CONTINUOUS
 62
    7
 10
-10.102891268188088
 20
-194.09368200090597
 11
-6.0355707040597935
 21
-202.81607909861015
  0
LINE
  8
_0-5_細線
  6
CONTINUOUS
 62
    7
 10
-1.9682501399314845
 20
-194.09368200090597
 11
-6.0355707040597935
 21
-202.81607909861015
  0
LINE
  8
_0-5_細線
  6
CONTINUOUS
 62
    7
 10
-12.702891268187983
 20
-194.09368200090597
 11
-7.3355707040595064
 21
-205.60393809527255
  0
LINE
  8
_0-5_細線
  6
CONTINUOUS
 62
    7
 10
-4.7355707040595973
 20
-205.60393809527255
 11
0.6317498600684246
 21
-194.09368200090597
  0
LINE
  8
_0-5_細線
  6
CONTINUOUS
 62
    7
 10
2.6317498600688793
 20
-194.09368200090597
 11
-2.7355707040596116
 21
-205.60393809527255
  0
LINE
  8
_0-5_細線
  6
CONTINUOUS
 62
    7
 10
5.3026177809625494
 20
-194.09368200090597
 11
10.669938345090529
 21
-205.60393809527255
  0
LINE
  8
_0-5_細線
  6
CONTINUOUS
 62
    7
 10
-34.54355749930383
 20
-203.00393809527242
 11
-29.053796928992966
 21
-203.00393809527242
  0
LINE
  8
_0-5_細線
  6
CONTINUOUS
 62
    7
 10
1.0768292071430494
 20
-203.00393809527242
 11
6.8575384338879246
 21
-203.00393809527242
  0
LINE
  8
_0-5_細線
  6
CONTINUOUS
 62
    7
 10
2.0094445234531975
 20
-201.00393809527253
 11
5.9249231175777197
 21
-201.00393809527253
  0
LINE
  8
_0-5_細線
  6
CONTINUOUS
 62
    7
 10
14.42303526785652
 20
-196.09368200090597
 11
20.365702830035417
 21
-205.60393809527255
  0
LINE
  8
_0-5_細線
  6
CONTINUOUS
 62
    7
 10
21.580554023106316
 20
-203.39653059463086
 11
21.580554023106316
 21
-194.09368200090597
  0
LINE
  8
_0-5_細線
  6
CONTINUOUS
 62
    7
 10
23.780554023106617
 20
-205.60393809527255
 11
23.780554023106617
 21
-194.09368200090597
  0
LINE
  8
_0-5_細線
  6
CONTINUOUS
 62
    7
 10
15.767489051435021
 20
-194.09368200090597
 11
21.580554023106316
 21
-203.39653059463086
  0
LINE
  8
_0-5_細線
  6
CONTINUOUS
 62
    7
 10
11.823035267856625
 20
-194.09368200090597
 11
11.823035267856625
 21
-205.60393809527255
  0
LINE
  8
_0-5_細線
  6
CONTINUOUS
 62
    7
 10
-17.302891268187892
 20
-196.09368200090597
 11
-21.302891268187892
 21
-196.09368200090597
  0
LINE
  8
_0-5_細線
  6
CONTINUOUS
 62
    7
 10
-21.302891268187892
 20
-203.60393809527255
 11
-17.302891268187892
 21
-203.60393809527255
  0
LINE
  8
_0-5_細線
  6
CONTINUOUS
 62
    7
 10
5.9249231175777197
 20
-201.00393809527253
 11
3.967183820515487
 21
-196.8055526241688
  0
LINE
  8
_0-5_細線
  6
CONTINUOUS
 62
    7
 10
2.0094445234531975
 20
-201.00393809527253
 11
3.967183820515487
 21
-196.8055526241688
  0
LINE
  8
_0-5_細線
  6
CONTINUOUS
 62
    7
 10
-0.1355707040597025
 20
-205.60393809527255
 11
1.0768292071430494
 21
-203.00393809527242
  0
LINE
  8
_0-5_細線
  6
CONTINUOUS
 62
    7
 10
8.0699383450906197
 20
-205.60393809527255
 11
6.8575384338879246
 21
-203.00393809527242
  0
LINE
  8
_0-5_細線
  6
CONTINUOUS
 62
    7
 10
14.42303526785652
 20
-196.09368200090597
 11
14.42303526785652
 21
-205.60393809527255
  0
LINE
  8
_0-5_細線
  6
CONTINUOUS
 62
    7
 10
-38.355957410506932
 20
-205.60393809527255
 11
-35.755957410506568
 21
-205.60393809527255
  0
LINE
  8
_0-5_細線
  6
CONTINUOUS
 62
    7
 10
-27.841397017789774
 20
-205.60393809527255
 11
-25.241397017789865
 21
-205.60393809527255
  0
LINE
  8
_0-5_細線
  6
CONTINUOUS
 62
    7
 10
-30.608717581917887
 20
-194.09368200090597
 11
-25.241397017789865
 21
-205.60393809527255
  0
LINE
  8
_0-5_細線
  6
CONTINUOUS
 62
    7
 10
-30.608717581917887
 20
-194.09368200090597
 11
-32.988636846378455
 21
-194.09368200090597
  0
LINE
  8
_0-5_細線
  6
CONTINUOUS
 62
    7
 10
-23.902891268187801
 20
-194.09368200090597
 11
-23.902891268187801
 21
-205.60393809527255
  0
LINE
  8
_0-5_細線
  6
CONTINUOUS
 62
    7
 10
-21.302891268187892
 20
-196.09368200090597
 11
-21.302891268187892
 21
-203.60393809527255
  0
LINE
  8
_0-5_細線
  6
CONTINUOUS
 62
    7
 10
-23.902891268187801
 20
-205.60393809527255
 11
-17.302891268187892
 21
-205.60393809527255
  0
LINE
  8
_0-5_細線
  6
CONTINUOUS
 62
    7
 10
-17.302891268187892
 20
-194.09368200090597
 11
-23.902891268187801
 21
-194.09368200090597
  0
LINE
  8
_0-5_細線
  6
CONTINUOUS
 62
    7
 10
-10.102891268188088
 20
-194.09368200090597
 11
-12.702891268187983
 21
-194.09368200090597
  0
LINE
  8
_0-5_細線
  6
CONTINUOUS
 62
    7
 10
-7.3355707040595064
 20
-205.60393809527255
 11
-4.7355707040595973
 21
-205.60393809527255
  0
LINE
  8
_0-5_細線
  6
CONTINUOUS
 62
    7
 10
0.6317498600684246
 20
-194.09368200090597
 11
-1.9682501399314845
 21
-194.09368200090597
  0
LINE
  8
_0-5_細線
  6
CONTINUOUS
 62
    7
 10
-2.7355707040596116
 20
-205.60393809527255
 11
-0.1355707040597025
 21
-205.60393809527255
  0
LINE
  8
_0-5_細線
  6
CONTINUOUS
 62
    7
 10
8.0699383450906197
 20
-205.60393809527255
 11
10.669938345090529
 21
-205.60393809527255
  0
LINE
  8
_0-5_細線
  6
CONTINUOUS
 62
    7
 10
11.823035267856625
 20
-205.60393809527255
 11
14.42303526785652
 21
-205.60393809527255
  0
LINE
  8
_0-5_細線
  6
CONTINUOUS
 62
    7
 10
20.365702830035417
 20
-205.60393809527255
 11
23.780554023106617
 21
-205.60393809527255
  0
LINE
  8
_0-5_細線
  6
CONTINUOUS
 62
    7
 10
23.780554023106617
 20
-194.09368200090597
 11
21.580554023106316
 21
-194.09368200090597
  0
LINE
  8
_0-5_細線
  6
CONTINUOUS
 62
    7
 10
15.767489051435021
 20
-194.09368200090597
 11
11.823035267856625
 21
-194.09368200090597
  0
LINE
  8
_0-5_細線
  6
CONTINUOUS
 62
    7
 10
5.3026177809625494
 20
-194.09368200090597
 11
2.6317498600688793
 21
-194.09368200090597
  0
LINE
  8
_0-5_細線
  6
CONTINUOUS
 62
    7
 10
-38.211282617714375
 20
-205.29368200090602
 11
-35.611282617714465
 21
-205.29368200090602
  0
LINE
  8
_0-5_細線
  6
CONTINUOUS
 62
    7
 10
-27.986071810582331
 20
-205.29368200090602
 11
-25.386071810581967
 21
-205.29368200090602
  0
LINE
  8
_0-5_細線
  6
CONTINUOUS
 62
    7
 10
-23.902891268187801
 20
-205.29368200090602
 11
-16.181355154595082
 21
-205.29368200090602
  0
LINE
  8
_0-5_細線
  6
CONTINUOUS
 62
    7
 10
-7.4802454968520635
 20
-205.29368200090602
 11
-4.590895911267495
 21
-205.29368200090602
  0
LINE
  8
_0-5_細線
  6
CONTINUOUS
 62
    7
 10
-2.5908959112670402
 20
-205.29368200090602
 11
0.0091040887324282
 21
-205.29368200090602
  0
LINE
  8
_0-5_細線
  6
CONTINUOUS
 62
    7
 10
7.9252635522985173
 20
-205.29368200090602
 11
10.525263552298426
 21
-205.29368200090602
  0
LINE
  8
_0-5_細線
  6
CONTINUOUS
 62
    7
 10
11.823035267856625
 20
-205.29368200090602
 11
14.42303526785652
 21
-205.29368200090602
  0
LINE
  8
_0-5_細線
  6
CONTINUOUS
 62
    7
 10
20.171833305422822
 20
-205.29368200090602
 11
23.780554023106617
 21
-205.29368200090602
  0
LINE
  8
_0-5_細線
  6
CONTINUOUS
 62
    7
 10
-38.024759554452345
 20
-204.89368200090593
 11
-35.424759554452436
 21
-204.89368200090593
  0
LINE
  8
_0-5_細線
  6
CONTINUOUS
 62
    7
 10
-28.172594873843906
 20
-204.89368200090593
 11
-25.572594873843997
 21
-204.89368200090593
  0
LINE
  8
_0-5_細線
  6
CONTINUOUS
 62
    7
 10
-23.902891268187801
 20
-204.89368200090593
 11
-15.11919276471545
 21
-204.89368200090593
  0
LINE
  8
_0-5_細線
  6
CONTINUOUS
 62
    7
 10
-7.6667685601140931
 20
-204.89368200090593
 11
-4.4043728480054654
 21
-204.89368200090593
  0
LINE
  8
_0-5_細線
  6
CONTINUOUS
 62
    7
 10
-2.4043728480054511
 20
-204.89368200090593
 11
0.1956271519944579
 21
-204.89368200090593
  0
LINE
  8
_0-5_細線
  6
CONTINUOUS
 62
    7
 10
7.7387404890365161
 20
-204.89368200090593
 11
10.338740489036425
 21
-204.89368200090593
  0
LINE
  8
_0-5_細線
  6
CONTINUOUS
 62
    7
 10
11.823035267856625
 20
-204.89368200090593
 11
14.42303526785652
 21
-204.89368200090593
  0
LINE
  8
_0-5_細線
  6
CONTINUOUS
 62
    7
 10
19.921885564659121
 20
-204.89368200090593
 11
23.780554023106617
 21
-204.89368200090593
  0
LINE
  8
_0-5_細線
  6
CONTINUOUS
 62
    7
 10
-37.838236491190315
 20
-204.49368200090595
 11
-35.238236491190406
 21
-204.49368200090595
  0
LINE
  8
_0-5_細線
  6
CONTINUOUS
 62
    7
 10
-28.35911793710639
 20
-204.49368200090595
 11
-25.759117937106026
 21
-204.49368200090595
  0
LINE
  8
_0-5_細線
  6
CONTINUOUS
 62
    7
 10
-23.902891268187801
 20
-204.49368200090595
 11
-14.39586221489516
 21
-204.49368200090595
  0
LINE
  8
_0-5_細線
  6
CONTINUOUS
 62
    7
 10
-7.8532916233761227
 20
-204.49368200090595
 11
-4.2178497847434357
 21
-204.49368200090595
  0
LINE
  8
_0-5_細線
  6
CONTINUOUS
 62
    7
 10
-2.2178497847434215
 20
-204.49368200090595
 11
0.3821502152564875
 21
-204.49368200090595
  0
LINE
  8
_0-5_細線
  6
CONTINUOUS
 62
    7
 10
7.5522174257744297
 20
-204.49368200090595
 11
10.152217425774424
 21
-204.49368200090595
  0
LINE
  8
_0-5_細線
  6
CONTINUOUS
 62
    7
 10
11.823035267856625
 20
-204.49368200090595
 11
14.42303526785652
 21
-204.49368200090595
  0
LINE
  8
_0-5_細線
  6
CONTINUOUS
 62
    7
 10
19.671937823895419
 20
-204.49368200090595
 11
23.780554023106617
 21
-204.49368200090595
  0
LINE
  8
_0-5_細線
  6
CONTINUOUS
 62
    7
 10
-37.65171342792874
 20
-204.09368200090586
 11
-35.051713427928377
 21
-204.09368200090586
  0
LINE
  8
_0-5_細線
  6
CONTINUOUS
 62
    7
 10
-28.545641000367965
 20
-204.09368200090586
 11
-25.945641000368056
 21
-204.09368200090586
  0
LINE
  8
_0-5_細線
  6
CONTINUOUS
 62
    7
 10
-23.902891268187801
 20
-204.09368200090586
 11
-13.903707654921988
 21
-204.09368200090586
  0
LINE
  8
_0-5_細線
  6
CONTINUOUS
 62
    7
 10
-8.0398146866381524
 20
-204.09368200090586
 11
-4.0313267214814061
 21
-204.09368200090586
  0
LINE
  8
_0-5_細線
  6
CONTINUOUS
 62
    7
 10
-2.0313267214813919
 20
-204.09368200090586
 11
0.5686732785185171
 21
-204.09368200090586
  0
LINE
  8
_0-5_細線
  6
CONTINUOUS
 62
    7
 10
7.3656943625124285
 20
-204.09368200090586
 11
9.9656943625123233
 21
-204.09368200090586
  0
LINE
  8
_0-5_細線
  6
CONTINUOUS
 62
    7
 10
11.823035267856625
 20
-204.09368200090586
 11
14.42303526785652
 21
-204.09368200090586
  0
LINE
  8
_0-5_細線
  6
CONTINUOUS
 62
    7
 10
19.421990083131817
 20
-204.09368200090586
 11
23.780554023106617
 21
-204.09368200090586
  0
LINE
  8
_0-5_細線
  6
CONTINUOUS
 62
    7
 10
-37.465190364666711
 20
-203.69368200090599
 11
-34.865190364666347
 21
-203.69368200090599
  0
LINE
  8
_0-5_細線
  6
CONTINUOUS
 62
    7
 10
-28.732164063630449
 20
-203.69368200090599
 11
-26.132164063630086
 21
-203.69368200090599
  0
LINE
  8
_0-5_細線
  6
CONTINUOUS
 62
    7
 10
-23.902891268187801
 20
-203.69368200090599
 11
-13.564764355243753
 21
-203.69368200090599
  0
LINE
  8
_0-5_細線
  6
CONTINUOUS
 62
    7
 10
-8.226337749900182
 20
-203.69368200090599
 11
-3.8448036582193765
 21
-203.69368200090599
  0
LINE
  8
_0-5_細線
  6
CONTINUOUS
 62
    7
 10
-1.8448036582193623
 20
-203.69368200090599
 11
0.7551963417805467
 21
-203.69368200090599
  0
LINE
  8
_0-5_細線
  6
CONTINUOUS
 62
    7
 10
7.1791712992504273
 20
-203.69368200090599
 11
9.7791712992508195
 21
-203.69368200090599
  0
LINE
  8
_0-5_細線
  6
CONTINUOUS
 62
    7
 10
11.823035267856625
 20
-203.69368200090599
 11
14.42303526785652
 21
-203.69368200090599
  0
LINE
  8
_0-5_細線
  6
CONTINUOUS
 62
    7
 10
19.172042342367618
 20
-203.69368200090599
 11
23.780554023106617
 21
-203.69368200090599
  0
LINE
  8
_0-5_細線
  6
CONTINUOUS
 62
    7
 10
-37.278667301404226
 20
-203.29368200090613
 11
-34.678667301404317
 21
-203.29368200090613
  0
LINE
  8
_0-5_細線
  6
CONTINUOUS
 62
    7
 10
-28.918687126892479
 20
-203.29368200090613
 11
-26.318687126892115
 21
-203.29368200090613
  0
LINE
  8
_0-5_細線
  6
CONTINUOUS
 62
    7
 10
-23.902891268187801
 20
-203.29368200090613
 11
-21.302891268187892
 21
-203.29368200090613
  0
LINE
  8
_0-5_細線
  6
CONTINUOUS
 62
    7
 10
-16.757140833160435
 20
-203.29368200090613
 11
-13.343199945083512
 21
-203.29368200090613
  0
LINE
  8
_0-5_細線
  6
CONTINUOUS
 62
    7
 10
-8.4128608131622116
 20
-203.29368200090613
 11
-3.6582805949573469
 21
-203.29368200090613
  0
LINE
  8
_0-5_細線
  6
CONTINUOUS
 62
    7
 10
-1.6582805949573327
 20
-203.29368200090613
 11
0.9417194050425621
 21
-203.29368200090613
  0
LINE
  8
_0-5_細線
  6
CONTINUOUS
 62
    7
 10
6.9926482359884261
 20
-203.29368200090613
 11
9.5926482359883209
 21
-203.29368200090613
  0
LINE
  8
_0-5_細線
  6
CONTINUOUS
 62
    7
 10
11.823035267856625
 20
-203.29368200090613
 11
14.42303526785652
 21
-203.29368200090613
  0
LINE
  8
_0-5_細線
  6
CONTINUOUS
 62
    7
 10
18.92209460160403
 20
-203.29368200090613
 11
21.516287089000429
 21
-203.29368200090613
  0
LINE
  8
_0-5_細線
  6
CONTINUOUS
 62
    7
 10
21.580554023106316
 20
-203.29368200090613
 11
23.780554023106617
 21
-203.29368200090613
  0
LINE
  8
_0-5_細線
  6
CONTINUOUS
 62
    7
 10
-37.092144238142197
 20
-202.89368200090593
 11
-26.505210190154145
 21
-202.89368200090593
  0
LINE
  8
_0-5_細線
  6
CONTINUOUS
 62
    7
 10
-23.902891268187801
 20
-202.89368200090593
 11
-21.302891268187892
 21
-202.89368200090593
  0
LINE
  8
_0-5_細線
  6
CONTINUOUS
 62
    7
 10
-16.188317966706933
 20
-202.89368200090593
 11
-13.190973148871691
 21
-202.89368200090593
  0
LINE
  8
_0-5_細線
  6
CONTINUOUS
 62
    7
 10
-8.5993838764242412
 20
-202.89368200090593
 11
-3.4717575316953315
 21
-202.89368200090593
  0
LINE
  8
_0-5_細線
  6
CONTINUOUS
 62
    7
 10
-1.4717575316953031
 20
-202.89368200090593
 11
9.4061251727267177
 21
-202.89368200090593
  0
LINE
  8
_0-5_細線
  6
CONTINUOUS
 62
    7
 10
11.823035267856625
 20
-202.89368200090593
 11
14.42303526785652
 21
-202.89368200090593
  0
LINE
  8
_0-5_細線
  6
CONTINUOUS
 62
    7
 10
18.672146860840328
 20
-202.89368200090593
 11
21.266339348236727
 21
-202.89368200090593
  0
LINE
  8
_0-5_細線
  6
CONTINUOUS
 62
    7
 10
21.580554023106316
 20
-202.89368200090593
 11
23.780554023106617
 21
-202.89368200090593
  0
LINE
  8
_0-5_細線
  6
CONTINUOUS
 62
    7
 10
-36.905621174880622
 20
-202.49368200090584
 11
-26.691733253416174
 21
-202.49368200090584
  0
LINE
  8
_0-5_細線
  6
CONTINUOUS
 62
    7
 10
-23.902891268187801
 20
-202.49368200090584
 11
-21.302891268187892
 21
-202.49368200090584
  0
LINE
  8
_0-5_細線
  6
CONTINUOUS
 62
    7
 10
-15.824762421243946
 20
-202.49368200090584
 11
-13.072955496491346
 21
-202.49368200090584
  0
LINE
  8
_0-5_細線
  6
CONTINUOUS
 62
    7
 10
-8.785906939685816
 20
-202.49368200090584
 11
-6.1859069396863617
 21
-202.49368200090584
  0
LINE
  8
_0-5_細線
  6
CONTINUOUS
 62
    7
 10
-5.8852344684331968
 20
-202.49368200090584
 11
-3.2852344684333019
 21
-202.49368200090584
  0
LINE
  8
_0-5_細線
  6
CONTINUOUS
 62
    7
 10
-1.2852344684332877
 20
-202.49368200090584
 11
9.2196021094642191
 21
-202.49368200090584
  0
LINE
  8
_0-5_細線
  6
CONTINUOUS
 62
    7
 10
11.823035267856625
 20
-202.49368200090584
 11
14.42303526785652
 21
-202.49368200090584
  0
LINE
  8
_0-5_細線
  6
CONTINUOUS
 62
    7
 10
18.422199120076627
 20
-202.49368200090584
 11
21.016391607473025
 21
-202.49368200090584
  0
LINE
  8
_0-5_細線
  6
CONTINUOUS
 62
    7
 10
21.580554023106316
 20
-202.49368200090584
 11
23.780554023106617
 21
-202.49368200090584
  0
LINE
  8
_0-5_細線
  6
CONTINUOUS
 62
    7
 10
-36.719098111618138
 20
-202.09368200090586
 11
-26.878256316678204
 21
-202.09368200090586
  0
LINE
  8
_0-5_細線
  6
CONTINUOUS
 62
    7
 10
-23.902891268187801
 20
-202.09368200090586
 11
-21.302891268187892
 21
-202.09368200090586
  0
LINE
  8
_0-5_細線
  6
CONTINUOUS
 62
    7
 10
-15.607984500572371
 20
-202.09368200090586
 11
-12.973088181909958
 21
-202.09368200090586
  0
LINE
  8
_0-5_細線
  6
CONTINUOUS
 62
    7
 10
-8.9724300029478457
 20
-202.09368200090586
 11
-6.3724300029483913
 21
-202.09368200090586
  0
LINE
  8
_0-5_細線
  6
CONTINUOUS
 62
    7
 10
-5.6987114051711814
 20
-202.09368200090586
 11
-3.0987114051712723
 21
-202.09368200090586
  0
LINE
  8
_0-5_細線
  6
CONTINUOUS
 62
    7
 10
-1.0987114051712581
 20
-202.09368200090586
 11
9.03307904620263
 21
-202.09368200090586
  0
LINE
  8
_0-5_細線
  6
CONTINUOUS
 62
    7
 10
11.823035267856625
 20
-202.09368200090586
 11
14.42303526785652
 21
-202.09368200090586
  0
LINE
  8
_0-5_細線
  6
CONTINUOUS
 62
    7
 10
18.172251379312925
 20
-202.09368200090586
 11
20.766443866709423
 21
-202.09368200090586
  0
LINE
  8
_0-5_細線
  6
CONTINUOUS
 62
    7
 10
21.580554023106316
 20
-202.09368200090586
 11
23.780554023106617
 21
-202.09368200090586
  0
LINE
  8
_0-5_細線
  6
CONTINUOUS
 62
    7
 10
-36.532575048356563
 20
-201.69368200090599
 11
-27.064779379940234
 21
-201.69368200090599
  0
LINE
  8
_0-5_細線
  6
CONTINUOUS
 62
    7
 10
-23.902891268187801
 20
-201.69368200090599
 11
-21.302891268187892
 21
-201.69368200090599
  0
LINE
  8
_0-5_細線
  6
CONTINUOUS
 62
    7
 10
-15.472328038742404
 20
-201.69368200090599
 11
-12.887547524665393
 21
-201.69368200090599
  0
LINE
  8
_0-5_細線
  6
CONTINUOUS
 62
    7
 10
-9.15895306621033
 20
-201.69368200090599
 11
-6.5589530662099662
 21
-201.69368200090599
  0
LINE
  8
_0-5_細線
  6
CONTINUOUS
 62
    7
 10
-5.5121883419091517
 20
-201.69368200090599
 11
-2.9121883419092427
 21
-201.69368200090599
  0
LINE
  8
_0-5_細線
  6
CONTINUOUS
 62
    7
 10
-0.9121883419092284
 20
-201.69368200090599
 11
8.8465559829401172
 21
-201.69368200090599
  0
LINE
  8
_0-5_細線
  6
CONTINUOUS
 62
    7
 10
11.823035267856625
 20
-201.69368200090599
 11
14.42303526785652
 21
-201.69368200090599
  0
LINE
  8
_0-5_細線
  6
CONTINUOUS
 62
    7
 10
17.922303638549323
 20
-201.69368200090599
 11
20.516496125945721
 21
-201.69368200090599
  0
LINE
  8
_0-5_細線
  6
CONTINUOUS
 62
    7
 10
21.580554023106316
 20
-201.69368200090599
 11
23.780554023106617
 21
-201.69368200090599
  0
LINE
  8
_0-5_細線
  6
CONTINUOUS
 62
    7
 10
-36.346051985094533
 20
-201.29368200090602
 11
-27.251302443202263
 21
-201.29368200090602
  0
LINE
  8
_0-5_細線
  6
CONTINUOUS
 62
    7
 10
-23.902891268187801
 20
-201.29368200090602
 11
-21.302891268187892
 21
-201.29368200090602
  0
LINE
  8
_0-5_細線
  6
CONTINUOUS
 62
    7
 10
-15.389635279232976
 20
-201.29368200090602
 11
-12.817853116482112
 21
-201.29368200090602
  0
LINE
  8
_0-5_細線
  6
CONTINUOUS
 62
    7
 10
-9.3454761294719049
 20
-201.29368200090602
 11
-6.7454761294719958
 21
-201.29368200090602
  0
LINE
  8
_0-5_細線
  6
CONTINUOUS
 62
    7
 10
-5.3256652786471221
 20
-201.29368200090602
 11
-2.7256652786472131
 21
-201.29368200090602
  0
LINE
  8
_0-5_細線
  6
CONTINUOUS
 62
    7
 10
-0.7256652786471988
 20
-201.29368200090602
 11
8.6600329196786276
 21
-201.29368200090602
  0
LINE
  8
_0-5_細線
  6
CONTINUOUS
 62
    7
 10
11.823035267856625
 20
-201.29368200090602
 11
14.42303526785652
 21
-201.29368200090602
  0
LINE
  8
_0-5_細線
  6
CONTINUOUS
 62
    7
 10
17.672355897785124
 20
-201.29368200090602
 11
20.26654838518202
 21
-201.29368200090602
  0
LINE
  8
_0-5_細線
  6
CONTINUOUS
 62
    7
 10
21.580554023106316
 20
-201.29368200090602
 11
23.780554023106617
 21
-201.29368200090602
  0
LINE
  8
_0-5_細線
  6
CONTINUOUS
 62
    7
 10
-36.159528921832504
 20
-200.89368200090593
 11
-33.559528921832595
 21
-200.89368200090593
  0
LINE
  8
_0-5_細線
  6
CONTINUOUS
 62
    7
 10
-30.037825506464202
 20
-200.89368200090593
 11
-27.437825506464293
 21
-200.89368200090593
  0
LINE
  8
_0-5_細線
  6
CONTINUOUS
 62
    7
 10
-23.902891268187801
 20
-200.89368200090593
 11
-21.302891268187892
 21
-200.89368200090593
  0
LINE
  8
_0-5_細線
  6
CONTINUOUS
 62
    7
 10
-15.34099666628336
 20
-200.89368200090593
 11
-12.764254537790663
 21
-200.89368200090593
  0
LINE
  8
_0-5_細線
  6
CONTINUOUS
 62
    7
 10
-9.5319991927344034
 20
-200.89368200090593
 11
-6.9319991927340254
 21
-200.89368200090593
  0
LINE
  8
_0-5_細線
  6
CONTINUOUS
 62
    7
 10
-5.1391422153850925
 20
-200.89368200090593
 11
-2.539142215385624
 21
-200.89368200090593
  0
LINE
  8
_0-5_細線
  6
CONTINUOUS
 62
    7
 10
-0.539142215385624
 20
-200.89368200090593
 11
2.0608577846147398
 21
-200.89368200090593
  0
LINE
  8
_0-5_細線
  6
CONTINUOUS
 62
    7
 10
5.8735098564166179
 20
-200.89368200090593
 11
8.4735098564161291
 21
-200.89368200090593
  0
LINE
  8
_0-5_細線
  6
CONTINUOUS
 62
    7
 10
11.823035267856625
 20
-200.89368200090593
 11
14.42303526785652
 21
-200.89368200090593
  0
LINE
  8
_0-5_細線
  6
CONTINUOUS
 62
    7
 10
17.422408157021522
 20
-200.89368200090593
 11
20.016600644418318
 21
-200.89368200090593
  0
LINE
  8
_0-5_細線
  6
CONTINUOUS
 62
    7
 10
21.580554023106316
 20
-200.89368200090593
 11
23.780554023106617
 21
-200.89368200090593
  0
LINE
  8
_0-5_細線
  6
CONTINUOUS
 62
    7
 10
-35.973005858570474
 20
-200.49368200090572
 11
-33.373005858570565
 21
-200.49368200090572
  0
LINE
  8
_0-5_細線
  6
CONTINUOUS
 62
    7
 10
-30.224348569726232
 20
-200.49368200090572
 11
-27.624348569726322
 21
-200.49368200090572
  0
LINE
  8
_0-5_細線
  6
CONTINUOUS
 62
    7
 10
-23.902891268187801
 20
-200.49368200090572
 11
-21.302891268187892
 21
-200.49368200090572
  0
LINE
  8
_0-5_細線
  6
CONTINUOUS
 62
    7
 10
-15.315068871016052
 20
-200.49368200090572
 11
-12.727051600268553
 21
-200.49368200090572
  0
LINE
  8
_0-5_細線
  6
CONTINUOUS
 62
    7
 10
-9.7185222559959641
 20
-200.49368200090572
 11
-7.118522255996055
 21
-200.49368200090572
  0
LINE
  8
_0-5_細線
  6
CONTINUOUS
 62
    7
 10
-4.9526191521230629
 20
-200.49368200090572
 11
-2.3526191521231539
 21
-200.49368200090572
  0
LINE
  8
_0-5_細線
  6
CONTINUOUS
 62
    7
 10
-0.3526191521235944
 20
-200.49368200090572
 11
2.2473808478767694
 21
-200.49368200090572
  0
LINE
  8
_0-5_細線
  6
CONTINUOUS
 62
    7
 10
5.6869867931546167
 20
-200.49368200090572
 11
8.2869867931545258
 21
-200.49368200090572
  0
LINE
  8
_0-5_細線
  6
CONTINUOUS
 62
    7
 10
11.823035267856625
 20
-200.49368200090572
 11
14.42303526785652
 21
-200.49368200090572
  0
LINE
  8
_0-5_細線
  6
CONTINUOUS
 62
    7
 10
17.17246041625782
 20
-200.49368200090572
 11
19.766652903654716
 21
-200.49368200090572
  0
LINE
  8
_0-5_細線
  6
CONTINUOUS
 62
    7
 10
21.580554023106316
 20
-200.49368200090572
 11
23.780554023106617
 21
-200.49368200090572
  0
LINE
  8
_0-5_細線
  6
CONTINUOUS
 62
    7
 10
-35.786482795308444
 20
-200.09368200090597
 11
-33.186482795308535
 21
-200.09368200090597
  0
LINE
  8
_0-5_細線
  6
CONTINUOUS
 62
    7
 10
-30.410871632988261
 20
-200.09368200090597
 11
-27.810871632987897
 21
-200.09368200090597
  0
LINE
  8
_0-5_細線
  6
CONTINUOUS
 62
    7
 10
-23.902891268187801
 20
-200.09368200090597
 11
-21.302891268187892
 21
-200.09368200090597
  0
LINE
  8
_0-5_細線
  6
CONTINUOUS
 62
    7
 10
-15.30419504136708
 20
-200.09368200090597
 11
-12.706426288974313
 21
-200.09368200090597
  0
LINE
  8
_0-5_細線
  6
CONTINUOUS
 62
    7
 10
-9.9050453192579937
 20
-200.09368200090597
 11
-7.3050453192580846
 21
-200.09368200090597
  0
LINE
  8
_0-5_細線
  6
CONTINUOUS
 62
    7
 10
-4.7660960888614738
 20
-200.09368200090597
 11
-2.1660960888615506
 21
-200.09368200090597
  0
LINE
  8
_0-5_細線
  6
CONTINUOUS
 62
    7
 10
-0.1660960888615647
 20
-200.09368200090597
 11
2.433903911138799
 21
-200.09368200090597
  0
LINE
  8
_0-5_細線
  6
CONTINUOUS
 62
    7
 10
5.5004637298926298
 20
-200.09368200090597
 11
8.1004637298925246
 21
-200.09368200090597
  0
LINE
  8
_0-5_細線
  6
CONTINUOUS
 62
    7
 10
11.823035267856625
 20
-200.09368200090597
 11
14.42303526785652
 21
-200.09368200090597
  0
LINE
  8
_0-5_細線
  6
CONTINUOUS
 62
    7
 10
16.922512675494119
 20
-200.09368200090597
 11
19.516705162891029
 21
-200.09368200090597
  0
LINE
  8
_0-5_細線
  6
CONTINUOUS
 62
    7
 10
21.580554023106316
 20
-200.09368200090597
 11
23.780554023106617
 21
-200.09368200090597
  0
LINE
  8
_0-5_細線
  6
CONTINUOUS
 62
    7
 10
-35.599959732046415
 20
-199.69368200090588
 11
-32.999959732046506
 21
-199.69368200090588
  0
LINE
  8
_0-5_細線
  6
CONTINUOUS
 62
    7
 10
-30.597394696250291
 20
-199.69368200090588
 11
-27.997394696249927
 21
-199.69368200090588
  0
LINE
  8
_0-5_細線
  6
CONTINUOUS
 62
    7
 10
-23.902891268187801
 20
-199.69368200090588
 11
-21.302891268187892
 21
-199.69368200090588
  0
LINE
  8
_0-5_細線
  6
CONTINUOUS
 62
    7
 10
-15.303717217362561
 20
-199.69368200090588
 11
-12.705130727893362
 21
-199.69368200090588
  0
LINE
  8
_0-5_細線
  6
CONTINUOUS
 62
    7
 10
-10.091568382520023
 20
-199.69368200090588
 11
-7.4915683825201143
 21
-199.69368200090588
  0
LINE
  8
_0-5_細線
  6
CONTINUOUS
 62
    7
 10
-4.57957302559943
 20
-199.69368200090588
 11
-1.9795730255990804
 21
-199.69368200090588
  0
LINE
  8
_0-5_細線
  6
CONTINUOUS
 62
    7
 10
0.0204269744004648
 20
-199.69368200090588
 11
2.6204269744003739
 21
-199.69368200090588
  0
LINE
  8
_0-5_細線
  6
CONTINUOUS
 62
    7
 10
5.3139406666306002
 20
-199.69368200090588
 11
7.9139406666305234
 21
-199.69368200090588
  0
LINE
  8
_0-5_細線
  6
CONTINUOUS
 62
    7
 10
11.823035267856625
 20
-199.69368200090588
 11
14.42303526785652
 21
-199.69368200090588
  0
LINE
  8
_0-5_細線
  6
CONTINUOUS
 62
    7
 10
16.672564934730516
 20
-199.69368200090588
 11
19.266757422127327
 21
-199.69368200090588
  0
LINE
  8
_0-5_細線
  6
CONTINUOUS
 62
    7
 10
21.580554023106316
 20
-199.69368200090588
 11
23.780554023106617
 21
-199.69368200090588
  0
LINE
  8
_0-5_細線
  6
CONTINUOUS
 62
    7
 10
-35.413436668784385
 20
-199.2936820009059
 11
-32.813436668784476
 21
-199.2936820009059
  0
LINE
  8
_0-5_細線
  6
CONTINUOUS
 62
    7
 10
-30.783917759511866
 20
-199.2936820009059
 11
-28.183917759511957
 21
-199.2936820009059
  0
LINE
  8
_0-5_細線
  6
CONTINUOUS
 62
    7
 10
-23.902891268187801
 20
-199.2936820009059
 11
-21.302891268187892
 21
-199.2936820009059
  0
LINE
  8
_0-5_細線
  6
CONTINUOUS
 62
    7
 10
-15.312368733124373
 20
-199.2936820009059
 11
-12.722283137051278
 21
-199.2936820009059
  0
LINE
  8
_0-5_細線
  6
CONTINUOUS
 62
    7
 10
-10.278091445782053
 20
-199.2936820009059
 11
-7.6780914457821439
 21
-199.2936820009059
  0
LINE
  8
_0-5_細線
  6
CONTINUOUS
 62
    7
 10
-4.3930499623374004
 20
-199.2936820009059
 11
-1.7930499623374914
 21
-199.2936820009059
  0
LINE
  8
_0-5_細線
  6
CONTINUOUS
 62
    7
 10
0.2069500376624944
 20
-199.2936820009059
 11
2.8069500376628582
 21
-199.2936820009059
  0
LINE
  8
_0-5_細線
  6
CONTINUOUS
 62
    7
 10
5.1274176033685563
 20
-199.2936820009059
 11
7.7274176033684228
 21
-199.2936820009059
  0
LINE
  8
_0-5_細線
  6
CONTINUOUS
 62
    7
 10
11.823035267856625
 20
-199.2936820009059
 11
14.42303526785652
 21
-199.2936820009059
  0
LINE
  8
_0-5_細線
  6
CONTINUOUS
 62
    7
 10
16.422617193966317
 20
-199.2936820009059
 11
19.016809681363227
 21
-199.2936820009059
  0
LINE
  8
_0-5_細線
  6
CONTINUOUS
 62
    7
 10
21.580554023106316
 20
-199.2936820009059
 11
23.780554023106617
 21
-199.2936820009059
  0
LINE
  8
_0-5_細線
  6
CONTINUOUS
 62
    7
 10
-35.226913605522356
 20
-198.89368200090615
 11
-32.626913605522446
 21
-198.89368200090615
  0
LINE
  8
_0-5_細線
  6
CONTINUOUS
 62
    7
 10
-30.970440822773895
 20
-198.89368200090615
 11
-28.370440822773986
 21
-198.89368200090615
  0
LINE
  8
_0-5_細線
  6
CONTINUOUS
 62
    7
 10
-23.902891268187801
 20
-198.89368200090615
 11
-21.302891268187892
 21
-198.89368200090615
  0
LINE
  8
_0-5_細線
  6
CONTINUOUS
 62
    7
 10
-15.333409851649236
 20
-198.89368200090615
 11
-12.755198548290451
 21
-198.89368200090615
  0
LINE
  8
_0-5_細線
  6
CONTINUOUS
 62
    7
 10
-10.464614509044083
 20
-198.89368200090615
 11
-7.8646145090441735
 21
-198.89368200090615
  0
LINE
  8
_0-5_細線
  6
CONTINUOUS
 62
    7
 10
-4.2065268990753708
 20
-198.89368200090615
 11
-1.6065268990754618
 21
-198.89368200090615
  0
LINE
  8
_0-5_細線
  6
CONTINUOUS
 62
    7
 10
0.393473100924524
 20
-198.89368200090615
 11
2.9934731009244331
 21
-198.89368200090615
  0
LINE
  8
_0-5_細線
  6
CONTINUOUS
 62
    7
 10
4.9408945401065267
 20
-198.89368200090615
 11
7.5408945401064216
 21
-198.89368200090615
  0
LINE
  8
_0-5_細線
  6
CONTINUOUS
 62
    7
 10
11.823035267856625
 20
-198.89368200090615
 11
14.42303526785652
 21
-198.89368200090615
  0
LINE
  8
_0-5_細線
  6
CONTINUOUS
 62
    7
 10
16.17266945320273
 20
-198.89368200090615
 11
18.766861940599526
 21
-198.89368200090615
  0
LINE
  8
_0-5_細線
  6
CONTINUOUS
 62
    7
 10
21.580554023106316
 20
-198.89368200090615
 11
23.780554023106617
 21
-198.89368200090615
  0
LINE
  8
_0-5_細線
  6
CONTINUOUS
 62
    7
 10
-35.040390542260326
 20
-198.49368200090572
 11
-32.440390542260417
 21
-198.49368200090572
  0
LINE
  8
_0-5_細線
  6
CONTINUOUS
 62
    7
 10
-31.156963886035925
 20
-198.49368200090572
 11
-28.556963886036016
 21
-198.49368200090572
  0
LINE
  8
_0-5_細線
  6
CONTINUOUS
 62
    7
 10
-23.902891268187801
 20
-198.49368200090572
 11
-21.302891268187892
 21
-198.49368200090572
  0
LINE
  8
_0-5_細線
  6
CONTINUOUS
 62
    7
 10
-15.374279496649621
 20
-198.49368200090572
 11
-12.804624553468258
 21
-198.49368200090572
  0
LINE
  8
_0-5_細線
  6
CONTINUOUS
 62
    7
 10
-10.651137572306112
 20
-198.49368200090572
 11
-8.0511375723062031
 21
-198.49368200090572
  0
LINE
  8
_0-5_細線
  6
CONTINUOUS
 62
    7
 10
-4.0200038358133412
 20
-198.49368200090572
 11
-1.4200038358134321
 21
-198.49368200090572
  0
LINE
  8
_0-5_細線
  6
CONTINUOUS
 62
    7
 10
0.5799961641865536
 20
-198.49368200090572
 11
3.1799961641869174
 21
-198.49368200090572
  0
LINE
  8
_0-5_細線
  6
CONTINUOUS
 62
    7
 10
4.7543714768444971
 20
-198.49368200090572
 11
7.3543714768444204
 21
-198.49368200090572
  0
LINE
  8
_0-5_細線
  6
CONTINUOUS
 62
    7
 10
11.823035267856625
 20
-198.49368200090572
 11
14.42303526785652
 21
-198.49368200090572
  0
LINE
  8
_0-5_細線
  6
CONTINUOUS
 62
    7
 10
15.922721712439028
 20
-198.49368200090572
 11
18.516914199835824
 21
-198.49368200090572
  0
LINE
  8
_0-5_細線
  6
CONTINUOUS
 62
    7
 10
21.580554023106316
 20
-198.49368200090572
 11
23.780554023106617
 21
-198.49368200090572
  0
LINE
  8
_0-5_細線
  6
CONTINUOUS
 62
    7
 10
-34.853867478998296
 20
-198.09368200090597
 11
-32.253867478998387
 21
-198.09368200090597
  0
LINE
  8
_0-5_細線
  6
CONTINUOUS
 62
    7
 10
-31.343486949297954
 20
-198.09368200090597
 11
-28.743486949298045
 21
-198.09368200090597
  0
LINE
  8
_0-5_細線
  6
CONTINUOUS
 62
    7
 10
-23.902891268187801
 20
-198.09368200090597
 11
-21.302891268187892
 21
-198.09368200090597
  0
LINE
  8
_0-5_細線
  6
CONTINUOUS
 62
    7
 10
-15.445375178813194
 20
-198.09368200090597
 11
-12.870249176124531
 21
-198.09368200090597
  0
LINE
  8
_0-5_細線
  6
CONTINUOUS
 62
    7
 10
-10.837660635568142
 20
-198.09368200090597
 11
-8.2376606355677922
 21
-198.09368200090597
  0
LINE
  8
_0-5_細線
  6
CONTINUOUS
 62
    7
 10
-3.8334807725513116
 20
-198.09368200090597
 11
-1.2334807725514025
 21
-198.09368200090597
  0
LINE
  8
_0-5_細線
  6
CONTINUOUS
 62
    7
 10
0.7665192274485832
 20
-198.09368200090597
 11
3.3665192274484923
 21
-198.09368200090597
  0
LINE
  8
_0-5_細線
  6
CONTINUOUS
 62
    7
 10
4.5678484135824675
 20
-198.09368200090597
 11
7.1678484135823197
 21
-198.09368200090597
  0
LINE
  8
_0-5_細線
  6
CONTINUOUS
 62
    7
 10
11.823035267856625
 20
-198.09368200090597
 11
14.42303526785652
 21
-198.09368200090597
  0
LINE
  8
_0-5_細線
  6
CONTINUOUS
 62
    7
 10
15.672773971675326
 20
-198.09368200090597
 11
18.266966459072222
 21
-198.09368200090597
  0
LINE
  8
_0-5_細線
  6
CONTINUOUS
 62
    7
 10
21.580554023106316
 20
-198.09368200090597
 11
23.780554023106617
 21
-198.09368200090597
  0
LINE
  8
_0-5_細線
  6
CONTINUOUS
 62
    7
 10
-34.667344415736267
 20
-197.69368200090588
 11
-32.067344415736358
 21
-197.69368200090588
  0
LINE
  8
_0-5_細線
  6
CONTINUOUS
 62
    7
 10
-31.530010012559984
 20
-197.69368200090588
 11
-28.930010012560075
 21
-197.69368200090588
  0
LINE
  8
_0-5_細線
  6
CONTINUOUS
 62
    7
 10
-23.902891268187801
 20
-197.69368200090588
 11
-21.302891268187892
 21
-197.69368200090588
  0
LINE
  8
_0-5_細線
  6
CONTINUOUS
 62
    7
 10
-15.565507503070336
 20
-197.69368200090588
 11
-12.951811161805296
 21
-197.69368200090588
  0
LINE
  8
_0-5_細線
  6
CONTINUOUS
 62
    7
 10
-11.024183698830171
 20
-197.69368200090588
 11
-8.4241836988298218
 21
-197.69368200090588
  0
LINE
  8
_0-5_細線
  6
CONTINUOUS
 62
    7
 10
-3.646957709289282
 20
-197.69368200090588
 11
-1.0469577092893729
 21
-197.69368200090588
  0
LINE
  8
_0-5_細線
  6
CONTINUOUS
 62
    7
 10
0.9530422907106128
 20
-197.69368200090588
 11
3.5530422907105219
 21
-197.69368200090588
  0
LINE
  8
_0-5_細線
  6
CONTINUOUS
 62
    7
 10
4.3813253503204379
 20
-197.69368200090588
 11
6.9813253503203185
 21
-197.69368200090588
  0
LINE
  8
_0-5_細線
  6
CONTINUOUS
 62
    7
 10
11.823035267856625
 20
-197.69368200090588
 11
14.42303526785652
 21
-197.69368200090588
  0
LINE
  8
_0-5_細線
  6
CONTINUOUS
 62
    7
 10
15.422826230911625
 20
-197.69368200090588
 11
18.017018718308023
 21
-197.69368200090588
  0
LINE
  8
_0-5_細線
  6
CONTINUOUS
 62
    7
 10
21.580554023106316
 20
-197.69368200090588
 11
23.780554023106617
 21
-197.69368200090588
  0
LINE
  8
_0-5_細線
  6
CONTINUOUS
 62
    7
 10
-34.480821352474237
 20
-197.2936820009059
 11
-31.880821352474328
 21
-197.2936820009059
  0
LINE
  8
_0-5_細線
  6
CONTINUOUS
 62
    7
 10
-31.716533075822014
 20
-197.2936820009059
 11
-29.116533075822105
 21
-197.2936820009059
  0
LINE
  8
_0-5_細線
  6
CONTINUOUS
 62
    7
 10
-23.902891268187801
 20
-197.2936820009059
 11
-21.302891268187892
 21
-197.2936820009059
  0
LINE
  8
_0-5_細線
  6
CONTINUOUS
 62
    7
 10
-15.761168767689384
 20
-197.2936820009059
 11
-13.048589015113436
 21
-197.2936820009059
  0
LINE
  8
_0-5_細線
  6
CONTINUOUS
 62
    7
 10
-11.210706762092201
 20
-197.2936820009059
 11
-8.6107067620918514
 21
-197.2936820009059
  0
LINE
  8
_0-5_細線
  6
CONTINUOUS
 62
    7
 10
-3.4604346460272524
 20
-197.2936820009059
 11
-0.8604346460273433
 21
-197.2936820009059
  0
LINE
  8
_0-5_細線
  6
CONTINUOUS
 62
    7
 10
1.1395653539726425
 20
-197.2936820009059
 11
3.7395653539725515
 21
-197.2936820009059
  0
LINE
  8
_0-5_細線
  6
CONTINUOUS
 62
    7
 10
4.1948022870584083
 20
-197.2936820009059
 11
6.7948022870583173
 21
-197.2936820009059
  0
LINE
  8
_0-5_細線
  6
CONTINUOUS
 62
    7
 10
11.823035267856625
 20
-197.2936820009059
 11
14.42303526785652
 21
-197.2936820009059
  0
LINE
  8
_0-5_細線
  6
CONTINUOUS
 62
    7
 10
15.172878490148022
 20
-197.2936820009059
 11
17.767070977544421
 21
-197.2936820009059
  0
LINE
  8
_0-5_細線
  6
CONTINUOUS
 62
    7
 10
21.580554023106316
 20
-197.2936820009059
 11
23.780554023106617
 21
-197.2936820009059
  0
LINE
  8
_0-5_細線
  6
CONTINUOUS
 62
    7
 10
-34.294298289212207
 20
-196.89368200090615
 11
-29.303056139084134
 21
-196.89368200090615
  0
LINE
  8
_0-5_細線
  6
CONTINUOUS
 62
    7
 10
-23.902891268187801
 20
-196.89368200090615
 11
-21.302891268187892
 21
-196.89368200090615
  0
LINE
  8
_0-5_細線
  6
CONTINUOUS
 62
    7
 10
-16.093425102098905
 20
-196.89368200090615
 11
-13.162647099683838
 21
-196.89368200090615
  0
LINE
  8
_0-5_細線
  6
CONTINUOUS
 62
    7
 10
-11.397229825354231
 20
-196.89368200090615
 11
-8.797229825353881
 21
-196.89368200090615
  0
LINE
  8
_0-5_細線
  6
CONTINUOUS
 62
    7
 10
-3.2739115827652228
 20
-196.89368200090615
 11
-0.6739115827653279
 21
-196.89368200090615
  0
LINE
  8
_0-5_細線
  6
CONTINUOUS
 62
    7
 10
1.3260884172346721
 20
-196.89368200090615
 11
3.9260884172345811
 21
-196.89368200090615
  0
LINE
  8
_0-5_細線
  6
CONTINUOUS
 62
    7
 10
4.0082792237963787
 20
-196.89368200090615
 11
6.6082792237962167
 21
-196.89368200090615
  0
LINE
  8
_0-5_細線
  6
CONTINUOUS
 62
    7
 10
11.823035267856625
 20
-196.89368200090615
 11
14.42303526785652
 21
-196.89368200090615
  0
LINE
  8
_0-5_細線
  6
CONTINUOUS
 62
    7
 10
14.922930749384321
 20
-196.89368200090615
 11
17.517123236780719
 21
-196.89368200090615
  0
LINE
  8
_0-5_細線
  6
CONTINUOUS
 62
    7
 10
21.580554023106316
 20
-196.89368200090615
 11
23.780554023106617
 21
-196.89368200090615
  0
LINE
  8
_0-5_細線
  6
CONTINUOUS
 62
    7
 10
-34.107775225950178
 20
-196.49368200090584
 11
-29.489579202346164
 21
-196.49368200090584
  0
LINE
  8
_0-5_細線
  6
CONTINUOUS
 62
    7
 10
-23.902891268187801
 20
-196.49368200090584
 11
-21.302891268187892
 21
-196.49368200090584
  0
LINE
  8
_0-5_細線
  6
CONTINUOUS
 62
    7
 10
-16.61218617069099
 20
-196.49368200090584
 11
-13.303700068155109
 21
-196.49368200090584
  0
LINE
  8
_0-5_細線
  6
CONTINUOUS
 62
    7
 10
-11.58375288861626
 20
-196.49368200090584
 11
-8.9837528886159106
 21
-196.49368200090584
  0
LINE
  8
_0-5_細線
  6
CONTINUOUS
 62
    7
 10
-3.0873885195031932
 20
-196.49368200090584
 11
-0.4873885195032983
 21
-196.49368200090584
  0
LINE
  8
_0-5_細線
  6
CONTINUOUS
 62
    7
 10
1.5126114804967017
 20
-196.49368200090584
 11
6.4217561605342297
 21
-196.49368200090584
  0
LINE
  8
_0-5_細線
  6
CONTINUOUS
 62
    7
 10
11.823035267856625
 20
-196.49368200090584
 11
14.42303526785652
 21
-196.49368200090584
  0
LINE
  8
_0-5_細線
  6
CONTINUOUS
 62
    7
 10
14.672983008620619
 20
-196.49368200090584
 11
17.267175496017018
 21
-196.49368200090584
  0
LINE
  8
_0-5_細線
  6
CONTINUOUS
 62
    7
 10
21.580554023106316
 20
-196.49368200090584
 11
23.780554023106617
 21
-196.49368200090584
  0
LINE
  8
_0-5_細線
  6
CONTINUOUS
 62
    7
 10
-33.921252162688148
 20
-196.09368200090597
 11
-29.676102265608193
 21
-196.09368200090597
  0
LINE
  8
_0-5_細線
  6
CONTINUOUS
 62
    7
 10
-23.902891268187801
 20
-196.09368200090597
 11
-21.302891268187892
 21
-196.09368200090597
  0
LINE
  8
_0-5_細線
  6
CONTINUOUS
 62
    7
 10
-17.302891268187892
 20
-196.09368200090597
 11
-13.502891268188165
 21
-196.09368200090597
  0
LINE
  8
_0-5_細線
  6
CONTINUOUS
 62
    7
 10
-11.770275951877849
 20
-196.09368200090597
 11
-9.1702759518779402
 21
-196.09368200090597
  0
LINE
  8
_0-5_細線
  6
CONTINUOUS
 62
    7
 10
-2.9008654562416325
 20
-196.09368200090597
 11
-0.3008654562412687
 21
-196.09368200090597
  0
LINE
  8
_0-5_細線
  6
CONTINUOUS
 62
    7
 10
1.6991345437587313
 20
-196.09368200090597
 11
6.2352330972722285
 21
-196.09368200090597
  0
LINE
  8
_0-5_細線
  6
CONTINUOUS
 62
    7
 10
11.823035267856625
 20
-196.09368200090597
 11
14.42303526785652
 21
-196.09368200090597
  0
LINE
  8
_0-5_細線
  6
CONTINUOUS
 62
    7
 10
14.42303526785652
 20
-196.09368200090597
 11
17.01722775525343
 21
-196.09368200090597
  0
LINE
  8
_0-5_細線
  6
CONTINUOUS
 62
    7
 10
21.580554023106316
 20
-196.09368200090597
 11
23.780554023106617
 21
-196.09368200090597
  0
LINE
  8
_0-5_細線
  6
CONTINUOUS
 62
    7
 10
-33.734729099426573
 20
-195.69368200090588
 11
-29.862625328870223
 21
-195.69368200090588
  0
LINE
  8
_0-5_細線
  6
CONTINUOUS
 62
    7
 10
-23.902891268187801
 20
-195.69368200090588
 11
-13.820864609758615
 21
-195.69368200090588
  0
LINE
  8
_0-5_細線
  6
CONTINUOUS
 62
    7
 10
-11.956799015140319
 20
-195.69368200090588
 11
-9.3567990151399698
 21
-195.69368200090588
  0
LINE
  8
_0-5_細線
  6
CONTINUOUS
 62
    7
 10
-2.7143423929796029
 20
-195.69368200090588
 11
-0.114342392979239
 21
-195.69368200090588
  0
LINE
  8
_0-5_細線
  6
CONTINUOUS
 62
    7
 10
1.8856576070207609
 20
-195.69368200090588
 11
6.0487100340102273
 21
-195.69368200090588
  0
LINE
  8
_0-5_細線
  6
CONTINUOUS
 62
    7
 10
11.823035267856625
 20
-195.69368200090588
 11
16.767280014489728
 21
-195.69368200090588
  0
LINE
  8
_0-5_細線
  6
CONTINUOUS
 62
    7
 10
21.580554023106316
 20
-195.69368200090588
 11
23.780554023106617
 21
-195.69368200090588
  0
LINE
  8
_0-5_細線
  6
CONTINUOUS
 62
    7
 10
-33.548206036164544
 20
-195.29368200090602
 11
-30.049148392132253
 21
-195.29368200090602
  0
LINE
  8
_0-5_細線
  6
CONTINUOUS
 62
    7
 10
-23.902891268187801
 20
-195.29368200090602
 11
-14.269717982975095
 21
-195.29368200090602
  0
LINE
  8
_0-5_細線
  6
CONTINUOUS
 62
    7
 10
-12.143322078401908
 20
-195.29368200090602
 11
-9.5433220784019994
 21
-195.29368200090602
  0
LINE
  8
_0-5_細線
  6
CONTINUOUS
 62
    7
 10
-2.5278193297175733
 20
-195.29368200090602
 11
0.0721806702827905
 21
-195.29368200090602
  0
LINE
  8
_0-5_細線
  6
CONTINUOUS
 62
    7
 10
2.0721806702827905
 20
-195.29368200090602
 11
5.862186970748624
 21
-195.29368200090602
  0
LINE
  8
_0-5_細線
  6
CONTINUOUS
 62
    7
 10
11.823035267856625
 20
-195.29368200090602
 11
16.517332273726026
 21
-195.29368200090602
  0
LINE
  8
_0-5_細線
  6
CONTINUOUS
 62
    7
 10
21.580554023106316
 20
-195.29368200090602
 11
23.780554023106617
 21
-195.29368200090602
  0
LINE
  8
_0-5_細線
  6
CONTINUOUS
 62
    7
 10
-33.361682972902514
 20
-194.89368200090615
 11
-30.235671455394282
 21
-194.89368200090615
  0
LINE
  8
_0-5_細線
  6
CONTINUOUS
 62
    7
 10
-23.902891268187801
 20
-194.89368200090615
 11
-14.937277656241264
 21
-194.89368200090615
  0
LINE
  8
_0-5_細線
  6
CONTINUOUS
 62
    7
 10
-12.329845141663938
 20
-194.89368200090615
 11
-9.729845141664029
 21
-194.89368200090615
  0
LINE
  8
_0-5_細線
  6
CONTINUOUS
 62
    7
 10
-2.3412962664555437
 20
-194.89368200090615
 11
0.2587037335443653
 21
-194.89368200090615
  0
LINE
  8
_0-5_細線
  6
CONTINUOUS
 62
    7
 10
2.2587037335448201
 20
-194.89368200090615
 11
5.6756639074866229
 21
-194.89368200090615
  0
LINE
  8
_0-5_細線
  6
CONTINUOUS
 62
    7
 10
11.823035267856625
 20
-194.89368200090615
 11
16.267384532962325
 21
-194.89368200090615
  0
LINE
  8
_0-5_細線
  6
CONTINUOUS
 62
    7
 10
21.580554023106316
 20
-194.89368200090615
 11
23.780554023106617
 21
-194.89368200090615
  0
LINE
  8
_0-5_細線
  6
CONTINUOUS
 62
    7
 10
-33.175159909640485
 20
-194.49368200090595
 11
-30.422194518656312
 21
-194.49368200090595
  0
LINE
  8
_0-5_細線
  6
CONTINUOUS
 62
    7
 10
-23.902891268187801
 20
-194.49368200090595
 11
-15.902891268188256
 21
-194.49368200090595
  0
LINE
  8
_0-5_細線
  6
CONTINUOUS
 62
    7
 10
-12.516368204925968
 20
-194.49368200090595
 11
-9.9163682049260586
 21
-194.49368200090595
  0
LINE
  8
_0-5_細線
  6
CONTINUOUS
 62
    7
 10
-2.1547732031935141
 20
-194.49368200090595
 11
0.4452267968068497
 21
-194.49368200090595
  0
LINE
  8
_0-5_細線
  6
CONTINUOUS
 62
    7
 10
2.4452267968068497
 20
-194.49368200090595
 11
5.489140844224579
 21
-194.49368200090595
  0
LINE
  8
_0-5_細線
  6
CONTINUOUS
 62
    7
 10
11.823035267856625
 20
-194.49368200090595
 11
16.017436792198723
 21
-194.49368200090595
  0
LINE
  8
_0-5_細線
  6
CONTINUOUS
 62
    7
 10
21.580554023106316
 20
-194.49368200090595
 11
23.780554023106617
 21
-194.49368200090595
  0
LINE
  8
_0-5_細線
  6
CONTINUOUS
 62
    7
 10
-32.988636846378455
 20
-194.09368200090597
 11
-30.608717581917887
 21
-194.09368200090597
  0
LINE
  8
_0-5_細線
  6
CONTINUOUS
 62
    7
 10
-23.902891268187801
 20
-194.09368200090597
 11
-17.302891268187892
 21
-194.09368200090597
  0
LINE
  8
_0-5_細線
  6
CONTINUOUS
 62
    7
 10
-12.702891268187983
 20
-194.09368200090597
 11
-10.102891268188088
 21
-194.09368200090597
  0
LINE
  8
_0-5_細線
  6
CONTINUOUS
 62
    7
 10
-1.9682501399314845
 20
-194.09368200090597
 11
0.6317498600684246
 21
-194.09368200090597
  0
LINE
  8
_0-5_細線
  6
CONTINUOUS
 62
    7
 10
2.6317498600688793
 20
-194.09368200090597
 11
5.3026177809625494
 21
-194.09368200090597
  0
LINE
  8
_0-5_細線
  6
CONTINUOUS
 62
    7
 10
11.823035267856625
 20
-194.09368200090597
 11
15.767489051435021
 21
-194.09368200090597
  0
LINE
  8
_0-5_細線
  6
CONTINUOUS
 62
    7
 10
21.580554023106316
 20
-194.09368200090597
 11
23.780554023106617
 21
-194.09368200090597
  0
LINE
  8
_0-5_細線
  6
CONTINUOUS
 62
    7
 10
-38.304544149345389
 20
-205.49368200090584
 11
-35.70454414934548
 21
-205.49368200090584
  0
LINE
  8
_0-5_細線
  6
CONTINUOUS
 62
    7
 10
-27.892810278951316
 20
-205.49368200090584
 11
-25.292810278951407
 21
-205.49368200090584
  0
LINE
  8
_0-5_細線
  6
CONTINUOUS
 62
    7
 10
-23.902891268187801
 20
-205.49368200090584
 11
-16.881436733228753
 21
-205.49368200090584
  0
LINE
  8
_0-5_細線
  6
CONTINUOUS
 62
    7
 10
-7.3869839652210629
 20
-205.49368200090584
 11
-4.684157442898524
 21
-205.49368200090584
  0
LINE
  8
_0-5_細線
  6
CONTINUOUS
 62
    7
 10
-2.684157442898055
 20
-205.49368200090584
 11
-0.0841574428981459
 21
-205.49368200090584
  0
LINE
  8
_0-5_細線
  6
CONTINUOUS
 62
    7
 10
8.0185250839295179
 20
-205.49368200090584
 11
10.618525083929427
 21
-205.49368200090584
  0
LINE
  8
_0-5_細線
  6
CONTINUOUS
 62
    7
 10
11.823035267856625
 20
-205.49368200090584
 11
14.42303526785652
 21
-205.49368200090584
  0
LINE
  8
_0-5_細線
  6
CONTINUOUS
 62
    7
 10
20.296807175804616
 20
-205.49368200090584
 11
23.780554023106617
 21
-205.49368200090584
  0
LINE
  8
_0-5_細線
  6
CONTINUOUS
 62
    7
 10
-38.11802108608336
 20
-205.09368200090597
 11
-35.518021086083451
 21
-205.09368200090597
  0
LINE
  8
_0-5_細線
  6
CONTINUOUS
 62
    7
 10
-28.079333342212891
 20
-205.09368200090597
 11
-25.479333342212982
 21
-205.09368200090597
  0
LINE
  8
_0-5_細線
  6
CONTINUOUS
 62
    7
 10
-23.902891268187801
 20
-205.09368200090597
 11
-15.597765968353457
 21
-205.09368200090597
  0
LINE
  8
_0-5_細線
  6
CONTINUOUS
 62
    7
 10
-7.5735070284830925
 20
-205.09368200090597
 11
-4.4976343796364802
 21
-205.09368200090597
  0
LINE
  8
_0-5_細線
  6
CONTINUOUS
 62
    7
 10
-2.4976343796364802
 20
-205.09368200090597
 11
0.1023656203638836
 21
-205.09368200090597
  0
LINE
  8
_0-5_細線
  6
CONTINUOUS
 62
    7
 10
7.8320020206675167
 20
-205.09368200090597
 11
10.432002020667426
 21
-205.09368200090597
  0
LINE
  8
_0-5_細線
  6
CONTINUOUS
 62
    7
 10
11.823035267856625
 20
-205.09368200090597
 11
14.42303526785652
 21
-205.09368200090597
  0
LINE
  8
_0-5_細線
  6
CONTINUOUS
 62
    7
 10
20.046859435041029
 20
-205.09368200090597
 11
23.780554023106617
 21
-205.09368200090597
  0
LINE
  8
_0-5_細線
  6
CONTINUOUS
 62
    7
 10
-37.93149802282133
 20
-204.69368200090599
 11
-35.331498022821421
 21
-204.69368200090599
  0
LINE
  8
_0-5_細線
  6
CONTINUOUS
 62
    7
 10
-28.265856405474921
 20
-204.69368200090599
 11
-25.665856405475466
 21
-204.69368200090599
  0
LINE
  8
_0-5_細線
  6
CONTINUOUS
 62
    7
 10
-23.902891268187801
 20
-204.69368200090599
 11
-14.720145705148212
 21
-204.69368200090599
  0
LINE
  8
_0-5_細線
  6
CONTINUOUS
 62
    7
 10
-7.7600300917451221
 20
-204.69368200090599
 11
-4.3111113163744506
 21
-204.69368200090599
  0
LINE
  8
_0-5_細線
  6
CONTINUOUS
 62
    7
 10
-2.3111113163744506
 20
-204.69368200090599
 11
0.2888886836259132
 21
-204.69368200090599
  0
LINE
  8
_0-5_細線
  6
CONTINUOUS
 62
    7
 10
7.6454789574050181
 20
-204.69368200090599
 11
10.245478957405425
 21
-204.69368200090599
  0
LINE
  8
_0-5_細線
  6
CONTINUOUS
 62
    7
 10
11.823035267856625
 20
-204.69368200090599
 11
14.42303526785652
 21
-204.69368200090599
  0
LINE
  8
_0-5_細線
  6
CONTINUOUS
 62
    7
 10
19.796911694277327
 20
-204.69368200090599
 11
23.780554023106617
 21
-204.69368200090599
  0
LINE
  8
_0-5_細線
  6
CONTINUOUS
 62
    7
 10
-37.7449749595593
 20
-204.29368200090602
 11
-35.144974959559391
 21
-204.29368200090602
  0
LINE
  8
_0-5_細線
  6
CONTINUOUS
 62
    7
 10
-28.45237946873695
 20
-204.29368200090602
 11
-25.852379468737041
 21
-204.29368200090602
  0
LINE
  8
_0-5_細線
  6
CONTINUOUS
 62
    7
 10
-23.902891268187801
 20
-204.29368200090602
 11
-14.131558091214103
 21
-204.29368200090602
  0
LINE
  8
_0-5_細線
  6
CONTINUOUS
 62
    7
 10
-7.9465531550071518
 20
-204.29368200090602
 11
-4.1245882531124209
 21
-204.29368200090602
  0
LINE
  8
_0-5_細線
  6
CONTINUOUS
 62
    7
 10
-2.1245882531124209
 20
-204.29368200090602
 11
0.4754117468879286
 21
-204.29368200090602
  0
LINE
  8
_0-5_細線
  6
CONTINUOUS
 62
    7
 10
7.4589558941434291
 20
-204.29368200090602
 11
10.058955894143423
 21
-204.29368200090602
  0
LINE
  8
_0-5_細線
  6
CONTINUOUS
 62
    7
 10
11.823035267856625
 20
-204.29368200090602
 11
14.42303526785652
 21
-204.29368200090602
  0
LINE
  8
_0-5_細線
  6
CONTINUOUS
 62
    7
 10
19.546963953513227
 20
-204.29368200090602
 11
23.780554023106617
 21
-204.29368200090602
  0
LINE
  8
_0-5_細線
  6
CONTINUOUS
 62
    7
 10
-37.558451896297271
 20
-203.89368200090593
 11
-34.958451896297362
 21
-203.89368200090593
  0
LINE
  8
_0-5_細線
  6
CONTINUOUS
 62
    7
 10
-28.63890253199898
 20
-203.89368200090593
 11
-26.038902531999071
 21
-203.89368200090593
  0
LINE
  8
_0-5_細線
  6
CONTINUOUS
 62
    7
 10
-23.902891268187801
 20
-203.89368200090593
 11
-13.719086661264924
 21
-203.89368200090593
  0
LINE
  8
_0-5_細線
  6
CONTINUOUS
 62
    7
 10
-8.1330762182691814
 20
-203.89368200090593
 11
-3.9380651898503913
 21
-203.89368200090593
  0
LINE
  8
_0-5_細線
  6
CONTINUOUS
 62
    7
 10
-1.9380651898503913
 20
-203.89368200090593
 11
0.6619348101495177
 21
-203.89368200090593
  0
LINE
  8
_0-5_細線
  6
CONTINUOUS
 62
    7
 10
7.2724328308814279
 20
-203.89368200090593
 11
9.8724328308813227
 21
-203.89368200090593
  0
LINE
  8
_0-5_細線
  6
CONTINUOUS
 62
    7
 10
11.823035267856625
 20
-203.89368200090593
 11
14.42303526785652
 21
-203.89368200090593
  0
LINE
  8
_0-5_細線
  6
CONTINUOUS
 62
    7
 10
19.297016212749924
 20
-203.89368200090593
 11
23.780554023106617
 21
-203.89368200090593
  0
LINE
  8
_0-5_細線
  6
CONTINUOUS
 62
    7
 10
-37.371928833035241
 20
-203.49368200090595
 11
-34.771928833035332
 21
-203.49368200090595
  0
LINE
  8
_0-5_細線
  6
CONTINUOUS
 62
    7
 10
-28.825425595261009
 20
-203.49368200090595
 11
-26.2254255952611
 21
-203.49368200090595
  0
LINE
  8
_0-5_細線
  6
CONTINUOUS
 62
    7
 10
-23.902891268187801
 20
-203.49368200090595
 11
-21.302891268187892
 21
-203.49368200090595
  0
LINE
  8
_0-5_細線
  6
CONTINUOUS
 62
    7
 10
-17.103201632519742
 20
-203.49368200090595
 11
-13.44052985746967
 21
-203.49368200090595
  0
LINE
  8
_0-5_細線
  6
CONTINUOUS
 62
    7
 10
-8.3195992815311968
 20
-203.49368200090595
 11
-3.7515421265883617
 21
-203.49368200090595
  0
LINE
  8
_0-5_細線
  6
CONTINUOUS
 62
    7
 10
-1.7515421265883617
 20
-203.49368200090595
 11
0.8484578734115473
 21
-203.49368200090595
  0
LINE
  8
_0-5_細線
  6
CONTINUOUS
 62
    7
 10
7.0859097676194267
 20
-203.49368200090595
 11
9.6859097676193215
 21
-203.49368200090595
  0
LINE
  8
_0-5_細線
  6
CONTINUOUS
 62
    7
 10
11.823035267856625
 20
-203.49368200090595
 11
14.42303526785652
 21
-203.49368200090595
  0
LINE
  8
_0-5_細線
  6
CONTINUOUS
 62
    7
 10
19.047068471985824
 20
-203.49368200090595
 11
23.780554023106617
 21
-203.49368200090595
  0
LINE
  8
_0-5_細線
  6
CONTINUOUS
 62
    7
 10
-37.185405769773212
 20
-203.09368200090586
 11
-34.585405769773303
 21
-203.09368200090586
  0
LINE
  8
_0-5_細線
  6
CONTINUOUS
 62
    7
 10
-29.011948658523039
 20
-203.09368200090586
 11
-26.41194865852313
 21
-203.09368200090586
  0
LINE
  8
_0-5_細線
  6
CONTINUOUS
 62
    7
 10
-23.902891268187801
 20
-203.09368200090586
 11
-21.302891268187892
 21
-203.09368200090586
  0
LINE
  8
_0-5_細線
  6
CONTINUOUS
 62
    7
 10
-16.447534043175352
 20
-203.09368200090586
 11
-13.261378234405043
 21
-203.09368200090586
  0
LINE
  8
_0-5_細線
  6
CONTINUOUS
 62
    7
 10
-8.5061223447932264
 20
-203.09368200090586
 11
-3.5650190633263321
 21
-203.09368200090586
  0
LINE
  8
_0-5_細線
  6
CONTINUOUS
 62
    7
 10
-1.5650190633263321
 20
-203.09368200090586
 11
1.0349809366735769
 21
-203.09368200090586
  0
LINE
  8
_0-5_細線
  6
CONTINUOUS
 62
    7
 10
6.899386704357326
 20
-203.09368200090586
 11
9.4993867043573204
 21
-203.09368200090586
  0
LINE
  8
_0-5_細線
  6
CONTINUOUS
 62
    7
 10
11.823035267856625
 20
-203.09368200090586
 11
14.42303526785652
 21
-203.09368200090586
  0
LINE
  8
_0-5_細線
  6
CONTINUOUS
 62
    7
 10
18.797120731222122
 20
-203.09368200090586
 11
21.391313218619018
 21
-203.09368200090586
  0
LINE
  8
_0-5_細線
  6
CONTINUOUS
 62
    7
 10
21.580554023106316
 20
-203.09368200090586
 11
23.780554023106617
 21
-203.09368200090586
  0
LINE
  8
_0-5_細線
  6
CONTINUOUS
 62
    7
 10
-36.998882706511182
 20
-202.69368200090599
 11
-26.59847172178516
 21
-202.69368200090599
  0
LINE
  8
_0-5_細線
  6
CONTINUOUS
 62
    7
 10
-23.902891268187801
 20
-202.69368200090599
 11
-21.302891268187892
 21
-202.69368200090599
  0
LINE
  8
_0-5_細線
  6
CONTINUOUS
 62
    7
 10
-15.981460891051398
 20
-202.69368200090599
 11
-13.128861092875852
 21
-202.69368200090599
  0
LINE
  8
_0-5_細線
  6
CONTINUOUS
 62
    7
 10
-8.692645408055256
 20
-202.69368200090599
 11
-6.0926454080553469
 21
-202.69368200090599
  0
LINE
  8
_0-5_細線
  6
CONTINUOUS
 62
    7
 10
-5.9784960000642116
 20
-202.69368200090599
 11
-3.3784960000643025
 21
-202.69368200090599
  0
LINE
  8
_0-5_細線
  6
CONTINUOUS
 62
    7
 10
-1.3784960000643025
 20
-202.69368200090599
 11
9.3128636410952197
 21
-202.69368200090599
  0
LINE
  8
_0-5_細線
  6
CONTINUOUS
 62
    7
 10
11.823035267856625
 20
-202.69368200090599
 11
14.42303526785652
 21
-202.69368200090599
  0
LINE
  8
_0-5_細線
  6
CONTINUOUS
 62
    7
 10
18.54717299045852
 20
-202.69368200090599
 11
21.141365477854919
 21
-202.69368200090599
  0
LINE
  8
_0-5_細線
  6
CONTINUOUS
 62
    7
 10
21.580554023106316
 20
-202.69368200090599
 11
23.780554023106617
 21
-202.69368200090599
  0
LINE
  8
_0-5_細線
  6
CONTINUOUS
 62
    7
 10
-36.812359643249152
 20
-202.29368200090602
 11
-26.784994785047189
 21
-202.29368200090602
  0
LINE
  8
_0-5_細線
  6
CONTINUOUS
 62
    7
 10
-23.902891268187801
 20
-202.29368200090602
 11
-21.302891268187892
 21
-202.29368200090602
  0
LINE
  8
_0-5_細線
  6
CONTINUOUS
 62
    7
 10
-15.706302122108283
 20
-202.29368200090602
 11
-13.020505374094611
 21
-202.29368200090602
  0
LINE
  8
_0-5_細線
  6
CONTINUOUS
 62
    7
 10
-8.8791684713172856
 20
-202.29368200090602
 11
-6.2791684713169218
 21
-202.29368200090602
  0
LINE
  8
_0-5_細線
  6
CONTINUOUS
 62
    7
 10
-5.7919729368021819
 20
-202.29368200090602
 11
-3.1919729368022729
 21
-202.29368200090602
  0
LINE
  8
_0-5_細線
  6
CONTINUOUS
 62
    7
 10
-1.1919729368022729
 20
-202.29368200090602
 11
9.1263405778332185
 21
-202.29368200090602
  0
LINE
  8
_0-5_細線
  6
CONTINUOUS
 62
    7
 10
11.823035267856625
 20
-202.29368200090602
 11
14.42303526785652
 21
-202.29368200090602
  0
LINE
  8
_0-5_細線
  6
CONTINUOUS
 62
    7
 10
18.297225249694321
 20
-202.29368200090602
 11
20.891417737091217
 21
-202.29368200090602
  0
LINE
  8
_0-5_細線
  6
CONTINUOUS
 62
    7
 10
21.580554023106316
 20
-202.29368200090602
 11
23.780554023106617
 21
-202.29368200090602
  0
LINE
  8
_0-5_細線
  6
CONTINUOUS
 62
    7
 10
-36.625836579987578
 20
-201.89368200090593
 11
-26.971517848309219
 21
-201.89368200090593
  0
LINE
  8
_0-5_細線
  6
CONTINUOUS
 62
    7
 10
-23.902891268187801
 20
-201.89368200090593
 11
-21.302891268187892
 21
-201.89368200090593
  0
LINE
  8
_0-5_細線
  6
CONTINUOUS
 62
    7
 10
-15.532394200870755
 20
-201.89368200090593
 11
-12.926097994291823
 21
-201.89368200090593
  0
LINE
  8
_0-5_細線
  6
CONTINUOUS
 62
    7
 10
-9.0656915345793152
 20
-201.89368200090593
 11
-6.4656915345794062
 21
-201.89368200090593
  0
LINE
  8
_0-5_細線
  6
CONTINUOUS
 62
    7
 10
-5.6054498735405929
 20
-201.89368200090593
 11
-3.0054498735402433
 21
-201.89368200090593
  0
LINE
  8
_0-5_細線
  6
CONTINUOUS
 62
    7
 10
-1.0054498735402433
 20
-201.89368200090593
 11
8.9398175145716294
 21
-201.89368200090593
  0
LINE
  8
_0-5_細線
  6
CONTINUOUS
 62
    7
 10
11.823035267856625
 20
-201.89368200090593
 11
14.42303526785652
 21
-201.89368200090593
  0
LINE
  8
_0-5_細線
  6
CONTINUOUS
 62
    7
 10
18.047277508930719
 20
-201.89368200090593
 11
20.64146999632753
 21
-201.89368200090593
  0
LINE
  8
_0-5_細線
  6
CONTINUOUS
 62
    7
 10
21.580554023106316
 20
-201.89368200090593
 11
23.780554023106617
 21
-201.89368200090593
  0
LINE
  8
_0-5_細線
  6
CONTINUOUS
 62
    7
 10
-36.439313516725548
 20
-201.49368200090584
 11
-27.158040911571248
 21
-201.49368200090584
  0
LINE
  8
_0-5_細線
  6
CONTINUOUS
 62
    7
 10
-23.902891268187801
 20
-201.49368200090584
 11
-21.302891268187892
 21
-201.49368200090584
  0
LINE
  8
_0-5_細線
  6
CONTINUOUS
 62
    7
 10
-15.423856617105599
 20
-201.49368200090584
 11
-12.848997055039405
 21
-201.49368200090584
  0
LINE
  8
_0-5_細線
  6
CONTINUOUS
 62
    7
 10
-9.2522145978413448
 20
-201.49368200090584
 11
-6.652214597840981
 21
-201.49368200090584
  0
LINE
  8
_0-5_細線
  6
CONTINUOUS
 62
    7
 10
-5.4189268102781227
 20
-201.49368200090584
 11
-2.8189268102782137
 21
-201.49368200090584
  0
LINE
  8
_0-5_細線
  6
CONTINUOUS
 62
    7
 10
-0.8189268102782136
 20
-201.49368200090584
 11
8.7532944513091167
 21
-201.49368200090584
  0
LINE
  8
_0-5_細線
  6
CONTINUOUS
 62
    7
 10
11.823035267856625
 20
-201.49368200090584
 11
14.42303526785652
 21
-201.49368200090584
  0
LINE
  8
_0-5_細線
  6
CONTINUOUS
 62
    7
 10
17.797329768167018
 20
-201.49368200090584
 11
20.391522255563928
 21
-201.49368200090584
  0
LINE
  8
_0-5_細線
  6
CONTINUOUS
 62
    7
 10
21.580554023106316
 20
-201.49368200090584
 11
23.780554023106617
 21
-201.49368200090584
  0
LINE
  8
_0-5_細線
  6
CONTINUOUS
 62
    7
 10
-36.252790453463518
 20
-201.09368200090586
 11
-27.344563974833278
 21
-201.09368200090586
  0
LINE
  8
_0-5_細線
  6
CONTINUOUS
 62
    7
 10
-23.902891268187801
 20
-201.09368200090586
 11
-21.302891268187892
 21
-201.09368200090586
  0
LINE
  8
_0-5_細線
  6
CONTINUOUS
 62
    7
 10
-15.357904365096971
 20
-201.09368200090586
 11
-12.788372422678023
 21
-201.09368200090586
  0
LINE
  8
_0-5_細線
  6
CONTINUOUS
 62
    7
 10
-9.4387376611033744
 20
-201.09368200090586
 11
-6.8387376611030106
 21
-201.09368200090586
  0
LINE
  8
_0-5_細線
  6
CONTINUOUS
 62
    7
 10
-5.2324037470165479
 20
-201.09368200090586
 11
-2.6324037470161841
 21
-201.09368200090586
  0
LINE
  8
_0-5_細線
  6
CONTINUOUS
 62
    7
 10
-0.6324037470166388
 20
-201.09368200090586
 11
8.5667713880476271
 21
-201.09368200090586
  0
LINE
  8
_0-5_細線
  6
CONTINUOUS
 62
    7
 10
11.823035267856625
 20
-201.09368200090586
 11
14.42303526785652
 21
-201.09368200090586
  0
LINE
  8
_0-5_細線
  6
CONTINUOUS
 62
    7
 10
17.54738202740333
 20
-201.09368200090586
 11
20.141574514800226
 21
-201.09368200090586
  0
LINE
  8
_0-5_細線
  6
CONTINUOUS
 62
    7
 10
21.580554023106316
 20
-201.09368200090586
 11
23.780554023106617
 21
-201.09368200090586
  0
LINE
  8
_0-5_細線
  6
CONTINUOUS
 62
    7
 10
-36.066267390201489
 20
-200.69368200090588
 11
-33.46626739020158
 21
-200.69368200090588
  0
LINE
  8
_0-5_細線
  6
CONTINUOUS
 62
    7
 10
-30.131087038095217
 20
-200.69368200090588
 11
-27.531087038095308
 21
-200.69368200090588
  0
LINE
  8
_0-5_細線
  6
CONTINUOUS
 62
    7
 10
-23.902891268187801
 20
-200.69368200090588
 11
-21.302891268187892
 21
-200.69368200090588
  0
LINE
  8
_0-5_細線
  6
CONTINUOUS
 62
    7
 10
-15.324088967469748
 20
-200.69368200090588
 11
-12.744072689371393
 21
-200.69368200090588
  0
LINE
  8
_0-5_細線
  6
CONTINUOUS
 62
    7
 10
-9.625260724365404
 20
-200.69368200090588
 11
-7.0252607243650402
 21
-200.69368200090588
  0
LINE
  8
_0-5_細線
  6
CONTINUOUS
 62
    7
 10
-5.0458806837540635
 20
-200.69368200090588
 11
-2.4458806837541545
 21
-200.69368200090588
  0
LINE
  8
_0-5_細線
  6
CONTINUOUS
 62
    7
 10
-0.4458806837546092
 20
-200.69368200090588
 11
2.1541193162457688
 21
-200.69368200090588
  0
LINE
  8
_0-5_細線
  6
CONTINUOUS
 62
    7
 10
5.7802483247856173
 20
-200.69368200090588
 11
8.3802483247851285
 21
-200.69368200090588
  0
LINE
  8
_0-5_細線
  6
CONTINUOUS
 62
    7
 10
11.823035267856625
 20
-200.69368200090588
 11
14.42303526785652
 21
-200.69368200090588
  0
LINE
  8
_0-5_細線
  6
CONTINUOUS
 62
    7
 10
17.297434286639628
 20
-200.69368200090588
 11
19.891626774036524
 21
-200.69368200090588
  0
LINE
  8
_0-5_細線
  6
CONTINUOUS
 62
    7
 10
21.580554023106316
 20
-200.69368200090588
 11
23.780554023106617
 21
-200.69368200090588
  0
LINE
  8
_0-5_細線
  6
CONTINUOUS
 62
    7
 10
-35.879744326939459
 20
-200.2936820009059
 11
-33.27974432693955
 21
-200.2936820009059
  0
LINE
  8
_0-5_細線
  6
CONTINUOUS
 62
    7
 10
-30.317610101357246
 20
-200.2936820009059
 11
-27.717610101356883
 21
-200.2936820009059
  0
LINE
  8
_0-5_細線
  6
CONTINUOUS
 62
    7
 10
-23.902891268187801
 20
-200.2936820009059
 11
-21.302891268187892
 21
-200.2936820009059
  0
LINE
  8
_0-5_細線
  6
CONTINUOUS
 62
    7
 10
-15.309051442038168
 20
-200.2936820009059
 11
-12.716424776789069
 21
-200.2936820009059
  0
LINE
  8
_0-5_細線
  6
CONTINUOUS
 62
    7
 10
-9.8117837876269789
 20
-200.2936820009059
 11
-7.2117837876270698
 21
-200.2936820009059
  0
LINE
  8
_0-5_細線
  6
CONTINUOUS
 62
    7
 10
-4.8593576204924886
 20
-200.2936820009059
 11
-2.2593576204921249
 21
-200.2936820009059
  0
LINE
  8
_0-5_細線
  6
CONTINUOUS
 62
    7
 10
-0.2593576204921106
 20
-200.2936820009059
 11
2.3406423795077984
 21
-200.2936820009059
  0
LINE
  8
_0-5_細線
  6
CONTINUOUS
 62
    7
 10
5.5937252615236162
 20
-200.2936820009059
 11
8.1937252615235252
 21
-200.2936820009059
  0
LINE
  8
_0-5_細線
  6
CONTINUOUS
 62
    7
 10
11.823035267856625
 20
-200.2936820009059
 11
14.42303526785652
 21
-200.2936820009059
  0
LINE
  8
_0-5_細線
  6
CONTINUOUS
 62
    7
 10
17.047486545876026
 20
-200.2936820009059
 11
19.641679033272823
 21
-200.2936820009059
  0
LINE
  8
_0-5_細線
  6
CONTINUOUS
 62
    7
 10
21.580554023106316
 20
-200.2936820009059
 11
23.780554023106617
 21
-200.2936820009059
  0
LINE
  8
_0-5_細線
  6
CONTINUOUS
 62
    7
 10
-35.69322126367743
 20
-199.89368200090615
 11
-33.09322126367752
 21
-199.89368200090615
  0
LINE
  8
_0-5_細線
  6
CONTINUOUS
 62
    7
 10
-30.504133164619276
 20
-199.89368200090615
 11
-27.904133164618912
 21
-199.89368200090615
  0
LINE
  8
_0-5_細線
  6
CONTINUOUS
 62
    7
 10
-23.902891268187801
 20
-199.89368200090615
 11
-21.302891268187892
 21
-199.89368200090615
  0
LINE
  8
_0-5_細線
  6
CONTINUOUS
 62
    7
 10
-15.303130180190607
 20
-199.89368200090615
 11
-12.703539048728459
 21
-199.89368200090615
  0
LINE
  8
_0-5_細線
  6
CONTINUOUS
 62
    7
 10
-9.9983068508890085
 20
-199.89368200090615
 11
-7.3983068508890995
 21
-199.89368200090615
  0
LINE
  8
_0-5_細線
  6
CONTINUOUS
 62
    7
 10
-4.672834557230459
 20
-199.89368200090615
 11
-2.0728345572300952
 21
-199.89368200090615
  0
LINE
  8
_0-5_細線
  6
CONTINUOUS
 62
    7
 10
-0.0728345572305499
 20
-199.89368200090615
 11
2.527165442769828
 21
-199.89368200090615
  0
LINE
  8
_0-5_細線
  6
CONTINUOUS
 62
    7
 10
5.407202198261615
 20
-199.89368200090615
 11
8.007202198261524
 21
-199.89368200090615
  0
LINE
  8
_0-5_細線
  6
CONTINUOUS
 62
    7
 10
11.823035267856625
 20
-199.89368200090615
 11
14.42303526785652
 21
-199.89368200090615
  0
LINE
  8
_0-5_細線
  6
CONTINUOUS
 62
    7
 10
16.797538805112325
 20
-199.89368200090615
 11
19.391731292508723
 21
-199.89368200090615
  0
LINE
  8
_0-5_細線
  6
CONTINUOUS
 62
    7
 10
21.580554023106316
 20
-199.89368200090615
 11
23.780554023106617
 21
-199.89368200090615
  0
LINE
  8
_0-5_細線
  6
CONTINUOUS
 62
    7
 10
-35.5066982004154
 20
-199.49368200090572
 11
-32.906698200415491
 21
-199.49368200090572
  0
LINE
  8
_0-5_細線
  6
CONTINUOUS
 62
    7
 10
-30.690656227881306
 20
-199.49368200090572
 11
-28.090656227880942
 21
-199.49368200090572
  0
LINE
  8
_0-5_細線
  6
CONTINUOUS
 62
    7
 10
-23.902891268187801
 20
-199.49368200090572
 11
-21.302891268187892
 21
-199.49368200090572
  0
LINE
  8
_0-5_細線
  6
CONTINUOUS
 62
    7
 10
-15.306351304146489
 20
-199.49368200090572
 11
-12.711656313571353
 21
-199.49368200090572
  0
LINE
  8
_0-5_細線
  6
CONTINUOUS
 62
    7
 10
-10.184829914151038
 20
-199.49368200090572
 11
-7.5848299141511291
 21
-199.49368200090572
  0
LINE
  8
_0-5_細線
  6
CONTINUOUS
 62
    7
 10
-4.4863114939684294
 20
-199.49368200090572
 11
-1.8863114939680656
 21
-199.49368200090572
  0
LINE
  8
_0-5_細線
  6
CONTINUOUS
 62
    7
 10
0.1136885060319485
 20
-199.49368200090572
 11
2.7136885060313887
 21
-199.49368200090572
  0
LINE
  8
_0-5_細線
  6
CONTINUOUS
 62
    7
 10
5.2206791349995854
 20
-199.49368200090572
 11
7.8206791349994234
 21
-199.49368200090572
  0
LINE
  8
_0-5_細線
  6
CONTINUOUS
 62
    7
 10
11.823035267856625
 20
-199.49368200090572
 11
14.42303526785652
 21
-199.49368200090572
  0
LINE
  8
_0-5_細線
  6
CONTINUOUS
 62
    7
 10
16.547591064348623
 20
-199.49368200090572
 11
19.141783551745021
 21
-199.49368200090572
  0
LINE
  8
_0-5_細線
  6
CONTINUOUS
 62
    7
 10
21.580554023106316
 20
-199.49368200090572
 11
23.780554023106617
 21
-199.49368200090572
  0
LINE
  8
_0-5_細線
  6
CONTINUOUS
 62
    7
 10
-35.32017513715337
 20
-199.09368200090597
 11
-32.720175137153461
 21
-199.09368200090597
  0
LINE
  8
_0-5_細線
  6
CONTINUOUS
 62
    7
 10
-30.87717929114288
 20
-199.09368200090597
 11
-28.277179291142971
 21
-199.09368200090597
  0
LINE
  8
_0-5_細線
  6
CONTINUOUS
 62
    7
 10
-23.902891268187801
 20
-199.09368200090597
 11
-21.302891268187892
 21
-199.09368200090597
  0
LINE
  8
_0-5_細線
  6
CONTINUOUS
 62
    7
 10
-15.318386162102257
 20
-199.09368200090597
 11
-12.735016699870741
 21
-199.09368200090597
  0
LINE
  8
_0-5_細線
  6
CONTINUOUS
 62
    7
 10
-10.371352977413068
 20
-199.09368200090597
 11
-7.7713529774131587
 21
-199.09368200090597
  0
LINE
  8
_0-5_細線
  6
CONTINUOUS
 62
    7
 10
-4.2997884307063998
 20
-199.09368200090597
 11
-1.6997884307064908
 21
-199.09368200090597
  0
LINE
  8
_0-5_細線
  6
CONTINUOUS
 62
    7
 10
0.3002115692939781
 20
-199.09368200090597
 11
2.9002115692934183
 21
-199.09368200090597
  0
LINE
  8
_0-5_細線
  6
CONTINUOUS
 62
    7
 10
5.0341560717375557
 20
-199.09368200090597
 11
7.6341560717374222
 21
-199.09368200090597
  0
LINE
  8
_0-5_細線
  6
CONTINUOUS
 62
    7
 10
11.823035267856625
 20
-199.09368200090597
 11
14.42303526785652
 21
-199.09368200090597
  0
LINE
  8
_0-5_細線
  6
CONTINUOUS
 62
    7
 10
16.297643323584921
 20
-199.09368200090597
 11
18.891835810981419
 21
-199.09368200090597
  0
LINE
  8
_0-5_細線
  6
CONTINUOUS
 62
    7
 10
21.580554023106316
 20
-199.09368200090597
 11
23.780554023106617
 21
-199.09368200090597
  0
LINE
  8
_0-5_細線
  6
CONTINUOUS
 62
    7
 10
-35.133652073891341
 20
-198.69368200090588
 11
-32.533652073891432
 21
-198.69368200090588
  0
LINE
  8
_0-5_細線
  6
CONTINUOUS
 62
    7
 10
-31.063702354405365
 20
-198.69368200090588
 11
-28.463702354405001
 21
-198.69368200090588
  0
LINE
  8
_0-5_細線
  6
CONTINUOUS
 62
    7
 10
-23.902891268187801
 20
-198.69368200090588
 11
-21.302891268187892
 21
-198.69368200090588
  0
LINE
  8
_0-5_細線
  6
CONTINUOUS
 62
    7
 10
-15.350317550462862
 20
-198.69368200090588
 11
-12.775380396709721
 21
-198.69368200090588
  0
LINE
  8
_0-5_細線
  6
CONTINUOUS
 62
    7
 10
-10.557876040675097
 20
-198.69368200090588
 11
-7.9578760406751883
 21
-198.69368200090588
  0
LINE
  8
_0-5_細線
  6
CONTINUOUS
 62
    7
 10
-4.1132653674443702
 20
-198.69368200090588
 11
-1.5132653674444612
 21
-198.69368200090588
  0
LINE
  8
_0-5_細線
  6
CONTINUOUS
 62
    7
 10
0.4867346325560078
 20
-198.69368200090588
 11
3.0867346325554479
 21
-198.69368200090588
  0
LINE
  8
_0-5_細線
  6
CONTINUOUS
 62
    7
 10
4.8476330084755261
 20
-198.69368200090588
 11
7.447633008475421
 21
-198.69368200090588
  0
LINE
  8
_0-5_細線
  6
CONTINUOUS
 62
    7
 10
11.823035267856625
 20
-198.69368200090588
 11
14.42303526785652
 21
-198.69368200090588
  0
LINE
  8
_0-5_細線
  6
CONTINUOUS
 62
    7
 10
16.047695582821319
 20
-198.69368200090588
 11
18.641888070217718
 21
-198.69368200090588
  0
LINE
  8
_0-5_細線
  6
CONTINUOUS
 62
    7
 10
21.580554023106316
 20
-198.69368200090588
 11
23.780554023106617
 21
-198.69368200090588
  0
LINE
  8
_0-5_細線
  6
CONTINUOUS
 62
    7
 10
-34.947129010629311
 20
-198.2936820009059
 11
-32.347129010629402
 21
-198.2936820009059
  0
LINE
  8
_0-5_細線
  6
CONTINUOUS
 62
    7
 10
-31.25022541766694
 20
-198.2936820009059
 11
-28.650225417667031
 21
-198.2936820009059
  0
LINE
  8
_0-5_細線
  6
CONTINUOUS
 62
    7
 10
-23.902891268187801
 20
-198.2936820009059
 11
-21.302891268187892
 21
-198.2936820009059
  0
LINE
  8
_0-5_細線
  6
CONTINUOUS
 62
    7
 10
-15.408500834522243
 20
-198.2936820009059
 11
-12.834105247272333
 21
-198.2936820009059
  0
LINE
  8
_0-5_細線
  6
CONTINUOUS
 62
    7
 10
-10.744399103937127
 20
-198.2936820009059
 11
-8.1443991039372179
 21
-198.2936820009059
  0
LINE
  8
_0-5_細線
  6
CONTINUOUS
 62
    7
 10
-3.9267423041823406
 20
-198.2936820009059
 11
-1.3267423041824316
 21
-198.2936820009059
  0
LINE
  8
_0-5_細線
  6
CONTINUOUS
 62
    7
 10
0.6732576958175684
 20
-198.2936820009059
 11
3.2732576958174775
 21
-198.2936820009059
  0
LINE
  8
_0-5_細線
  6
CONTINUOUS
 62
    7
 10
4.6611099452134965
 20
-198.2936820009059
 11
7.2611099452134198
 21
-198.2936820009059
  0
LINE
  8
_0-5_細線
  6
CONTINUOUS
 62
    7
 10
11.823035267856625
 20
-198.2936820009059
 11
14.42303526785652
 21
-198.2936820009059
  0
LINE
  8
_0-5_細線
  6
CONTINUOUS
 62
    7
 10
15.797747842057618
 20
-198.2936820009059
 11
18.391940329454016
 21
-198.2936820009059
  0
LINE
  8
_0-5_細線
  6
CONTINUOUS
 62
    7
 10
21.580554023106316
 20
-198.2936820009059
 11
23.780554023106617
 21
-198.2936820009059
  0
LINE
  8
_0-5_細線
  6
CONTINUOUS
 62
    7
 10
-34.760605947367736
 20
-197.89368200090593
 11
-32.160605947367372
 21
-197.89368200090593
  0
LINE
  8
_0-5_細線
  6
CONTINUOUS
 62
    7
 10
-31.436748480929424
 20
-197.89368200090593
 11
-28.83674848092906
 21
-197.89368200090593
  0
LINE
  8
_0-5_細線
  6
CONTINUOUS
 62
    7
 10
-23.902891268187801
 20
-197.89368200090593
 11
-21.302891268187892
 21
-197.89368200090593
  0
LINE
  8
_0-5_細線
  6
CONTINUOUS
 62
    7
 10
-15.50544134094153
 20
-197.89368200090593
 11
-12.90879964575052
 21
-197.89368200090593
  0
LINE
  8
_0-5_細線
  6
CONTINUOUS
 62
    7
 10
-10.930922167199157
 20
-197.89368200090593
 11
-8.3309221671992475
 21
-197.89368200090593
  0
LINE
  8
_0-5_細線
  6
CONTINUOUS
 62
    7
 10
-3.740219240920311
 20
-197.89368200090593
 11
-1.1402192409204019
 21
-197.89368200090593
  0
LINE
  8
_0-5_細線
  6
CONTINUOUS
 62
    7
 10
0.859780759079598
 20
-197.89368200090593
 11
3.4597807590795071
 21
-197.89368200090593
  0
LINE
  8
_0-5_細線
  6
CONTINUOUS
 62
    7
 10
4.4745868819514669
 20
-197.89368200090593
 11
7.0745868819513191
 21
-197.89368200090593
  0
LINE
  8
_0-5_細線
  6
CONTINUOUS
 62
    7
 10
11.823035267856625
 20
-197.89368200090593
 11
14.42303526785652
 21
-197.89368200090593
  0
LINE
  8
_0-5_細線
  6
CONTINUOUS
 62
    7
 10
15.547800101293518
 20
-197.89368200090593
 11
18.141992588690329
 21
-197.89368200090593
  0
LINE
  8
_0-5_細線
  6
CONTINUOUS
 62
    7
 10
21.580554023106316
 20
-197.89368200090593
 11
23.780554023106617
 21
-197.89368200090593
  0
LINE
  8
_0-5_細線
  6
CONTINUOUS
 62
    7
 10
-34.574082884105707
 20
-197.49368200090572
 11
-31.974082884105343
 21
-197.49368200090572
  0
LINE
  8
_0-5_細線
  6
CONTINUOUS
 62
    7
 10
-31.623271544190999
 20
-197.49368200090572
 11
-29.023271544191118
 21
-197.49368200090572
  0
LINE
  8
_0-5_細線
  6
CONTINUOUS
 62
    7
 10
-23.902891268187801
 20
-197.49368200090572
 11
-21.302891268187892
 21
-197.49368200090572
  0
LINE
  8
_0-5_細線
  6
CONTINUOUS
 62
    7
 10
-15.66218508536204
 20
-197.49368200090572
 11
-12.999228353990404
 21
-197.49368200090572
  0
LINE
  8
_0-5_細線
  6
CONTINUOUS
 62
    7
 10
-11.117445230461186
 20
-197.49368200090572
 11
-8.5174452304612771
 21
-197.49368200090572
  0
LINE
  8
_0-5_細線
  6
CONTINUOUS
 62
    7
 10
-3.5536961776582814
 20
-197.49368200090572
 11
-0.9536961776583723
 21
-197.49368200090572
  0
LINE
  8
_0-5_細線
  6
CONTINUOUS
 62
    7
 10
1.0463038223416277
 20
-197.49368200090572
 11
3.6463038223415367
 21
-197.49368200090572
  0
LINE
  8
_0-5_細線
  6
CONTINUOUS
 62
    7
 10
4.2880638186894373
 20
-197.49368200090572
 11
6.8880638186893179
 21
-197.49368200090572
  0
LINE
  8
_0-5_細線
  6
CONTINUOUS
 62
    7
 10
11.823035267856625
 20
-197.49368200090572
 11
14.42303526785652
 21
-197.49368200090572
  0
LINE
  8
_0-5_細線
  6
CONTINUOUS
 62
    7
 10
15.297852360529816
 20
-197.49368200090572
 11
17.892044847926726
 21
-197.49368200090572
  0
LINE
  8
_0-5_細線
  6
CONTINUOUS
 62
    7
 10
21.580554023106316
 20
-197.49368200090572
 11
23.780554023106617
 21
-197.49368200090572
  0
LINE
  8
_0-5_細線
  6
CONTINUOUS
 62
    7
 10
-34.387559820843677
 20
-197.09368200090597
 11
-29.209794607453148
 21
-197.09368200090597
  0
LINE
  8
_0-5_細線
  6
CONTINUOUS
 62
    7
 10
-23.902891268187801
 20
-197.09368200090597
 11
-21.302891268187892
 21
-197.09368200090597
  0
LINE
  8
_0-5_細線
  6
CONTINUOUS
 62
    7
 10
-15.902891268188256
 20
-197.09368200090597
 11
-13.102891268188074
 21
-197.09368200090597
  0
LINE
  8
_0-5_細線
  6
CONTINUOUS
 62
    7
 10
-11.303968293723216
 20
-197.09368200090597
 11
-8.703968293722852
 21
-197.09368200090597
  0
LINE
  8
_0-5_細線
  6
CONTINUOUS
 62
    7
 10
-3.3671731143962518
 20
-197.09368200090597
 11
-0.7671731143963427
 21
-197.09368200090597
  0
LINE
  8
_0-5_細線
  6
CONTINUOUS
 62
    7
 10
1.2328268856036573
 20
-197.09368200090597
 11
3.8328268856035663
 21
-197.09368200090597
  0
LINE
  8
_0-5_細線
  6
CONTINUOUS
 62
    7
 10
4.1015407554274077
 20
-197.09368200090597
 11
6.7015407554277289
 21
-197.09368200090597
  0
LINE
  8
_0-5_細線
  6
CONTINUOUS
 62
    7
 10
11.823035267856625
 20
-197.09368200090597
 11
14.42303526785652
 21
-197.09368200090597
  0
LINE
  8
_0-5_細線
  6
CONTINUOUS
 62
    7
 10
15.047904619766129
 20
-197.09368200090597
 11
17.642097107162527
 21
-197.09368200090597
  0
LINE
  8
_0-5_細線
  6
CONTINUOUS
 62
    7
 10
21.580554023106316
 20
-197.09368200090597
 11
23.780554023106617
 21
-197.09368200090597
  0
LINE
  8
_0-5_細線
  6
CONTINUOUS
 62
    7
 10
-34.201036757581647
 20
-196.69368200090588
 11
-29.396317670715177
 21
-196.69368200090588
  0
LINE
  8
_0-5_細線
  6
CONTINUOUS
 62
    7
 10
-23.902891268187801
 20
-196.69368200090588
 11
-21.302891268187892
 21
-196.69368200090588
  0
LINE
  8
_0-5_細線
  6
CONTINUOUS
 62
    7
 10
-16.327791322387299
 20
-196.69368200090588
 11
-13.228494021942339
 21
-196.69368200090588
  0
LINE
  8
_0-5_細線
  6
CONTINUOUS
 62
    7
 10
-11.490491356985245
 20
-196.69368200090588
 11
-8.8904913569853363
 21
-196.69368200090588
  0
LINE
  8
_0-5_細線
  6
CONTINUOUS
 62
    7
 10
-3.1806500511342222
 20
-196.69368200090588
 11
-0.5806500511343131
 21
-196.69368200090588
  0
LINE
  8
_0-5_細線
  6
CONTINUOUS
 62
    7
 10
1.4193499488656869
 20
-196.69368200090588
 11
6.5150176921657277
 21
-196.69368200090588
  0
LINE
  8
_0-5_細線
  6
CONTINUOUS
 62
    7
 10
11.823035267856625
 20
-196.69368200090588
 11
14.42303526785652
 21
-196.69368200090588
  0
LINE
  8
_0-5_細線
  6
CONTINUOUS
 62
    7
 10
14.797956879002427
 20
-196.69368200090588
 11
17.392149366398925
 21
-196.69368200090588
  0
LINE
  8
_0-5_細線
  6
CONTINUOUS
 62
    7
 10
21.580554023106316
 20
-196.69368200090588
 11
23.780554023106617
 21
-196.69368200090588
  0
LINE
  8
_0-5_細線
  6
CONTINUOUS
 62
    7
 10
-34.014513694319163
 20
-196.29368200090602
 11
-29.582840733977179
 21
-196.29368200090602
  0
LINE
  8
_0-5_細線
  6
CONTINUOUS
 62
    7
 10
-23.902891268187801
 20
-196.29368200090602
 11
-21.302891268187892
 21
-196.29368200090602
  0
LINE
  8
_0-5_細線
  6
CONTINUOUS
 62
    7
 10
-16.943560218720819
 20
-196.29368200090602
 11
-13.394617259978901
 21
-196.29368200090602
  0
LINE
  8
_0-5_細線
  6
CONTINUOUS
 62
    7
 10
-11.67701442024682
 20
-196.29368200090602
 11
-9.0770144202469112
 21
-196.29368200090602
  0
LINE
  8
_0-5_細線
  6
CONTINUOUS
 62
    7
 10
-2.9941269878721926
 20
-196.29368200090602
 11
-0.3941269878722835
 21
-196.29368200090602
  0
LINE
  8
_0-5_細線
  6
CONTINUOUS
 62
    7
 10
1.6058730121277165
 20
-196.29368200090602
 11
6.3284946289037265
 21
-196.29368200090602
  0
LINE
  8
_0-5_細線
  6
CONTINUOUS
 62
    7
 10
11.823035267856625
 20
-196.29368200090602
 11
14.42303526785652
 21
-196.29368200090602
  0
LINE
  8
_0-5_細線
  6
CONTINUOUS
 62
    7
 10
14.548009138238825
 20
-196.29368200090602
 11
17.142201625635224
 21
-196.29368200090602
  0
LINE
  8
_0-5_細線
  6
CONTINUOUS
 62
    7
 10
21.580554023106316
 20
-196.29368200090602
 11
23.780554023106617
 21
-196.29368200090602
  0
LINE
  8
_0-5_細線
  6
CONTINUOUS
 62
    7
 10
-33.827990631057588
 20
-195.89368200090593
 11
-29.769363797239208
 21
-195.89368200090593
  0
LINE
  8
_0-5_細線
  6
CONTINUOUS
 62
    7
 10
-23.902891268187801
 20
-195.89368200090593
 11
-13.640779376842971
 21
-195.89368200090593
  0
LINE
  8
_0-5_細線
  6
CONTINUOUS
 62
    7
 10
-11.86353748350885
 20
-195.89368200090593
 11
-9.2635374835093955
 21
-195.89368200090593
  0
LINE
  8
_0-5_細線
  6
CONTINUOUS
 62
    7
 10
-2.8076039246106177
 20
-195.89368200090593
 11
-0.2076039246102539
 21
-195.89368200090593
  0
LINE
  8
_0-5_細線
  6
CONTINUOUS
 62
    7
 10
1.7923960753897461
 20
-195.89368200090593
 11
6.1419715656416258
 21
-195.89368200090593
  0
LINE
  8
_0-5_細線
  6
CONTINUOUS
 62
    7
 10
11.823035267856625
 20
-195.89368200090593
 11
16.892253884871522
 21
-195.89368200090593
  0
LINE
  8
_0-5_細線
  6
CONTINUOUS
 62
    7
 10
21.580554023106316
 20
-195.89368200090593
 11
23.780554023106617
 21
-195.89368200090593
  0
LINE
  8
_0-5_細線
  6
CONTINUOUS
 62
    7
 10
-33.641467567795559
 20
-195.49368200090584
 11
-29.955886860501238
 21
-195.49368200090584
  0
LINE
  8
_0-5_細線
  6
CONTINUOUS
 62
    7
 10
-23.902891268187801
 20
-195.49368200090584
 11
-14.019101647333997
 21
-195.49368200090584
  0
LINE
  8
_0-5_細線
  6
CONTINUOUS
 62
    7
 10
-12.050060546770894
 20
-195.49368200090584
 11
-9.4500605467709704
 21
-195.49368200090584
  0
LINE
  8
_0-5_細線
  6
CONTINUOUS
 62
    7
 10
-2.6210808613481333
 20
-195.49368200090584
 11
-0.02108086134821
 21
-195.49368200090584
  0
LINE
  8
_0-5_細線
  6
CONTINUOUS
 62
    7
 10
1.9789191386517757
 20
-195.49368200090584
 11
5.9554485023791273
 21
-195.49368200090584
  0
LINE
  8
_0-5_細線
  6
CONTINUOUS
 62
    7
 10
11.823035267856625
 20
-195.49368200090584
 11
16.64230614410782
 21
-195.49368200090584
  0
LINE
  8
_0-5_細線
  6
CONTINUOUS
 62
    7
 10
21.580554023106316
 20
-195.49368200090584
 11
23.780554023106617
 21
-195.49368200090584
  0
LINE
  8
_0-5_細線
  6
CONTINUOUS
 62
    7
 10
-33.454944504533529
 20
-195.09368200090597
 11
-30.142409923763267
 21
-195.09368200090597
  0
LINE
  8
_0-5_細線
  6
CONTINUOUS
 62
    7
 10
-23.902891268187801
 20
-195.09368200090597
 11
-14.574633370409543
 21
-195.09368200090597
  0
LINE
  8
_0-5_細線
  6
CONTINUOUS
 62
    7
 10
-12.236583610032923
 20
-195.09368200090597
 11
-9.6365836100334548
 21
-195.09368200090597
  0
LINE
  8
_0-5_細線
  6
CONTINUOUS
 62
    7
 10
-2.4345577980865585
 20
-195.09368200090597
 11
0.1654422019133505
 21
-195.09368200090597
  0
LINE
  8
_0-5_細線
  6
CONTINUOUS
 62
    7
 10
2.1654422019133648
 20
-195.09368200090597
 11
5.7689254391176235
 21
-195.09368200090597
  0
LINE
  8
_0-5_細線
  6
CONTINUOUS
 62
    7
 10
11.823035267856625
 20
-195.09368200090597
 11
16.392358403344218
 21
-195.09368200090597
  0
LINE
  8
_0-5_細線
  6
CONTINUOUS
 62
    7
 10
21.580554023106316
 20
-195.09368200090597
 11
23.780554023106617
 21
-195.09368200090597
  0
LINE
  8
_0-5_細線
  6
CONTINUOUS
 62
    7
 10
-33.268421441271499
 20
-194.69368200090611
 11
-30.328932987025297
 21
-194.69368200090611
  0
LINE
  8
_0-5_細線
  6
CONTINUOUS
 62
    7
 10
-23.902891268187801
 20
-194.69368200090611
 11
-15.376765266646004
 21
-194.69368200090611
  0
LINE
  8
_0-5_細線
  6
CONTINUOUS
 62
    7
 10
-12.423106673294953
 20
-194.69368200090611
 11
-9.8231066732950438
 21
-194.69368200090611
  0
LINE
  8
_0-5_細線
  6
CONTINUOUS
 62
    7
 10
-2.2480347348240599
 20
-194.69368200090611
 11
0.3519652651753801
 21
-194.69368200090611
  0
LINE
  8
_0-5_細線
  6
CONTINUOUS
 62
    7
 10
2.3519652651758349
 20
-194.69368200090611
 11
5.5824023758555228
 21
-194.69368200090611
  0
LINE
  8
_0-5_細線
  6
CONTINUOUS
 62
    7
 10
11.823035267856625
 20
-194.69368200090611
 11
16.142410662580517
 21
-194.69368200090611
  0
LINE
  8
_0-5_細線
  6
CONTINUOUS
 62
    7
 10
21.580554023106316
 20
-194.69368200090611
 11
23.780554023106617
 21
-194.69368200090611
  0
LINE
  8
_0-5_細線
  6
CONTINUOUS
 62
    7
 10
-33.08189837800947
 20
-194.29368200090602
 11
-30.515456050286872
 21
-194.29368200090602
  0
LINE
  8
_0-5_細線
  6
CONTINUOUS
 62
    7
 10
-23.902891268187801
 20
-194.29368200090602
 11
-16.553556605914679
 21
-194.29368200090602
  0
LINE
  8
_0-5_細線
  6
CONTINUOUS
 62
    7
 10
-12.609629736556982
 20
-194.29368200090602
 11
-10.009629736557073
 21
-194.29368200090602
  0
LINE
  8
_0-5_細線
  6
CONTINUOUS
 62
    7
 10
-2.0615116715620303
 20
-194.29368200090602
 11
0.5384883284374097
 21
-194.29368200090602
  0
LINE
  8
_0-5_細線
  6
CONTINUOUS
 62
    7
 10
2.5384883284378645
 20
-194.29368200090602
 11
5.3958793125935642
 21
-194.29368200090602
  0
LINE
  8
_0-5_細線
  6
CONTINUOUS
 62
    7
 10
11.823035267856625
 20
-194.29368200090602
 11
15.892462921816417
 21
-194.29368200090602
  0
LINE
  8
_0-5_細線
  6
CONTINUOUS
 62
    7
 10
21.580554023106316
 20
-194.29368200090602
 11
23.780554023106617
 21
-194.29368200090602
  0
LINE
  8
_0-5_細線
  6
CONTINUOUS
 62
    7
 10
-59.970416827547439
 20
-205.35581256465667
 11
-51.562717223151509
 21
-205.35581256465667
  0
LINE
  8
_0-5_細線
  6
CONTINUOUS
 62
    7
 10
-59.970416827547439
 20
-205.15581256465663
 11
-51.562717223151509
 21
-205.15581256465663
  0
LINE
  8
_0-5_細線
  6
CONTINUOUS
 62
    7
 10
-59.970416827547439
 20
-204.95581256465681
 11
-51.562717223151509
 21
-204.95581256465681
  0
LINE
  8
_0-5_細線
  6
CONTINUOUS
 62
    7
 10
-59.970416827547439
 20
-204.75581256465688
 11
-51.562717223151509
 21
-204.75581256465688
  0
LINE
  8
_0-5_細線
  6
CONTINUOUS
 62
    7
 10
-59.970416827547439
 20
-204.55581256465683
 11
-51.562717223151509
 21
-204.55581256465683
  0
LINE
  8
_0-5_細線
  6
CONTINUOUS
 62
    7
 10
-59.970416827547439
 20
-204.35581256465679
 11
-51.562717223151509
 21
-204.35581256465679
  0
LINE
  8
_0-5_細線
  6
CONTINUOUS
 62
    7
 10
-59.970416827547439
 20
-204.15581256465663
 11
-51.562717223151509
 21
-204.15581256465663
  0
LINE
  8
_0-5_細線
  6
CONTINUOUS
 62
    7
 10
-59.970416827547439
 20
-203.95581256465681
 11
-51.562717223151509
 21
-203.95581256465681
  0
LINE
  8
_0-5_細線
  6
CONTINUOUS
 62
    7
 10
-59.970416827547439
 20
-203.75581256465688
 11
-51.562717223151509
 21
-203.75581256465688
  0
LINE
  8
_0-5_細線
  6
CONTINUOUS
 62
    7
 10
-59.970416827547439
 20
-203.55581256465706
 11
-51.562717223151509
 21
-203.55581256465706
  0
LINE
  8
_0-5_細線
  6
CONTINUOUS
 62
    7
 10
-59.970416827547439
 20
-203.35581256465679
 11
-51.562717223151509
 21
-203.35581256465679
  0
LINE
  8
_0-5_細線
  6
CONTINUOUS
 62
    7
 10
-59.970416827547439
 20
-203.15581256465697
 11
-51.562717223151509
 21
-203.15581256465697
  0
LINE
  8
_0-5_細線
  6
CONTINUOUS
 62
    7
 10
-59.970416827547439
 20
-202.95581256465681
 11
-51.562717223151509
 21
-202.95581256465681
  0
LINE
  8
_0-5_細線
  6
CONTINUOUS
 62
    7
 10
-59.970416827547439
 20
-202.75581256465688
 11
-51.562717223151509
 21
-202.75581256465688
  0
LINE
  8
_0-5_細線
  6
CONTINUOUS
 62
    7
 10
-59.970416827547439
 20
-202.55581256465706
 11
-51.562717223151509
 21
-202.55581256465706
  0
LINE
  8
_0-5_細線
  6
CONTINUOUS
 62
    7
 10
-59.970416827547439
 20
-202.35581256465679
 11
-51.562717223151509
 21
-202.35581256465679
  0
LINE
  8
_0-5_細線
  6
CONTINUOUS
 62
    7
 10
-59.970416827547439
 20
-202.15581256465697
 11
-51.562717223151509
 21
-202.15581256465697
  0
LINE
  8
_0-5_細線
  6
CONTINUOUS
 62
    7
 10
-59.970416827547439
 20
-201.95581256465692
 11
-51.562717223151509
 21
-201.95581256465692
  0
LINE
  8
_0-5_細線
  6
CONTINUOUS
 62
    7
 10
-59.970416827547439
 20
-201.75581256465711
 11
-51.562717223151509
 21
-201.75581256465711
  0
LINE
  8
_0-5_細線
  6
CONTINUOUS
 62
    7
 10
-59.970416827547439
 20
-201.55581256465706
 11
-51.562717223151509
 21
-201.55581256465706
  0
LINE
  8
_0-5_細線
  6
CONTINUOUS
 62
    7
 10
-59.970416827547439
 20
-201.35581256465701
 11
-51.562717223151509
 21
-201.35581256465701
  0
LINE
  8
_0-5_細線
  6
CONTINUOUS
 62
    7
 10
-59.970416827547439
 20
-201.15581256465697
 11
-51.562717223151509
 21
-201.15581256465697
  0
LINE
  8
_0-5_細線
  6
CONTINUOUS
 62
    7
 10
-59.970416827547439
 20
-200.95581256465692
 11
-51.562717223151509
 21
-200.95581256465692
  0
LINE
  8
_0-5_細線
  6
CONTINUOUS
 62
    7
 10
-59.970416827547439
 20
-200.75581256465711
 11
-51.562717223151509
 21
-200.75581256465711
  0
LINE
  8
_0-5_細線
  6
CONTINUOUS
 62
    7
 10
-59.970416827547439
 20
-200.55581256465706
 11
-51.562717223151509
 21
-200.55581256465706
  0
LINE
  8
_0-5_細線
  6
CONTINUOUS
 62
    7
 10
-59.970416827547439
 20
-200.35581256465724
 11
-51.562717223151509
 21
-200.35581256465724
  0
LINE
  8
_0-5_細線
  6
CONTINUOUS
 62
    7
 10
-59.970416827547439
 20
-200.15581256465697
 11
-51.562717223151509
 21
-200.15581256465697
  0
LINE
  8
_0-5_細線
  6
CONTINUOUS
 62
    7
 10
-59.970416827547439
 20
-199.95581256465715
 11
-51.562717223151509
 21
-199.95581256465715
  0
LINE
  8
_0-5_細線
  6
CONTINUOUS
 62
    7
 10
-59.970416827547439
 20
-199.75581256465722
 11
-51.562717223151509
 21
-199.75581256465722
  0
LINE
  8
_0-5_細線
  6
CONTINUOUS
 62
    7
 10
-59.970416827547439
 20
-199.55581256465706
 11
-51.562717223151509
 21
-199.55581256465706
  0
LINE
  8
_0-5_細線
  6
CONTINUOUS
 62
    7
 10
-59.970416827547439
 20
-199.35581256465701
 11
-51.562717223151509
 21
-199.35581256465701
  0
LINE
  8
_0-5_細線
  6
CONTINUOUS
 62
    7
 10
-59.970416827547439
 20
-199.1558125646572
 11
-51.562717223151509
 21
-199.1558125646572
  0
LINE
  8
_0-5_細線
  6
CONTINUOUS
 62
    7
 10
-59.970416827547439
 20
-198.95581256465715
 11
-51.562717223151509
 21
-198.95581256465715
  0
LINE
  8
_0-5_細線
  6
CONTINUOUS
 62
    7
 10
-59.970416827547439
 20
-198.75581256465722
 11
-51.562717223151509
 21
-198.75581256465722
  0
LINE
  8
_0-5_細線
  6
CONTINUOUS
 62
    7
 10
-59.970416827547439
 20
-198.55581256465706
 11
-51.562717223151509
 21
-198.55581256465706
  0
LINE
  8
_0-5_細線
  6
CONTINUOUS
 62
    7
 10
-59.970416827547439
 20
-198.35581256465701
 11
-51.562717223151509
 21
-198.35581256465701
  0
LINE
  8
_0-5_細線
  6
CONTINUOUS
 62
    7
 10
-59.970416827547439
 20
-198.1558125646572
 11
-51.562717223151509
 21
-198.1558125646572
  0
LINE
  8
_0-5_細線
  6
CONTINUOUS
 62
    7
 10
-59.970416827547439
 20
-197.95581256465715
 11
-51.562717223151509
 21
-197.95581256465715
  0
LINE
  8
_0-5_細線
  6
CONTINUOUS
 62
    7
 10
-59.970416827547439
 20
-197.75581256465722
 11
-51.562717223151509
 21
-197.75581256465722
  0
LINE
  8
_0-5_細線
  6
CONTINUOUS
 62
    7
 10
-59.970416827547439
 20
-197.55581256465706
 11
-51.562717223151509
 21
-197.55581256465706
  0
LINE
  8
_0-5_細線
  6
CONTINUOUS
 62
    7
 10
-59.970416827547439
 20
-197.35581256465724
 11
-51.562717223151509
 21
-197.35581256465724
  0
LINE
  8
_0-5_細線
  6
CONTINUOUS
 62
    7
 10
-59.970416827547439
 20
-197.1558125646572
 11
-51.562717223151509
 21
-197.1558125646572
  0
LINE
  8
_0-5_細線
  6
CONTINUOUS
 62
    7
 10
-41.008091739715752
 20
-187.75581256465699
 11
-38.080976216073765
 21
-187.75581256465699
  0
LINE
  8
_0-5_細線
  6
CONTINUOUS
 62
    7
 10
-41.552688588284951
 20
-187.35581256465713
 11
-37.536379367504566
 21
-187.35581256465713
  0
LINE
  8
_0-5_細線
  6
CONTINUOUS
 62
    7
 10
-41.911677521553798
 20
-186.95581256465704
 11
-37.177390434235718
 21
-186.95581256465704
  0
LINE
  8
_0-5_細線
  6
CONTINUOUS
 62
    7
 10
-42.162558457026904
 20
-186.55581256465717
 11
-36.926509498762613
 21
-186.55581256465717
  0
LINE
  8
_0-5_細線
  6
CONTINUOUS
 62
    7
 10
-42.334647916499677
 20
-186.15581256465686
 11
-36.75442003928984
 21
-186.15581256465686
  0
LINE
  8
_0-5_細線
  6
CONTINUOUS
 62
    7
 10
-42.442018992080563
 20
-185.75581256465722
 11
-36.647048963708954
 21
-185.75581256465722
  0
LINE
  8
_0-5_細線
  6
CONTINUOUS
 62
    7
 10
-42.491753519172931
 20
-185.35581256465713
 11
-36.597314436616585
 21
-185.35581256465713
  0
LINE
  8
_0-5_細線
  6
CONTINUOUS
 62
    7
 10
-42.486775749325176
 20
-184.95581256465726
 11
-36.602292206464341
 21
-184.95581256465726
  0
LINE
  8
_0-5_細線
  6
CONTINUOUS
 62
    7
 10
-42.426802226791921
 20
-184.55581256465717
 11
-36.662265728997596
 21
-184.55581256465717
  0
LINE
  8
_0-5_細線
  6
CONTINUOUS
 62
    7
 10
-42.308254997761111
 20
-184.15581256465731
 11
-36.780812958028406
 21
-184.15581256465731
  0
LINE
  8
_0-5_細線
  6
CONTINUOUS
 62
    7
 10
-42.123067959188489
 20
-183.75581256465722
 11
-36.965999996601028
 21
-183.75581256465722
  0
LINE
  8
_0-5_細線
  6
CONTINUOUS
 62
    7
 10
-41.855274359188485
 20
-183.35581256465713
 11
-37.233793596601032
 21
-183.35581256465713
  0
LINE
  8
_0-5_細線
  6
CONTINUOUS
 62
    7
 10
-41.470723150016426
 20
-182.95581256465726
 11
-37.618344805773091
 21
-182.95581256465726
  0
LINE
  8
_0-5_細線
  6
CONTINUOUS
 62
    7
 10
-40.871518658985593
 20
-182.5558125646574
 11
-38.217549296803924
 21
-182.5558125646574
  0
LINE
  8
_0-5_細線
  6
CONTINUOUS
 62
    7
 10
-36.74810980154453
 20
-186.13733875012173
 11
-36.74810980154453
 21
-184.24757733656503
  0
LINE
  8
_0-5_細線
  6
CONTINUOUS
 62
    7
 10
-37.148109801544166
 20
-186.91580910773251
 11
-37.148109801544166
 21
-183.46910697895424
  0
LINE
  8
_0-5_細線
  6
CONTINUOUS
 62
    7
 10
-37.548109801544257
 20
-187.36664254154203
 11
-37.548109801544257
 21
-183.0182735451445
  0
LINE
  8
_0-5_細線
  6
CONTINUOUS
 62
    7
 10
-37.948109801544348
 20
-187.67524228151075
 11
-37.948109801544348
 21
-182.70967380517601
  0
LINE
  8
_0-5_細線
  6
CONTINUOUS
 62
    7
 10
-38.348109801543984
 20
-187.89085699723643
 11
-38.348109801543984
 21
-182.49405908945033
  0
LINE
  8
_0-5_細線
  6
CONTINUOUS
 62
    7
 10
-38.74810980154453
 20
-188.03472760400365
 11
-38.74810980154453
 21
-182.35018848268288
  0
LINE
  8
_0-5_細線
  6
CONTINUOUS
 62
    7
 10
-39.148109801544166
 20
-188.1174598547139
 11
-39.148109801544166
 21
-182.26745623197263
  0
LINE
  8
_0-5_細線
  6
CONTINUOUS
 62
    7
 10
-39.548109801544257
 20
-188.14419904445009
 11
-39.548109801544257
 21
-182.24071704223644
  0
LINE
  8
_0-5_細線
  6
CONTINUOUS
 62
    7
 10
-51.74810980154453
 20
-205.39693841963134
 11
-51.74810980154453
 21
-196.97739999814752
  0
LINE
  8
_0-5_細線
  6
CONTINUOUS
 62
    7
 10
-51.948109801544348
 20
-205.39693841963134
 11
-51.948109801544348
 21
-196.97739999814752
  0
LINE
  8
_0-5_細線
  6
CONTINUOUS
 62
    7
 10
-52.148109801544194
 20
-205.39693841963134
 11
-52.148109801544194
 21
-196.97739999814752
  0
LINE
  8
_0-5_細線
  6
CONTINUOUS
 62
    7
 10
-52.348109801544439
 20
-205.39693841963134
 11
-52.348109801543984
 21
-196.97739999814752
  0
LINE
  8
_0-5_細線
  6
CONTINUOUS
 62
    7
 10
-52.548109801544257
 20
-205.39693841963134
 11
-52.548109801544257
 21
-196.97739999814752
  0
LINE
  8
_0-5_細線
  6
CONTINUOUS
 62
    7
 10
-52.74810980154453
 20
-205.39693841963134
 11
-52.74810980154453
 21
-196.97739999814752
  0
LINE
  8
_0-5_細線
  6
CONTINUOUS
 62
    7
 10
-52.948109801544348
 20
-205.39693841963134
 11
-52.948109801544348
 21
-196.97739999814752
  0
LINE
  8
_0-5_細線
  6
CONTINUOUS
 62
    7
 10
-53.148109801544166
 20
-205.39693841963134
 11
-53.148109801544166
 21
-196.97739999814752
  0
LINE
  8
_0-5_細線
  6
CONTINUOUS
 62
    7
 10
-53.348109801544439
 20
-205.39693841963134
 11
-53.348109801544439
 21
-196.97739999814752
  0
LINE
  8
_0-5_細線
  6
CONTINUOUS
 62
    7
 10
-53.548109801544257
 20
-205.39693841963134
 11
-53.548109801544257
 21
-196.97739999814752
  0
LINE
  8
_0-5_細線
  6
CONTINUOUS
 62
    7
 10
-53.74810980154453
 20
-205.39693841963134
 11
-53.74810980154453
 21
-196.97739999814752
  0
LINE
  8
_0-5_細線
  6
CONTINUOUS
 62
    7
 10
-53.948109801544348
 20
-205.39693841963134
 11
-53.948109801544348
 21
-196.97739999814752
  0
LINE
  8
_0-5_細線
  6
CONTINUOUS
 62
    7
 10
-54.148109801544166
 20
-205.39693841963134
 11
-54.148109801544166
 21
-196.97739999814752
  0
LINE
  8
_0-5_細線
  6
CONTINUOUS
 62
    7
 10
-54.348109801543984
 20
-205.39693841963134
 11
-54.348109801543984
 21
-196.97739999814752
  0
LINE
  8
_0-5_細線
  6
CONTINUOUS
 62
    7
 10
-54.548109801544257
 20
-205.39693841963134
 11
-54.548109801544257
 21
-196.97739999814752
  0
LINE
  8
_0-5_細線
  6
CONTINUOUS
 62
    7
 10
-54.74810980154453
 20
-205.39693841963134
 11
-54.74810980154453
 21
-196.97739999814752
  0
LINE
  8
_0-5_細線
  6
CONTINUOUS
 62
    7
 10
-54.948109801544348
 20
-205.39693841963134
 11
-54.948109801544348
 21
-196.97739999814752
  0
LINE
  8
_0-5_細線
  6
CONTINUOUS
 62
    7
 10
-55.148109801544166
 20
-205.39693841963134
 11
-55.148109801544166
 21
-196.97739999814752
  0
LINE
  8
_0-5_細線
  6
CONTINUOUS
 62
    7
 10
-55.348109801544439
 20
-205.39693841963134
 11
-55.348109801544439
 21
-196.97739999814752
  0
LINE
  8
_0-5_細線
  6
CONTINUOUS
 62
    7
 10
-55.548109801544257
 20
-205.39693841963134
 11
-55.548109801544257
 21
-196.97739999814752
  0
LINE
  8
_0-5_細線
  6
CONTINUOUS
 62
    7
 10
-55.74810980154453
 20
-205.39693841963134
 11
-55.74810980154453
 21
-196.97739999814752
  0
LINE
  8
_0-5_細線
  6
CONTINUOUS
 62
    7
 10
-55.948109801544348
 20
-205.39693841963134
 11
-55.948109801544348
 21
-196.97739999814752
  0
LINE
  8
_0-5_細線
  6
CONTINUOUS
 62
    7
 10
-56.148109801544166
 20
-205.39693841963134
 11
-56.148109801544166
 21
-196.97739999814752
  0
LINE
  8
_0-5_細線
  6
CONTINUOUS
 62
    7
 10
-56.348109801543984
 20
-205.39693841963134
 11
-56.348109801543984
 21
-196.97739999814752
  0
LINE
  8
_0-5_細線
  6
CONTINUOUS
 62
    7
 10
-56.548109801544257
 20
-205.39693841963134
 11
-56.548109801544257
 21
-196.97739999814752
  0
LINE
  8
_0-5_細線
  6
CONTINUOUS
 62
    7
 10
-56.74810980154453
 20
-205.39693841963134
 11
-56.74810980154453
 21
-196.97739999814752
  0
LINE
  8
_0-5_細線
  6
CONTINUOUS
 62
    7
 10
-56.948109801544348
 20
-205.39693841963134
 11
-56.948109801544348
 21
-196.97739999814752
  0
LINE
  8
_0-5_細線
  6
CONTINUOUS
 62
    7
 10
-57.148109801544166
 20
-205.39693841963134
 11
-57.148109801544166
 21
-196.97739999814752
  0
LINE
  8
_0-5_細線
  6
CONTINUOUS
 62
    7
 10
-57.348109801543984
 20
-205.39693841963134
 11
-57.348109801543984
 21
-196.97739999814752
  0
LINE
  8
_0-5_細線
  6
CONTINUOUS
 62
    7
 10
-57.548109801544257
 20
-205.39693841963134
 11
-57.548109801544257
 21
-196.97739999814752
  0
LINE
  8
_0-5_細線
  6
CONTINUOUS
 62
    7
 10
-57.74810980154453
 20
-205.39693841963134
 11
-57.74810980154453
 21
-196.97739999814752
  0
LINE
  8
_0-5_細線
  6
CONTINUOUS
 62
    7
 10
-57.948109801544348
 20
-205.39693841963134
 11
-57.948109801544348
 21
-196.97739999814752
  0
LINE
  8
_0-5_細線
  6
CONTINUOUS
 62
    7
 10
-58.148109801544166
 20
-205.39693841963134
 11
-58.148109801544166
 21
-196.97739999814752
  0
LINE
  8
_0-5_細線
  6
CONTINUOUS
 62
    7
 10
-58.348109801544439
 20
-205.39693841963134
 11
-58.348109801544439
 21
-196.97739999814752
  0
LINE
  8
_0-5_細線
  6
CONTINUOUS
 62
    7
 10
-58.548109801544257
 20
-205.39693841963134
 11
-58.548109801544257
 21
-196.97739999814752
  0
LINE
  8
_0-5_細線
  6
CONTINUOUS
 62
    7
 10
-58.748109801544075
 20
-205.39693841963134
 11
-58.748109801544075
 21
-196.97739999814752
  0
LINE
  8
_0-5_細線
  6
CONTINUOUS
 62
    7
 10
-58.948109801544348
 20
-205.39693841963134
 11
-58.948109801544348
 21
-196.97739999814752
  0
LINE
  8
_0-5_細線
  6
CONTINUOUS
 62
    7
 10
-59.148109801544166
 20
-205.39693841963134
 11
-59.148109801544166
 21
-196.97739999814752
  0
LINE
  8
_0-5_細線
  6
CONTINUOUS
 62
    7
 10
-59.348109801543984
 20
-205.39693841963134
 11
-59.348109801543984
 21
-196.97739999814752
  0
LINE
  8
_0-5_細線
  6
CONTINUOUS
 62
    7
 10
-59.548109801544257
 20
-205.39693841963134
 11
-59.548109801544257
 21
-196.97739999814752
  0
LINE
  8
_0-5_細線
  6
CONTINUOUS
 62
    7
 10
-59.74810980154453
 20
-205.39693841963134
 11
-59.74810980154453
 21
-196.97739999814752
  0
LINE
  8
_0-5_細線
  6
CONTINUOUS
 62
    7
 10
-59.948109801544348
 20
-205.39693841963134
 11
-59.948109801544348
 21
-196.97739999814752
  0
LINE
  8
_0-5_細線
  6
CONTINUOUS
 62
    7
 10
-55.348614706575432
 20
-190.82313323226555
 11
-66.728931486858897
 21
-205.64077018292022
  0
LINE
  8
_0-5_細線
  6
CONTINUOUS
 62
    7
 10
-66.728931486858897
 20
-205.64077018292022
 11
-67.843738028600825
 21
-206.10527290864633
  0
LINE
  8
_0-5_細線
  6
CONTINUOUS
 62
    7
 10
-67.843738028600825
 20
-206.10527290864633
 11
-68.865644025197895
 21
-206.47687508922678
  0
LINE
  8
_0-5_細線
  6
CONTINUOUS
 62
    7
 10
-68.865644025197895
 20
-206.47687508922678
 11
-69.423047296068859
 21
-205.96592209092859
  0
LINE
  8
_0-5_細線
  6
CONTINUOUS
 62
    7
 10
-69.423047296068859
 20
-205.96592209092859
 11
-69.88755002179451
 21
-205.31561827491231
  0
LINE
  8
_0-5_細線
  6
CONTINUOUS
 62
    7
 10
-69.88755002179451
 20
-205.31561827491231
 11
-70.259152202375304
 21
-204.06146091545253
  0
LINE
  8
_0-5_細線
  6
CONTINUOUS
 62
    7
 10
-70.259152202375304
 20
-204.06146091545253
 11
-69.88755002179451
 21
-202.90020410113772
  0
LINE
  8
_0-5_細線
  6
CONTINUOUS
 62
    7
 10
-69.88755002179451
 20
-202.90020410113772
 11
-68.494041844617101
 21
-200.90284238051657
  0
LINE
  8
_0-5_細線
  6
CONTINUOUS
 62
    7
 10
-68.494041844617101
 20
-200.90284238051657
 11
-57.996280243212738
 21
-186.68905897330529
  0
LINE
  8
_0-5_細線
  6
CONTINUOUS
 62
    7
 10
-57.996280243212738
 20
-186.68905897330529
 11
-57.996280243212738
 21
-185.66715297670868
  0
LINE
  8
_0-5_細線
  6
CONTINUOUS
 62
    7
 10
-57.996280243212738
 20
-185.66715297670868
 11
-57.717578607777256
 21
-185.0168491606924
  0
LINE
  8
_0-5_細線
  6
CONTINUOUS
 62
    7
 10
-57.717578607777256
 20
-185.0168491606924
 11
-56.974374246615668
 21
-184.18074425438573
  0
LINE
  8
_0-5_細線
  6
CONTINUOUS
 62
    7
 10
-56.974374246615668
 20
-184.18074425438573
 11
-56.742122883752842
 21
-183.94849289152313
  0
LINE
  8
_0-5_細線
  6
CONTINUOUS
 62
    7
 10
-56.742122883752842
 20
-183.94849289152313
 11
-56.324070430599392
 21
-183.34463934807928
  0
LINE
  8
_0-5_細線
  6
CONTINUOUS
 62
    7
 10
-56.324070430599392
 20
-183.34463934807928
 11
-55.627316342010914
 21
-183.2517388029342
  0
LINE
  8
_0-5_細線
  6
CONTINUOUS
 62
    7
 10
-55.627316342010914
 20
-183.2517388029342
 11
-54.419609255123675
 21
-183.01948744007115
  0
LINE
  8
_0-5_細線
  6
CONTINUOUS
 62
    7
 10
-54.419609255123675
 20
-183.01948744007115
 11
-53.955106529397568
 21
-183.0659377126438
  0
LINE
  8
_0-5_細線
  6
CONTINUOUS
 62
    7
 10
-53.955106529397568
 20
-183.0659377126438
 11
-52.979650805373609
 21
-183.39108962065194
  0
LINE
  8
_0-5_細線
  6
CONTINUOUS
 62
    7
 10
-52.979650805373609
 20
-183.39108962065194
 11
-52.608048624792815
 21
-183.85559234637759
  0
LINE
  8
_0-5_細線
  6
CONTINUOUS
 62
    7
 10
-52.608048624792815
 20
-183.85559234637759
 11
-51.586142628195745
 21
-185.2026502509828
  0
LINE
  8
_0-5_細線
  6
CONTINUOUS
 62
    7
 10
-51.586142628195745
 20
-185.2026502509828
 11
-48.427524093260132
 21
-190.45153105168498
  0
LINE
  8
_0-5_細線
  6
CONTINUOUS
 62
    7
 10
-46.189798491689004
 20
-194.23181647189966
 11
-41.694055129630584
 21
-201.99252520260296
  0
LINE
  8
_0-5_細線
  6
CONTINUOUS
 62
    7
 10
-41.694055129630584
 20
-201.99252520260296
 11
-41.262946664813541
 21
-203.10108982641822
  0
LINE
  8
_0-5_細線
  6
CONTINUOUS
 62
    7
 10
-41.262946664813541
 20
-203.10108982641822
 11
-41.447707435449416
 21
-203.65537213832562
  0
LINE
  8
_0-5_細線
  6
CONTINUOUS
 62
    7
 10
-41.447707435449416
 20
-203.65537213832562
 11
-42.001989747357044
 21
-204.42520868264177
  0
LINE
  8
_0-5_細線
  6
CONTINUOUS
 62
    7
 10
-42.001989747357044
 20
-204.42520868264177
 11
-44.157532071441807
 21
-205.07187137986733
  0
LINE
  8
_0-5_細線
  6
CONTINUOUS
 62
    7
 10
-44.157532071441807
 20
-205.07187137986733
 11
-45.450857465892938
 21
-205.53377330645702
  0
LINE
  8
_0-5_細線
  6
CONTINUOUS
 62
    7
 10
-45.450857465892938
 20
-205.53377330645702
 11
-46.590215551480838
 21
-205.07187137986733
  0
LINE
  8
_0-5_細線
  6
CONTINUOUS
 62
    7
 10
-46.590215551480838
 20
-205.07187137986733
 11
-48.345442872521204
 21
-203.19347021173604
  0
LINE
  8
_0-5_細線
  6
CONTINUOUS
 62
    7
 10
-48.345442872521204
 20
-203.19347021173604
 11
-48.407029796066951
 21
-202.17728597323884
  0
LINE
  8
_0-5_細線
  6
CONTINUOUS
 62
    7
 10
-48.407029796066951
 20
-202.17728597323884
 11
-55.348614706575432
 21
-190.82313323226555
  0
LINE
  8
_0-5_細線
  6
CONTINUOUS
 62
    7
 10
-42.218095675769661
 20
-204.4900404611646
 11
-41.612999076211423
 21
-203.88494386160613
  0
LINE
  8
_0-5_細線
  6
CONTINUOUS
 62
    7
 10
-43.026217711409032
 20
-204.73247707185732
 11
-41.299874129137521
 21
-203.00613348958558
  0
LINE
  8
_0-5_細線
  6
CONTINUOUS
 62
    7
 10
-43.834339747052042
 20
-204.97491368255027
 11
-41.458266048123647
 21
-202.59883998362176
  0
LINE
  8
_0-5_細線
  6
CONTINUOUS
 62
    7
 10
-44.685566645916794
 20
-205.26045515646507
 11
-41.616657967109774
 21
-202.19154647765782
  0
LINE
  8
_0-5_細線
  6
CONTINUOUS
 62
    7
 10
-45.50330692615708
 20
-205.5125100117553
 11
-41.800160071624219
 21
-201.80936315722266
  0
LINE
  8
_0-5_細線
  6
CONTINUOUS
 62
    7
 10
-45.905813863138434
 20
-205.34933152378989
 11
-42.007657027102965
 21
-201.45117468775453
  0
LINE
  8
_0-5_細線
  6
CONTINUOUS
 62
    7
 10
-46.308320800121606
 20
-205.18615303582334
 11
-42.215153982582621
 21
-201.09298621828424
  0
LINE
  8
_0-5_細線
  6
CONTINUOUS
 62
    7
 10
-46.67209702610117
 20
-204.9842438368525
 11
-42.422650938062731
 21
-200.73479774881395
  0
LINE
  8
_0-5_細線
  6
CONTINUOUS
 62
    7
 10
-46.945351850017602
 20
-204.6918132358191
 11
-42.630147893542386
 21
-200.37660927934388
  0
LINE
  8
_0-5_細線
  6
CONTINUOUS
 62
    7
 10
-47.218606673934033
 20
-204.39938263478581
 11
-42.837644849022041
 21
-200.01842080987348
  0
LINE
  8
_0-5_細線
  6
CONTINUOUS
 62
    7
 10
-47.491861497848646
 20
-204.10695203375388
 11
-43.045141804500787
 21
-199.66023234040568
  0
LINE
  8
_0-5_細線
  6
CONTINUOUS
 62
    7
 10
-47.765116321765532
 20
-203.81452143272048
 11
-43.252638759980442
 21
-199.30204387093539
  0
LINE
  8
_0-5_細線
  6
CONTINUOUS
 62
    7
 10
-48.038371145681964
 20
-203.52209083168685
 11
-43.460135715460098
 21
-198.94385540146521
  0
LINE
  8
_0-5_細線
  6
CONTINUOUS
 62
    7
 10
-48.311625969598396
 20
-203.22966023065368
 11
-43.667632670940208
 21
-198.58566693199492
  0
LINE
  8
_0-5_細線
  6
CONTINUOUS
 62
    7
 10
-48.373767358412721
 20
-202.72611619452135
 11
-43.875129626418499
 21
-198.2274784625269
  0
LINE
  8
_0-5_細線
  6
CONTINUOUS
 62
    7
 10
-48.406092239838387
 20
-202.19275565099707
 11
-44.082626581898154
 21
-197.86928999305673
  0
LINE
  8
_0-5_細線
  6
CONTINUOUS
 62
    7
 10
-48.61543140712493
 20
-201.83640939333321
 11
-44.290123537378264
 21
-197.51110152358655
  0
LINE
  8
_0-5_細線
  6
CONTINUOUS
 62
    7
 10
-48.830058086012201
 20
-201.48535064727031
 11
-44.497620492858374
 21
-197.15291305411637
  0
LINE
  8
_0-5_細線
  6
CONTINUOUS
 62
    7
 10
-49.044684764899017
 20
-201.13429190120718
 11
-44.705117448338029
 21
-196.79472458464619
  0
LINE
  8
_0-5_細線
  6
CONTINUOUS
 62
    7
 10
-49.259311443784924
 20
-200.78323315514666
 11
-44.91261440381632
 21
-196.43653611517806
  0
LINE
  8
_0-5_細線
  6
CONTINUOUS
 62
    7
 10
-49.47393812267174
 20
-200.43217440908364
 11
-45.120111359295976
 21
-196.07834764570788
  0
LINE
  8
_0-5_細線
  6
CONTINUOUS
 62
    7
 10
-49.688564801559011
 20
-200.08111566302085
 11
-45.327608314776086
 21
-195.72015917623759
  0
LINE
  8
_0-5_細線
  6
CONTINUOUS
 62
    7
 10
-49.903191480446736
 20
-199.73005691695795
 11
-45.535105270255741
 21
-195.36197070676752
  0
LINE
  8
_0-5_細線
  6
CONTINUOUS
 62
    7
 10
-50.117818159332188
 20
-199.37899817089721
 11
-45.742602225734487
 21
-195.0037822372995
  0
LINE
  8
_0-5_細線
  6
CONTINUOUS
 62
    7
 10
-50.332444838219004
 20
-199.02793942483396
 11
-45.950099181214142
 21
-194.64559376782887
  0
LINE
  8
_0-5_細線
  6
CONTINUOUS
 62
    7
 10
-50.547071517106275
 20
-198.67688067877128
 11
-46.157596136693797
 21
-194.28740529835892
  0
LINE
  8
_0-5_細線
  6
CONTINUOUS
 62
    7
 10
-50.761698195993546
 20
-198.32582193270849
 11
-46.667692735184943
 21
-194.23181647189978
  0
LINE
  8
_0-5_細線
  6
CONTINUOUS
 62
    7
 10
-50.976324874879452
 20
-197.97476318664798
 11
-47.233378160130457
 21
-194.23181647189921
  0
LINE
  8
_0-5_細線
  6
CONTINUOUS
 62
    7
 10
-51.190951553766268
 20
-197.62370444058473
 11
-47.799063585081427
 21
-194.23181647189966
  0
LINE
  8
_0-5_細線
  6
CONTINUOUS
 62
    7
 10
-51.405578232653539
 20
-197.27264569452194
 11
-48.364749010030579
 21
-194.23181647189921
  0
LINE
  8
_0-5_細線
  6
CONTINUOUS
 62
    7
 10
-51.620204911540355
 20
-196.92158694845915
 11
-48.93043443498064
 21
-194.23181647189875
  0
LINE
  8
_0-5_細線
  6
CONTINUOUS
 62
    7
 10
-51.834831590427626
 20
-196.57052820239602
 11
-49.496119859931156
 21
-194.23181647189944
  0
LINE
  8
_0-5_細線
  6
CONTINUOUS
 62
    7
 10
-52.049458269313533
 20
-196.21946945633539
 11
-50.061805284877124
 21
-194.23181647189875
  0
LINE
  8
_0-5_細線
  6
CONTINUOUS
 62
    7
 10
-52.264084948200804
 20
-195.86841071027237
 11
-50.586279725121074
 21
-194.19060548719284
  0
LINE
  8
_0-5_細線
  6
CONTINUOUS
 62
    7
 10
-52.47871162708762
 20
-195.51735196420958
 11
-49.813539064090406
 21
-192.85217940121248
  0
LINE
  8
_0-5_細線
  6
CONTINUOUS
 62
    7
 10
-52.693338305974891
 20
-195.1662932181469
 11
-49.040798403057039
 21
-191.51375331522883
  0
LINE
  8
_0-5_細線
  6
CONTINUOUS
 62
    7
 10
-52.907964984860797
 20
-194.81523447208605
 11
-48.471381264760026
 21
-190.37865075198562
  0
LINE
  8
_0-5_細線
  6
CONTINUOUS
 62
    7
 10
-53.122591663747613
 20
-194.46417572602292
 11
-48.683903965846099
 21
-190.02548802812174
  0
LINE
  8
_0-5_細線
  6
CONTINUOUS
 62
    7
 10
-53.337218342634884
 20
-194.11311697996024
 11
-48.896426666932626
 21
-189.67232530425787
  0
LINE
  8
_0-5_細線
  6
CONTINUOUS
 62
    7
 10
-53.551845021522155
 20
-193.76205823389733
 11
-49.108949368019154
 21
-189.31916258039433
  0
LINE
  8
_0-5_細線
  6
CONTINUOUS
 62
    7
 10
-53.766471700409426
 20
-193.41099948783432
 11
-49.321472069105226
 21
-188.96599985653057
  0
LINE
  8
_0-5_細線
  6
CONTINUOUS
 62
    7
 10
-53.981098379294878
 20
-193.05994074177357
 11
-49.533994770189935
 21
-188.61283713266886
  0
LINE
  8
_0-5_細線
  6
CONTINUOUS
 62
    7
 10
-67.412385930059287
 20
-205.92554286758758
 11
-65.408971610629493
 21
-203.92212854815801
  0
LINE
  8
_0-5_細線
  6
CONTINUOUS
 62
    7
 10
-54.195725058182148
 20
-192.7088819957109
 11
-49.746517471276007
 21
-188.25967440880487
  0
LINE
  8
_0-5_細線
  6
CONTINUOUS
 62
    7
 10
-68.337266177477346
 20
-206.28473769005603
 11
-63.536094190189402
 21
-201.48356570276786
  0
LINE
  8
_0-5_細線
  6
CONTINUOUS
 62
    7
 10
-54.410351737069419
 20
-192.35782324964799
 11
-49.959040172362535
 21
-187.90651168494111
  0
LINE
  8
_0-5_細線
  6
CONTINUOUS
 62
    7
 10
-68.985354447667675
 20
-206.3671405352963
 11
-61.663216769744764
 21
-199.04500285737339
  0
LINE
  8
_0-5_細線
  6
CONTINUOUS
 62
    7
 10
-54.62497841595669
 20
-192.00676450358498
 11
-50.171562873448607
 21
-187.55334896107735
  0
LINE
  8
_0-5_細線
  6
CONTINUOUS
 62
    7
 10
-69.28049466937901
 20
-206.09659533206076
 11
-59.790339349315587
 21
-196.60644001199756
  0
LINE
  8
_0-5_細線
  6
CONTINUOUS
 62
    7
 10
-54.839605094842142
 20
-191.65570575752423
 11
-50.384085574533316
 21
-187.20018623721563
  0
LINE
  8
_0-5_細線
  6
CONTINUOUS
 62
    7
 10
-69.544905444872171
 20
-205.79532068260409
 11
-57.917461928869585
 21
-194.16787716660139
  0
LINE
  8
_0-5_細線
  6
CONTINUOUS
 62
    7
 10
-55.054231773728958
 20
-191.30464701146121
 11
-50.596608275619843
 21
-186.84702351335187
  0
LINE
  8
_0-5_細線
  6
CONTINUOUS
 62
    7
 10
-69.780607705267727
 20
-205.46533751805003
 11
-56.044584508427675
 21
-191.72931432120964
  0
LINE
  8
_0-5_細線
  6
CONTINUOUS
 62
    7
 10
-55.268858452616229
 20
-190.95358826539854
 11
-50.809130976705916
 21
-186.493860789488
  0
LINE
  8
_0-5_細線
  6
CONTINUOUS
 62
    7
 10
-69.958184048146364
 20
-205.07722843597816
 11
-51.021653677791988
 21
-186.14069806562412
  0
LINE
  8
_0-5_細線
  6
CONTINUOUS
 62
    7
 10
-70.087483573848573
 20
-204.6408425367303
 11
-51.234176378878516
 21
-185.78753534176059
  0
LINE
  8
_0-5_細線
  6
CONTINUOUS
 62
    7
 10
-70.216783099550781
 20
-204.20445663748609
 11
-51.446699079963224
 21
-185.43437261789865
  0
LINE
  8
_0-5_細線
  6
CONTINUOUS
 62
    7
 10
-70.08017780233186
 20
-203.50216591531733
 11
-51.670053004972857
 21
-185.09204111795822
  0
LINE
  8
_0-5_細線
  6
CONTINUOUS
 62
    7
 10
-69.526739118780284
 20
-202.3830418068157
 11
-51.914074168676876
 21
-184.7703768567124
  0
LINE
  8
_0-5_細線
  6
CONTINUOUS
 62
    7
 10
-68.160174098911654
 20
-200.45079136199689
 11
-52.158095332380896
 21
-184.44871259546636
  0
LINE
  8
_0-5_細線
  6
CONTINUOUS
 62
    7
 10
-66.562112773443829
 20
-198.28704461158242
 11
-52.402116496083551
 21
-184.12704833422214
  0
LINE
  8
_0-5_細線
  6
CONTINUOUS
 62
    7
 10
-64.964051447958724
 20
-196.12329786114771
 11
-52.647291872969078
 21
-183.8065382861576
  0
LINE
  8
_0-5_細線
  6
CONTINUOUS
 62
    7
 10
-63.365990122476347
 20
-193.95955111071527
 11
-52.898707617391125
 21
-183.49226860563004
  0
LINE
  8
_0-5_細線
  6
CONTINUOUS
 62
    7
 10
-61.767928796989423
 20
-191.79580436027794
 11
-53.267323244365713
 21
-183.29519880765457
  0
LINE
  8
_0-5_細線
  6
CONTINUOUS
 62
    7
 10
-60.169867471508866
 20
-189.63205760984766
 11
-53.691587313077804
 21
-183.1537774514166
  0
LINE
  8
_0-5_細線
  6
CONTINUOUS
 62
    7
 10
-58.57180614603422
 20
-187.46831085942682
 11
-54.149948774719093
 21
-183.04645348811147
  0
LINE
  8
_0-5_細線
  6
CONTINUOUS
 62
    7
 10
-57.996280243212283
 20
-186.32709953165414
 11
-54.752729793654822
 21
-183.08354908209691
  0
LINE
  8
_0-5_細線
  6
CONTINUOUS
 62
    7
 10
-57.996280243212283
 20
-185.76141410670454
 11
-55.453102224544551
 21
-183.21823608803658
  0
LINE
  8
_0-5_細線
  6
CONTINUOUS
 62
    7
 10
-56.726549352992521
 20
-183.92599779153471
 11
-56.117670983219256
 21
-183.31711942176122
  0
LINE
  8
_0-5_細線
  6
CONTINUOUS
 62
    7
 10
-69.903564459080741
 20
-205.26156954907509
 11
-68.735561613933811
 21
-206.42957239422202
  0
LINE
  8
_0-5_細線
  6
CONTINUOUS
 62
    7
 10
-70.14174779590067
 20
-204.45770078730499
 11
-68.320725635637615
 21
-206.27872294756861
  0
LINE
  8
_0-5_細線
  6
CONTINUOUS
 62
    7
 10
-70.189612818236498
 20
-203.84415034001921
 11
-67.905889657340964
 21
-206.12787350091497
  0
LINE
  8
_0-5_細線
  6
CONTINUOUS
 62
    7
 10
-70.052476957642654
 20
-203.41560077566322
 11
-67.504255766995726
 21
-205.96382196631038
  0
LINE
  8
_0-5_細線
  6
CONTINUOUS
 62
    7
 10
-69.915341097049719
 20
-202.98705121130951
 11
-67.104948408209935
 21
-205.79744390014974
  0
LINE
  8
_0-5_細線
  6
CONTINUOUS
 62
    7
 10
-69.702188142538859
 20
-202.63451874087053
 11
-66.714598645262328
 21
-205.62210823814729
  0
LINE
  8
_0-5_細線
  6
CONTINUOUS
 62
    7
 10
-69.469714680230396
 20
-202.30130677822871
 11
-66.468866501444978
 21
-205.30215495701412
  0
LINE
  8
_0-5_細線
  6
CONTINUOUS
 62
    7
 10
-69.237241217922389
 20
-201.96809481558699
 11
-66.223134357628084
 21
-204.98220167588096
  0
LINE
  8
_0-5_細線
  6
CONTINUOUS
 62
    7
 10
-69.004767755615291
 20
-201.63488285294733
 11
-65.977402213812553
 21
-204.66224839475018
  0
LINE
  8
_0-5_細線
  6
CONTINUOUS
 62
    7
 10
-68.772294293307283
 20
-201.3016708903055
 11
-65.731670069996113
 21
-204.3422951136169
  0
LINE
  8
_0-5_細線
  6
CONTINUOUS
 62
    7
 10
-68.539820830999275
 20
-200.96845892766345
 11
-65.485937926178764
 21
-204.02234183248373
  0
LINE
  8
_0-5_細線
  6
CONTINUOUS
 62
    7
 10
-68.301054033600309
 20
-200.64154030011235
 11
-65.240205782361869
 21
-203.70238855135045
  0
LINE
  8
_0-5_細線
  6
CONTINUOUS
 62
    7
 10
-68.060744059844552
 20
-200.31616484892169
 11
-64.994473638546339
 21
-203.38243527021967
  0
LINE
  8
_0-5_細線
  6
CONTINUOUS
 62
    7
 10
-67.820434086087431
 20
-199.99078939772863
 11
-64.748741494729444
 21
-203.06248198908651
  0
LINE
  8
_0-5_細線
  6
CONTINUOUS
 62
    7
 10
-67.58012411233031
 20
-199.66541394653535
 11
-64.503009350912549
 21
-202.74252870795357
  0
LINE
  8
_0-5_細線
  6
CONTINUOUS
 62
    7
 10
-67.339814138573644
 20
-199.34003849534241
 11
-64.257277207095655
 21
-202.4225754268204
  0
LINE
  8
_0-5_細線
  6
CONTINUOUS
 62
    7
 10
-67.099504164816523
 20
-199.01466304414924
 11
-64.01154506327876
 21
-202.10262214568723
  0
LINE
  8
_0-5_細線
  6
CONTINUOUS
 62
    7
 10
-66.859194191061221
 20
-198.68928759295835
 11
-63.765812919463229
 21
-201.782668864556
  0
LINE
  8
_0-5_細線
  6
CONTINUOUS
 62
    7
 10
-66.6188842173041
 20
-198.36391214176518
 11
-63.520080775646335
 21
-201.46271558342283
  0
LINE
  8
_0-5_細線
  6
CONTINUOUS
 62
    7
 10
-66.378574243547433
 20
-198.03853669057202
 11
-63.27434863182944
 21
-201.14276230229001
  0
LINE
  8
_0-5_細線
  6
CONTINUOUS
 62
    7
 10
-66.138264269790312
 20
-197.71316123937908
 11
-63.028616488012545
 21
-200.82280902115684
  0
LINE
  8
_0-5_細線
  6
CONTINUOUS
 62
    7
 10
-65.897954296034555
 20
-197.38778578818818
 11
-62.782884344197015
 21
-200.50285574002595
  0
LINE
  8
_0-5_細線
  6
CONTINUOUS
 62
    7
 10
-65.657644322277889
 20
-197.06241033699501
 11
-62.53715220038012
 21
-200.18290245889278
  0
LINE
  8
_0-5_細線
  6
CONTINUOUS
 62
    7
 10
-65.417334348520768
 20
-196.73703488580185
 11
-62.291420056563226
 21
-199.86294917775962
  0
LINE
  8
_0-5_細線
  6
CONTINUOUS
 62
    7
 10
-65.177024374763647
 20
-196.41165943460868
 11
-62.045687912746331
 21
-199.54299589662645
  0
LINE
  8
_0-5_細線
  6
CONTINUOUS
 62
    7
 10
-64.936714401006981
 20
-196.08628398341574
 11
-61.799955768929436
 21
-199.22304261549328
  0
LINE
  8
_0-5_細線
  6
CONTINUOUS
 62
    7
 10
-64.696404427251224
 20
-195.76090853222485
 11
-61.554223625113906
 21
-198.90308933436239
  0
LINE
  8
_0-5_細線
  6
CONTINUOUS
 62
    7
 10
-64.456094453494558
 20
-195.43553308103168
 11
-61.308491481297011
 21
-198.58313605322923
  0
LINE
  8
_0-5_細線
  6
CONTINUOUS
 62
    7
 10
-64.215784479737437
 20
-195.11015762983851
 11
-61.062759337479662
 21
-198.26318277209606
  0
LINE
  8
_0-5_細線
  6
CONTINUOUS
 62
    7
 10
-63.975474505980316
 20
-194.7847821786458
 11
-60.817027193662767
 21
-197.94322949096312
  0
LINE
  8
_0-5_細線
  6
CONTINUOUS
 62
    7
 10
-63.735164532225014
 20
-194.45940672745434
 11
-60.571295049847691
 21
-197.623276209832
  0
LINE
  8
_0-5_細線
  6
CONTINUOUS
 62
    7
 10
-63.494854558467893
 20
-194.13403127626174
 11
-60.325562906030797
 21
-197.30332292869883
  0
LINE
  8
_0-5_細線
  6
CONTINUOUS
 62
    7
 10
-63.254544584711226
 20
-193.80865582506834
 11
-60.079830762213902
 21
-196.98336964756567
  0
LINE
  8
_0-5_細線
  6
CONTINUOUS
 62
    7
 10
-63.014234610954105
 20
-193.48328037387517
 11
-59.834098618396553
 21
-196.66341636643273
  0
LINE
  8
_0-5_細線
  6
CONTINUOUS
 62
    7
 10
-62.773924637196984
 20
-193.15790492268258
 11
-59.588366474579658
 21
-196.34346308529967
  0
LINE
  8
_0-5_細線
  6
CONTINUOUS
 62
    7
 10
-62.533614663441682
 20
-192.83252947149145
 11
-59.342634330764128
 21
-196.02350980416844
  0
LINE
  8
_0-5_細線
  6
CONTINUOUS
 62
    7
 10
-62.293304689684561
 20
-192.5071540202984
 11
-59.096902186947233
 21
-195.7035565230355
  0
LINE
  8
_0-5_細線
  6
CONTINUOUS
 62
    7
 10
-62.052994715927895
 20
-192.18177856910535
 11
-58.851170043130338
 21
-195.38360324190234
  0
LINE
  8
_0-5_細線
  6
CONTINUOUS
 62
    7
 10
-61.812684742170774
 20
-191.85640311791218
 11
-58.605437899313443
 21
-195.0636499607694
  0
LINE
  8
_0-5_細線
  6
CONTINUOUS
 62
    7
 10
-61.572374768415017
 20
-191.53102766672117
 11
-58.359705755498368
 21
-194.74369667963805
  0
LINE
  8
_0-5_細線
  6
CONTINUOUS
 62
    7
 10
-61.332064794658351
 20
-191.20565221552812
 11
-58.113973611681473
 21
-194.42374339850488
  0
LINE
  8
_0-5_細線
  6
CONTINUOUS
 62
    7
 10
-61.09175482090123
 20
-190.88027676433495
 11
-57.868241467864124
 21
-194.10379011737206
  0
LINE
  8
_0-5_細線
  6
CONTINUOUS
 62
    7
 10
-60.851444847144563
 20
-190.55490131314201
 11
-57.622509324047229
 21
-193.78383683623923
  0
LINE
  8
_0-5_細線
  6
CONTINUOUS
 62
    7
 10
-48.353995577292977
 20
-203.05235058299326
 11
-46.160106072877539
 21
-205.24624008740892
  0
LINE
  8
_0-5_細線
  6
CONTINUOUS
 62
    7
 10
-60.611134873386987
 20
-190.22952586194884
 11
-57.376777180230334
 21
-193.46388355510618
  0
LINE
  8
_0-5_細線
  6
CONTINUOUS
 62
    7
 10
-48.390491411162117
 20
-202.45016932417406
 11
-45.344774280725147
 21
-205.49588645461114
  0
LINE
  8
_0-5_細線
  6
CONTINUOUS
 62
    7
 10
-60.370824899631685
 20
-189.90415041075772
 11
-57.131045036414804
 21
-193.14393027397483
  0
LINE
  8
_0-5_細線
  6
CONTINUOUS
 62
    7
 10
-48.89366550215064
 20
-201.381309808239
 11
-44.927953441290725
 21
-205.3470218690988
  0
LINE
  8
_0-5_細線
  6
CONTINUOUS
 62
    7
 10
-60.130514925874564
 20
-189.57877495956501
 11
-56.885312892597909
 21
-192.82397699284178
  0
LINE
  8
_0-5_細線
  6
CONTINUOUS
 62
    7
 10
-49.783567609221251
 20
-199.92572227621844
 11
-44.511132601853575
 21
-205.19815728358566
  0
LINE
  8
_0-5_細線
  6
CONTINUOUS
 62
    7
 10
-59.890204952117898
 20
-189.25339950837184
 11
-56.639580748781015
 21
-192.50402371170873
  0
LINE
  8
_0-5_細線
  6
CONTINUOUS
 62
    7
 10
-50.673469716291407
 20
-198.47013474419799
 11
-44.091532847734385
 21
-205.0520716127549
  0
LINE
  8
_0-5_細線
  6
CONTINUOUS
 62
    7
 10
-59.649894978360777
 20
-188.92802405717879
 11
-56.39384860496412
 21
-192.18407043057556
  0
LINE
  8
_0-5_細線
  6
CONTINUOUS
 62
    7
 10
-51.56337182336884
 20
-197.01454721217073
 11
-43.656390213157835
 21
-204.92152882238173
  0
LINE
  8
_0-5_細線
  6
CONTINUOUS
 62
    7
 10
-59.409585004605475
 20
-188.60264860598778
 11
-56.148116461148589
 21
-191.86411714944444
  0
LINE
  8
_0-5_細線
  6
CONTINUOUS
 62
    7
 10
-52.453273930434449
 20
-195.55895968015869
 11
-43.221247578583103
 21
-204.79098603201004
  0
LINE
  8
_0-5_細線
  6
CONTINUOUS
 62
    7
 10
-59.169275030848354
 20
-188.27727315479461
 11
-55.902384317331695
 21
-191.54416386831127
  0
LINE
  8
_0-5_細線
  6
CONTINUOUS
 62
    7
 10
-53.343176037504605
 20
-194.10337214813848
 11
-42.786104944006553
 21
-204.66044324163676
  0
LINE
  8
_0-5_細線
  6
CONTINUOUS
 62
    7
 10
-58.928965057091233
 20
-187.95189770360167
 11
-55.6566521735148
 21
-191.22421058717833
  0
LINE
  8
_0-5_細線
  6
CONTINUOUS
 62
    7
 10
-54.233078144575217
 20
-192.64778461611769
 11
-42.350962309429548
 21
-204.52990045126336
  0
LINE
  8
_0-5_細線
  6
CONTINUOUS
 62
    7
 10
-58.688655083334567
 20
-187.62652225240851
 11
-55.410920029697905
 21
-190.90425730604517
  0
LINE
  8
_0-5_細線
  6
CONTINUOUS
 62
    7
 10
-55.122980251645828
 20
-191.19219708409724
 11
-41.955097196272988
 21
-204.36008013946997
  0
LINE
  8
_0-5_細線
  6
CONTINUOUS
 62
    7
 10
-58.448345109577446
 20
-187.30114680121557
 11
-41.718298646293903
 21
-204.03119326449888
  0
LINE
  8
_0-5_細線
  6
CONTINUOUS
 62
    7
 10
-58.208035135822144
 20
-186.97577135002444
 11
-41.481500096316637
 21
-203.70230638952984
  0
LINE
  8
_0-5_細線
  6
CONTINUOUS
 62
    7
 10
-57.996280243211828
 20
-186.62184081768493
 11
-50.528168012492102
 21
-194.08995304840431
  0
LINE
  8
_0-5_細線
  6
CONTINUOUS
 62
    7
 10
-50.386304588996069
 20
-194.23181647190034
 11
-41.326467807229989
 21
-203.29165325366642
  0
LINE
  8
_0-5_細線
  6
CONTINUOUS
 62
    7
 10
-57.996280243212283
 20
-186.05615539273418
 11
-50.321112776409734
 21
-193.73132285953665
  0
LINE
  8
_0-5_細線
  6
CONTINUOUS
 62
    7
 10
-49.820619164046008
 20
-194.23181647190012
 11
-41.461238118176794
 21
-202.59119751776956
  0
LINE
  8
_0-5_細線
  6
CONTINUOUS
 62
    7
 10
-57.94327534053528
 20
-185.54347487046135
 11
-50.114057540327309
 21
-193.3726926706691
  0
LINE
  8
_0-5_細線
  6
CONTINUOUS
 62
    7
 10
-49.254933739096856
 20
-194.23181647189966
 11
-41.969214232305063
 21
-201.51753597869123
  0
LINE
  8
_0-5_細線
  6
CONTINUOUS
 62
    7
 10
-57.773569713051444
 20
-185.14749507299808
 11
-49.907002304246276
 21
-193.01406248180371
  0
LINE
  8
_0-5_細線
  6
CONTINUOUS
 62
    7
 10
-48.689248314149978
 20
-194.23181647190012
 11
-42.748143319466095
 21
-200.17292146658377
  0
LINE
  8
_0-5_細線
  6
CONTINUOUS
 62
    7
 10
-57.539202886662139
 20
-184.81617647443778
 11
-49.69994706816388
 21
-192.65543229293581
  0
LINE
  8
_0-5_細線
  6
CONTINUOUS
 62
    7
 10
-48.123562889199007
 20
-194.23181647190057
 11
-43.527072406632584
 21
-198.82830695446677
  0
LINE
  8
_0-5_細線
  6
CONTINUOUS
 62
    7
 10
-57.272997980803126
 20
-184.51669595534651
 11
-49.492891832081483
 21
-192.29680210406815
  0
LINE
  8
_0-5_細線
  6
CONTINUOUS
 62
    7
 10
-47.557877464249401
 20
-194.23181647190023
 11
-44.306001493799528
 21
-197.48369244235022
  0
LINE
  8
_0-5_細線
  6
CONTINUOUS
 62
    7
 10
-57.006793074944568
 20
-184.21721543625523
 11
-49.285836595999541
 21
-191.93817191520048
  0
LINE
  8
_0-5_細線
  6
CONTINUOUS
 62
    7
 10
-46.992192039299795
 20
-194.23181647189978
 11
-45.084930580967381
 21
-196.1390779302323
  0
LINE
  8
_0-5_細線
  6
CONTINUOUS
 62
    7
 10
-56.728912238243907
 20
-183.9294108480097
 11
-49.078781359918054
 21
-191.57954172633509
  0
LINE
  8
_0-5_細線
  6
CONTINUOUS
 62
    7
 10
-46.426506614352917
 20
-194.23181647190012
 11
-45.863859668134779
 21
-194.79446341811837
  0
LINE
  8
_0-5_細線
  6
CONTINUOUS
 62
    7
 10
-56.497495473491568
 20
-183.59514218781197
 11
-48.871726123836112
 21
-191.2209115374672
  0
LINE
  8
_0-5_細線
  6
CONTINUOUS
 62
    7
 10
-56.198990246194541
 20
-183.32796199015849
 11
-48.664670887753715
 21
-190.86228134859954
  0
LINE
  8
_0-5_細線
  6
CONTINUOUS
 62
    7
 10
-55.699856047709915
 20
-183.2614107636935
 11
-48.457615651671318
 21
-190.5036511597321
  0
LINE
  8
_0-5_細線
  6
CONTINUOUS
 62
    7
 10
-55.221822221985263
 20
-183.17375916446764
 11
-49.158106661644894
 21
-189.23747472480824
  0
LINE
  8
_0-5_細線
  6
CONTINUOUS
 62
    7
 10
-54.747376381707824
 20
-183.08251957979888
 11
-50.012920192681491
 21
-187.8169757688251
  0
LINE
  8
_0-5_細線
  6
CONTINUOUS
 62
    7
 10
-54.225291301081057
 20
-183.03891923547536
 11
-50.86773372371627
 21
-186.39647681283992
  0
LINE
  8
_0-5_細線
  6
CONTINUOUS
 62
    7
 10
-53.471327833745278
 20
-183.22719727786108
 11
-51.869841326281772
 21
-184.82868378532504
  0
LINE
  8
_0-5_細線
  6
CONTINUOUS
 62
    7
 10
-39.948109801544348
 20
-188.11648168871312
 11
-39.948109801544348
 21
-182.26843439797364
  0
LINE
  8
_0-5_細線
  6
CONTINUOUS
 62
    7
 10
-40.348109801544439
 20
-188.03271395078542
 11
-40.348109801544439
 21
-182.35220213590134
  0
LINE
  8
_0-5_細線
  6
CONTINUOUS
 62
    7
 10
-40.74810980154453
 20
-187.8876747249588
 11
-40.74810980154453
 21
-182.49724136172796
  0
LINE
  8
_0-5_細線
  6
CONTINUOUS
 62
    7
 10
-41.148109801544166
 20
-187.67062920408631
 11
-41.148109801544166
 21
-182.71428688260045
  0
LINE
  8
_0-5_細線
  6
CONTINUOUS
 62
    7
 10
-41.548109801544257
 20
-187.36005386429593
 11
-41.548109801544257
 21
-183.02486222239082
  0
LINE
  8
_0-5_細線
  6
CONTINUOUS
 62
    7
 10
-41.948109801544348
 20
-186.90582052224175
 11
-41.948109801544348
 21
-183.47909556444489
  0
LINE
  8
_0-5_細線
  6
CONTINUOUS
 62
    7
 10
-42.348109801543984
 20
-186.11590285770473
 11
-42.348109801543984
 21
-184.26901322898181
  0
LINE
  8
_0-5_細線
  6
CONTINUOUS
 62
    7
 10
-50.566192021928515
 20
-194.15581256465697
 11
-42.053953774540702
 21
-194.15581256465697
  0
LINE
  8
_0-5_細線
  6
CONTINUOUS
 62
    7
 10
-50.335251914253064
 20
-193.75581256465699
 11
-42.284893882216608
 21
-193.75581256465699
  0
LINE
  8
_0-5_細線
  6
CONTINUOUS
 62
    7
 10
-50.104311806577158
 20
-193.35581256465701
 11
-42.515833989892514
 21
-193.35581256465701
  0
LINE
  8
_0-5_細線
  6
CONTINUOUS
 62
    7
 10
-49.873371698901252
 20
-192.95581256465692
 11
-42.746774097568419
 21
-192.95581256465692
  0
LINE
  8
_0-5_細線
  6
CONTINUOUS
 62
    7
 10
-49.642431591225346
 20
-192.55581256465695
 11
-42.977714205244325
 21
-192.55581256465695
  0
LINE
  8
_0-5_細線
  6
CONTINUOUS
 62
    7
 10
-49.41149148354944
 20
-192.15581256465697
 11
-43.208654312920231
 21
-192.15581256465697
  0
LINE
  8
_0-5_細線
  6
CONTINUOUS
 62
    7
 10
-49.180551375873534
 20
-191.75581256465699
 11
-43.439594420596137
 21
-191.75581256465699
  0
LINE
  8
_0-5_細線
  6
CONTINUOUS
 62
    7
 10
-48.949611268197629
 20
-191.3558125646569
 11
-43.670534528272043
 21
-191.3558125646569
  0
LINE
  8
_0-5_細線
  6
CONTINUOUS
 62
    7
 10
-48.718671160521723
 20
-190.95581256465692
 11
-43.901474635947494
 21
-190.95581256465692
  0
LINE
  8
_0-5_細線
  6
CONTINUOUS
 62
    7
 10
-48.487731052845817
 20
-190.55581256465695
 11
-44.1324147436234
 21
-190.55581256465695
  0
LINE
  8
_0-5_細線
  6
CONTINUOUS
 62
    7
 10
-48.256790945170366
 20
-190.15581256465697
 11
-44.363354851299306
 21
-190.15581256465697
  0
LINE
  8
_0-5_細線
  6
CONTINUOUS
 62
    7
 10
-48.02585083749446
 20
-189.75581256465699
 11
-44.594294958975212
 21
-189.75581256465699
  0
LINE
  8
_0-5_細線
  6
CONTINUOUS
 62
    7
 10
-47.794910729818554
 20
-189.3558125646569
 11
-44.825235066651118
 21
-189.3558125646569
  0
LINE
  8
_0-5_細線
  6
CONTINUOUS
 62
    7
 10
-47.563970622142648
 20
-188.95581256465692
 11
-45.056175174327024
 21
-188.95581256465692
  0
LINE
  8
_0-5_細線
  6
CONTINUOUS
 62
    7
 10
-47.333030514466742
 20
-188.55581256465695
 11
-45.287115282002929
 21
-188.55581256465695
  0
LINE
  8
_0-5_細線
  6
CONTINUOUS
 62
    7
 10
-47.102090406790836
 20
-188.15581256465697
 11
-45.518055389678381
 21
-188.15581256465697
  0
LINE
  8
_0-5_細線
  6
CONTINUOUS
 62
    7
 10
-46.87115029911493
 20
-187.75581256465699
 11
-45.748995497354741
 21
-187.75581256465699
  0
LINE
  8
_0-5_細線
  6
CONTINUOUS
 62
    7
 10
-46.640210191439024
 20
-187.3558125646569
 11
-45.979935605030647
 21
-187.3558125646569
  0
LINE
  8
_0-5_細線
  6
CONTINUOUS
 62
    7
 10
-46.409270083763118
 20
-186.95581256465692
 11
-46.210875712706098
 21
-186.95581256465692
  0
LINE
  8
_0-5_細線
  6
CONTINUOUS
 62
    7
 10
-42.348109801544439
 20
-194.23181647189966
 11
-42.348109801544439
 21
-193.64631938053429
  0
LINE
  8
_0-5_細線
  6
CONTINUOUS
 62
    7
 10
-42.74810980154453
 20
-194.23181647189966
 11
-42.74810980154453
 21
-192.9534990575068
  0
LINE
  8
_0-5_細線
  6
CONTINUOUS
 62
    7
 10
-43.148109801544166
 20
-194.23181647189966
 11
-43.148109801544166
 21
-192.2606787344792
  0
LINE
  8
_0-5_細線
  6
CONTINUOUS
 62
    7
 10
-43.548109801544257
 20
-194.23181647189966
 11
-43.548109801544257
 21
-191.56785841145182
  0
LINE
  8
_0-5_細線
  6
CONTINUOUS
 62
    7
 10
-43.948109801544348
 20
-194.23181647189966
 11
-43.948109801544348
 21
-190.87503808842422
  0
LINE
  8
_0-5_細線
  6
CONTINUOUS
 62
    7
 10
-44.348109801544439
 20
-194.23181647189966
 11
-44.348109801544439
 21
-190.18221776539673
  0
LINE
  8
_0-5_細線
  6
CONTINUOUS
 62
    7
 10
-44.74810980154453
 20
-194.23181647189966
 11
-44.74810980154453
 21
-189.48939744236924
  0
LINE
  8
_0-5_細線
  6
CONTINUOUS
 62
    7
 10
-45.148109801544166
 20
-194.23181647189966
 11
-45.148109801544166
 21
-188.79657711934163
  0
LINE
  8
_0-5_細線
  6
CONTINUOUS
 62
    7
 10
-45.548109801544257
 20
-194.23181647189966
 11
-45.548109801544257
 21
-188.10375679631414
  0
LINE
  8
_0-5_細線
  6
CONTINUOUS
 62
    7
 10
-45.948109801544348
 20
-194.23181647189966
 11
-45.948109801544348
 21
-187.41093647328665
  0
LINE
  8
_0-5_細線
  6
CONTINUOUS
 62
    7
 10
-46.348109801544439
 20
-194.23181647189966
 11
-46.348109801544439
 21
-186.84987984844832
  0
LINE
  8
_0-5_細線
  6
CONTINUOUS
 62
    7
 10
-46.74810980154453
 20
-194.23181647189966
 11
-46.74810980154453
 21
-187.54270017147581
  0
LINE
  8
_0-5_細線
  6
CONTINUOUS
 62
    7
 10
-47.148109801544194
 20
-194.23181647189966
 11
-47.148109801544194
 21
-188.23552049450342
  0
LINE
  8
_0-5_細線
  6
CONTINUOUS
 62
    7
 10
-47.548109801544257
 20
-194.23181647189966
 11
-47.548109801544257
 21
-188.92834081753091
  0
LINE
  8
_0-5_細線
  6
CONTINUOUS
 62
    7
 10
-47.948109801544348
 20
-194.23181647189966
 11
-47.948109801544348
 21
-189.62116114055851
  0
LINE
  8
_0-5_細線
  6
CONTINUOUS
 62
    7
 10
-48.348109801544439
 20
-194.23181647189966
 11
-48.348109801544439
 21
-190.313981463586
  0
LINE
  8
_0-5_細線
  6
CONTINUOUS
 62
    7
 10
-48.74810980154453
 20
-194.23181647189966
 11
-48.74810980154453
 21
-191.00680178661361
  0
LINE
  8
_0-5_細線
  6
CONTINUOUS
 62
    7
 10
-49.148109801544166
 20
-194.23181647189966
 11
-49.148109801544166
 21
-191.6996221096411
  0
LINE
  8
_0-5_細線
  6
CONTINUOUS
 62
    7
 10
-49.548109801544257
 20
-194.23181647189966
 11
-49.548109801544257
 21
-192.39244243266859
  0
LINE
  8
_0-5_細線
  6
CONTINUOUS
 62
    7
 10
-49.948109801544348
 20
-194.23181647189966
 11
-49.948109801544348
 21
-193.08526275569619
  0
LINE
  8
_0-5_細線
  6
CONTINUOUS
 62
    7
 10
-50.348109801544439
 20
-194.23181647189966
 11
-50.348109801544439
 21
-193.77808307872368
  0
LINE
  8
_0-4_図面枠
  6
CONTINUOUS
 62
    6
 10
211.65381481224821
 20
-189.8587960661817
 11
211.65381481224821
 21
-212.35879606393161
  0
LINE
  8
_0-4_図面枠
  6
CONTINUOUS
 62
    6
 10
241.65381481224821
 20
-189.8587960661817
 11
241.65381481224821
 21
-212.35879606393161
  0
LINE
  8
_0-4_図面枠
  6
CONTINUOUS
 62
    6
 10
301.65381481224779
 20
-195.8587960661817
 11
171.65381481224821
 21
-195.8587960661817
  0
LINE
  8
_0-4_図面枠
  6
CONTINUOUS
 62
    6
 10
261.65381481224779
 20
-176.35879606753184
 11
261.65381481224779
 21
-212.35879606393161
  0
LINE
  8
_0-4_図面枠
  6
CONTINUOUS
 62
    6
 10
281.65381481224767
 20
-176.35879606753184
 11
281.65381481224767
 21
-212.35879606393161
  0
LINE
  8
_0-4_図面枠
  6
CONTINUOUS
 62
    6
 10
301.65381481224779
 20
-183.10879606685677
 11
281.65381481224767
 21
-183.10879606685677
  0
LINE
  8
_0-4_図面枠
  6
CONTINUOUS
 62
    6
 10
301.65381481224779
 20
-189.8587960661817
 11
171.65381481224821
 21
-189.8587960661817
  0
CIRCLE
  8
_0-6__0-0_
  6
CONTINUOUS
 62
    2
 10
266.65381481224767
 20
-183.10879606685677
 40
4
  0
CIRCLE
  8
_0-6__0-0_
  6
CONTINUOUS
 62
    2
 10
266.65381481224767
 20
-183.10879606685677
 40
2
  0
LINE
  8
_0-2_中心線
  6
CENTER
 62
    1
 10
266.65381481224767
 20
-178.10879606685677
 11
266.65381481224767
 21
-188.10879606685677
  0
LINE
  8
_0-6__0-0_
  6
CONTINUOUS
 62
    2
 10
272.65381481224767
 20
-181.10879606685677
 11
279.65381481224767
 21
-179.10879606685677
  0
LINE
  8
_0-6__0-0_
  6
CONTINUOUS
 62
    2
 10
279.65381481224767
 20
-179.10879606685677
 11
279.65381481224767
 21
-187.10879606685677
  0
LINE
  8
_0-6__0-0_
  6
CONTINUOUS
 62
    2
 10
272.65381481224767
 20
-185.10879606685677
 11
279.65381481224767
 21
-187.10879606685677
  0
LINE
  8
_0-6__0-0_
  6
CONTINUOUS
 62
    2
 10
272.65381481224767
 20
-181.10879606685677
 11
272.65381481224767
 21
-185.10879606685677
  0
LINE
  8
_0-2_中心線
  6
CENTER
 62
    1
 10
261.65381481224779
 20
-183.10879606685677
 11
280.65381481224779
 21
-183.10879606685677
  0
LINE
  8
_0-4_図面枠
  6
CONTINUOUS
 62
    6
 10
171.65381481224821
 20
-194.35879606573161
 11
36.760700910365415
 21
-194.35879606573161
  0
LINE
  8
_0-4_図面枠
  6
CONTINUOUS
 62
    6
 10
36.760700910365415
 20
-212.35879606393161
 11
36.760700910365415
 21
-176.35879606753184
  0
TEXT
  8
_0-7_文字
 62
    7
 10
38.760700910365415
 20
-181.1865033236059
 40
4
 41
1
 50
0
  1
品番
  0
TEXT
  8
_0-7_文字
 62
    7
 10
38.760700910365415
 20
-199.17878525898578
 40
4
 41
1
 50
0
  1
名称
  0
TEXT
  8
_0-7_文字
 62
    7
 10
267.33528961123341
 20
-194.96331008259102
 40
4
 41
1
 50
0
  1
検図
  0
LINE
  8
_0-4_図面枠
  6
CONTINUOUS
 62
    6
 10
-83.239299089634557
 20
-176.35879606753184
 11
-83.239299089634557
 21
-212.35879606393161
  0
TEXT
  8
_0-7_文字
 62
    7
 10
287.38714814558114
 20
-181.73379606719419
 40
4
 41
1
 50
0
  1
単位
  0
TEXT
  8
_0-7_文字
 62
    7
 10
285.93952909796201
 20
-187.81712939985255
 40
4
 41
1
 50
0
  1
mm
  0
TEXT
  8
_0-7_文字
 62
    7
 10
216.06333862177203
 20
-206.10879606505665
 40
4
 41
1
 50
0
  1
S=1：2
  0
TEXT
  8
_0-7_文字
 62
    7
 10
178.3204814789149
 20
-206.10879606505665
 40
4
 41
1
 50
0
  1
08.04.28
  0
TEXT
  8
_0-7_文字
 62
    7
 10
247.52048147891443
 20
-206.10879606505665
 40
4
 41
1
 50
0
  1
竹内
  0
TEXT
  8
_0-7_文字
 62
    7
 10
187.1204814789148
 20
-194.8587960661817
 40
4
 41
1
 50
0
  1
日付
  0
TEXT
  8
_0-7_文字
 62
    7
 10
217.51095766939105
 20
-194.8587960661817
 40
4
 41
1
 50
0
  1
SCALE
  0
TEXT
  8
_0-7_文字
 62
    7
 10
247.52048147891443
 20
-194.8587960661817
 40
4
 41
1
 50
0
  1
製図
  0
TEXT
  8
_0-7_文字
 62
    7
 10
73.540591194639916
 20
-189.35879606663167
 40
8
 41
1
 50
0
  1
GS-33321
  0
TEXT
  8
_0-7_文字
 62
    7
 10
91.14059119463991
 20
-206.82546273149825
 40
8
 41
1
 50
0
  1
フック
  0
LINE
  8
_0-4_図面枠
  6
CONTINUOUS
 62
    6
 10
-83.239299089634557
 20
341.97096037084515
 11
-83.239299089634557
 21
-212.35879606393161
  0
ENDSEC
  0
EOF
