  0
SECTION
  2
HEADER
  9
$ACADVER
  1
AC1009
  9
$INSBASE
 10
0
 20
0
 30
0
  9
$EXTMIN
 10
0
 20
0
  9
$EXTMAX
 10
840
 20
594
  9
$LIMMIN
 10
0
 20
0
  9
$LIMMAX
 10
840
 20
594
  9
$LTSCALE
 40
2
  0
ENDSEC
  0
SECTION
  2
TABLES
  0
TABLE
  2
LTYPE
 70
     9
  0
LTYPE
  2
CONTINUOUS
 70
    64
  3
実線
 72
    65
 73
     0
 40
0.0
  0
LTYPE
  2
DASHED1
 70
    64
  3
--  --  --  --  --  --  --  --  
 72
    65
 73
     2
 40
2.5
 49
1.25
 49
-1.25
  0
LTYPE
  2
DASHED2
 70
    64
  3
----    ----    ----    ----    
 72
    65
 73
     2
 40
5.0
 49
2.5
 49
-2.5
  0
LTYPE
  2
DASHED3
 70
    64
  3
------  ------  ------  ------  
 72
    65
 73
     2
 40
5.0
 49
3.75
 49
-1.25
  0
LTYPE
  2
CENTER1
 70
    64
  3
----- - ----- - ----- - ----- - 
 72
    65
 73
     4
 40
10.0
 49
6.25
 49
-1.25
 49
1.25
 49
-1.25
  0
LTYPE
  2
CENTER2
 70
    64
  3
----------  --  ----------  --  
 72
    65
 73
     4
 40
20.0
 49
12.5
 49
-2.5
 49
2.5
 49
-2.5
  0
LTYPE
  2
PHANTOM1
 70
    64
  3
--- - - --- - - --- - - --- - - 
 72
    65
 73
     6
 40
10.0
 49
3.25
 49
-1.25
 49
1.25
 49
-1.25
 49
1.25
 49
-1.25
  0
LTYPE
  2
PHANTOM2
 70
    64
  3
--------  -  -  --------  -  -  
 72
    65
 73
     6
 40
20.0
 49
10.0
 49
-2.5
 49
1.25
 49
-2.5
 49
1.25
 49
-2.5
  0
LTYPE
  2
DOT
 70
    64
  3
-   -   -   -   -   -   -   -   
 72
    65
 73
     2
 40
2.5
 49
0.625
 49
-1.875
  0
LTYPE
  2
DUMMY
 70
    64
  3
ダミー
 72
    65
 73
     0
 40
0.0
  0
LTYPE
  2
RAND1
 70
    64
  3
ランダム線1
 72
    65
 73
     4
 40
10.0
 49
1.0
 49
-2.0
 49
3.0
 49
-4.0
  0
LTYPE
  2
RAND2
 70
    64
  3
ランダム線2
 72
    65
 73
     4
 40
14.0
 49
2.0
 49
-3.0
 49
4.0
 49
-5.0
  0
LTYPE
  2
RAND3
 70
    64
  3
ランダム線3
 72
    65
 73
     4
 40
18.0
 49
3.0
 49
-4.0
 49
5.0
 49
-6.0
  0
LTYPE
  2
RAND4
 70
    64
  3
ランダム線4
 72
    65
 73
     4
 40
22.0
 49
4.0
 49
-5.0
 49
6.0
 49
-7.0
  0
LTYPE
  2
RAND5
 70
    64
  3
ランダム線5
 72
    65
 73
     4
 40
26.0
 49
5.0
 49
-6.0
 49
7.0
 49
-8.0
  0
LTYPE
  2
LONG1
 70
    64
  3
----------  --  ----------  --  
 72
    65
 73
     4
 40
40.0
 49
32.5
 49
-2.5
 49
2.5
 49
-2.5
  0
LTYPE
  2
LONG2
 70
    64
  3
--------  -  -  --------  -  -  
 72
    65
 73
     6
 40
40.0
 49
30.0
 49
-2.5
 49
1.25
 49
-2.5
 49
1.25
 49
-2.5
  0
LTYPE
  2
LONG3
 70
    64
  3
+++++++++++++++..+++++++++++++++
 72
    65
 73
     2
 40
40.0
 49
37.5
 49
-2.5
  0
LTYPE
  2
LONG4
 70
    64
  3
+++++++++++++++..+++++++++++++++
 72
    65
 73
     2
 40
80.0
 49
75.0
 49
-5.0
  0
LTYPE
  2
LONG5
 70
    64
  3
----------  --  ----------  --  
 72
    65
 73
     4
 40
60.0
 49
37.5
 49
-7.5
 49
7.5
 49
-7.5
  0
LTYPE
  2
dashed
 70
   64
  3
-------   -------------   ------
 72
   65
 73
    2
 40
7.5
 49
6
 49
-1.5
  0
LTYPE
  2
dashed_spaced
 70
   64
  3
----        --------        ----
 72
   65
 73
    2
 40
12
 49
6
 49
-6
  0
LTYPE
  2
long_dashed_dotted
 70
   64
  3
------------- --- --------------
 72
   65
 73
    4
 40
15.25
 49
12
 49
-1.5
 49
0.25
 49
-1.5
  0
LTYPE
  2
long_dashed_double-dotted
 70
   64
  3
----------- --- --- ------------
 72
   65
 73
    6
 40
17
 49
12
 49
-1.5
 49
0.25
 49
-1.5
 49
0.25
 49
-1.5
  0
LTYPE
  2
long_dashed_triplicate-dotted
 70
   64
  3
--------- --- --- --- ----------
 72
   65
 73
    8
 40
18.75
 49
12
 49
-1.5
 49
0.25
 49
-1.5
 49
0.25
 49
-1.5
 49
0.25
 49
-1.5
  0
LTYPE
  2
dotted
 70
   64
  3
   -       -       -       -    
 72
   65
 73
    2
 40
1.75
 49
0.25
 49
-1.5
  0
LTYPE
  2
chain
 70
   64
  3
-------------- -- --------------
 72
   65
 73
    4
 40
18.5
 49
12
 49
-1.5
 49
3.5
 49
-1.5
  0
LTYPE
  2
chain_double_dash
 70
   64
  3
------------ -- -- -------------
 72
   65
 73
    6
 40
23.5
 49
12
 49
-1.5
 49
3.5
 49
-1.5
 49
3.5
 49
-1.5
  0
LTYPE
  2
dashed_dotted
 70
   64
  3
-----------     -     ----------
 72
   65
 73
    4
 40
9.25
 49
6
 49
-1.5
 49
0.25
 49
-1.5
  0
LTYPE
  2
double-dashed_dotted
 70
   64
  3
------   -----------   -   -----
 72
   65
 73
    6
 40
16.75
 49
6
 49
-1.5
 49
6
 49
-1.5
 49
0.25
 49
-1.5
  0
LTYPE
  2
dashed_double-dotted
 70
   64
  3
---------    -    -    ---------
 72
   65
 73
    6
 40
11
 49
6
 49
-1.5
 49
0.25
 49
-1.5
 49
0.25
 49
-1.5
  0
LTYPE
  2
double-dashed_double-dotted
 70
   64
  3
-----   ---------   -   -   ----
 72
   65
 73
    8
 40
18.5
 49
6
 49
-1.5
 49
6
 49
-1.5
 49
0.25
 49
-1.5
 49
0.25
 49
-1.5
  0
LTYPE
  2
dashed_triplicate-dotted
 70
   64
  3
-------    -    -    -    ------
 72
   65
 73
    8
 40
12.75
 49
6
 49
-1.5
 49
0.25
 49
-1.5
 49
0.25
 49
-1.5
 49
0.25
 49
-1.5
  0
LTYPE
  2
double-dashed_triplicate-dotted
 70
   64
  3
-----  ---------  -  -  -  -----
 72
   65
 73
   10
 40
20.25
 49
6
 49
-1.5
 49
6
 49
-1.5
 49
0.25
 49
-1.5
 49
0.25
 49
-1.5
 49
0.25
 49
-1.5
  0
LTYPE
  2
undefined
 70
   64
  3
--------------------------------
 72
   65
 73
    0
 40
0
  0
LTYPE
  2
CENTER
 70
   64
  3
----------    ----    ----------
 72
   65
 73
    4
 40
50.799999999999983
 49
31.75
 49
-6.3499999999999979
 49
6.3499999999999979
 49
-6.3499999999999979
  0
LTYPE
  2
HIDDEN
 70
   64
  3
------     -----------     -----
 72
   65
 73
    2
 40
9.524999999999995
 49
6.3499999999999979
 49
-3.174999999999998
  0
LTYPE
  2
CENTER2_19
 70
   64
  3
----------    ----    ----------
 72
   65
 73
    4
 40
28.574999999999996
 49
19.050000000000001
 49
-3.1749999999999989
 49
3.1749999999999989
 49
-3.1749999999999989
  0
LTYPE
  2
DASHED
 70
   64
  3
------     -----------     -----
 72
   65
 73
    2
 40
19.049999999999997
 49
12.699999999999999
 49
-6.3499999999999988
  0
ENDTAB
  0
TABLE
  2
STYLE
  5
3
100
AcDbSymbolTable
 70
     1
  0
STYLE
  5
10
100
AcDbSymbolTableRecord
100
AcDbTextStyleTableRecord
  2
STANDARD
 70
     0
 40
0.0
 41
1.0
 50
0.0
 71
     0
 42
0.2
  3
txt
  4
bigfont.shx
  0
STYLE
  5
26
100
AcDbSymbolTableRecord
100
AcDbTextStyleTableRecord
  2
TATEGAKI
 70
    68
 40
0.0
 41
1.0
 50
0.0
 71
     0
 42
1.0
  3
txt
  4
bigfont.shx
  0
ENDTAB
  0
TABLE
  2
LAYER
 70
    8
  0
LAYER
  2
_0-1_0
 70
   64
 62
    7
  6
CONTINUOUS
  0
LAYER
  2
_0-2_寸法線
 70
   64
 62
    7
  6
CONTINUOUS
  0
LAYER
  2
_0-4_図面枠
 70
   64
 62
    7
  6
CONTINUOUS
  0
LAYER
  2
_0-5_細線
 70
   64
 62
    7
  6
CONTINUOUS
  0
LAYER
  2
_0-6__0-0_
 70
   64
 62
    7
  6
CONTINUOUS
  0
LAYER
  2
_0-7_中心線
 70
   64
 62
    7
  6
CONTINUOUS
  0
LAYER
  2
_0-8_文字
 70
   64
 62
    7
  6
CONTINUOUS
  0
LAYER
  2
ADD_LINE
 70
   64
 62
    7
  6
CONTINUOUS
  0
ENDTAB
  0
ENDSEC
  0
SECTION
  2
BLOCKS
  0
ENDSEC
  0
SECTION
  2
ENTITIES
  0
LINE
  8
_0-1_0
  6
CONTINUOUS
 62
    2
 10
216.04424537802055
 20
179.05706331535686
 11
216.04424537802055
 21
235.25002166511177
  0
LINE
  8
_0-1_0
  6
CONTINUOUS
 62
    2
 10
283.64466956528742
 20
179.05706331535686
 11
283.64466956528742
 21
235.25002166511177
  0
LINE
  8
_0-1_0
  6
CONTINUOUS
 62
    2
 10
231.83570446812053
 20
179.05706331535686
 11
216.04424537802055
 21
179.05706331535686
  0
LINE
  8
_0-1_0
  6
CONTINUOUS
 62
    2
 10
267.85321047518767
 20
179.05706331535686
 11
283.64466956528742
 21
179.05706331535686
  0
LINE
  8
_0-1_0
  6
CONTINUOUS
 62
    2
 10
216.04424537802055
 20
235.25002166511177
 11
283.64466956528742
 21
235.25002166511177
  0
LINE
  8
_0-1_0
  6
CONTINUOUS
 62
    2
 10
550.93712187019867
 20
446.90726118801172
 11
550.93712187019867
 21
483.99656915658784
  0
LINE
  8
_0-1_0
  6
CONTINUOUS
 62
    2
 10
605.13529059583573
 20
453.95306517229983
 11
605.13529059583573
 21
446.90726118801172
  0
LINE
  8
_0-1_0
  6
CONTINUOUS
 62
    2
 10
605.13529059583573
 20
476.95076517229973
 11
605.13529059583573
 21
483.99656915658784
  0
LINE
  8
_0-1_0
  6
CONTINUOUS
 62
    2
 10
605.13529059583573
 20
446.90726118801172
 11
550.93712187019867
 21
446.90726118801172
  0
LINE
  8
_0-1_0
  6
CONTINUOUS
 62
    2
 10
605.13529059583573
 20
483.99656915658784
 11
550.93712187019867
 21
483.99656915658784
  0
LINE
  8
_0-1_0
  6
CONTINUOUS
 62
    7
 10
567.64932164793038
 20
468.76874123591574
 11
566.81013431111751
 21
468.23393253607367
  0
LINE
  8
_0-1_0
  6
CONTINUOUS
 62
    7
 10
567.64932164793038
 20
468.66875123591581
 11
566.97375523647952
 21
468.23821710090783
  0
LINE
  8
_0-1_0
  6
CONTINUOUS
 62
    7
 10
567.64932164793038
 20
467.55139708614183
 11
566.34758559819068
 21
467.07243421721876
  0
LINE
  8
_0-1_0
  6
CONTINUOUS
 62
    7
 10
567.64932164793038
 20
467.37820932604382
 11
566.34758559819068
 21
466.89924645712074
  0
LINE
  8
_0-1_0
  6
CONTINUOUS
 62
    7
 10
674.1283905958353
 20
341.5875974492028
 11
666.12919059583567
 21
341.5875974492028
  0
LINE
  8
_0-1_0
  6
CONTINUOUS
 62
    7
 10
557.9400105958357
 20
464.96323456373284
 11
557.9400105958357
 21
466.54053578086678
  0
LINE
  8
_0-1_0
  6
CONTINUOUS
 62
    9
 10
559.40059909449928
 20
463.46386331645874
 11
559.40059909449928
 21
468.03990702814076
  0
LINE
  8
_0-1_0
  6
CONTINUOUS
 62
    7
 10
562.9395105958356
 20
468.13246964428686
 11
562.9395105958356
 21
463.37130070031264
  0
LINE
  8
_0-1_0
  6
CONTINUOUS
 62
    7
 10
563.33064430734078
 20
463.36105896398271
 11
563.33064430734078
 21
468.1427113806169
  0
LINE
  8
_0-1_0
  6
CONTINUOUS
 62
    7
 10
567.64932164793038
 20
468.76874123591574
 11
567.64932164793038
 21
468.66875123591581
  0
LINE
  8
_0-1_0
  6
CONTINUOUS
 62
    7
 10
567.64932164793038
 20
467.55139708614183
 11
567.64932164793038
 21
467.37820932604382
  0
LINE
  8
_0-1_0
  6
CONTINUOUS
 62
    7
 10
583.52558791737329
 20
464.63505622181867
 11
583.53377583486338
 21
464.65199517229985
  0
LINE
  8
_0-1_0
  6
CONTINUOUS
 62
    7
 10
568.9389105958353
 20
464.1841089077268
 11
568.9389105958353
 21
464.78887434452884
  0
LINE
  8
_0-1_0
  6
CONTINUOUS
 62
    7
 10
568.9389105958353
 20
468.26507573719982
 11
568.9389105958353
 21
468.28967650505888
  0
LINE
  8
_0-1_0
  6
CONTINUOUS
 62
    9
 10
674.1283905958353
 20
362.95298206433881
 11
666.12919059583567
 21
362.95298206433881
  0
LINE
  8
_0-1_0
  6
CONTINUOUS
 62
    7
 10
599.4309553173216
 20
464.43868141550593
 11
599.47514678409664
 21
464.53269451840674
  0
LINE
  8
_0-1_0
  6
CONTINUOUS
 62
    7
 10
599.9379329226723
 20
467.05917535535866
 11
599.89589733271259
 21
466.96975048055879
  0
LINE
  8
_0-1_0
  6
CONTINUOUS
 62
    7
 10
601.93773285116458
 20
467.05917520173773
 11
601.89569733271219
 21
466.96975048055879
  0
LINE
  8
_0-1_0
  6
CONTINUOUS
 62
    7
 10
603.91980337398638
 20
467.02131751909678
 11
603.87147138857756
 21
466.91918112709095
  0
LINE
  8
_0-1_0
  6
CONTINUOUS
 62
    7
 10
599.89589733271259
 20
466.96975048055879
 11
599.84812847462138
 21
466.86962922035286
  0
LINE
  8
_0-1_0
  6
CONTINUOUS
 62
    7
 10
599.84812847462138
 20
466.86962922035286
 11
599.83949601643872
 21
466.85177517229965
  0
LINE
  8
_0-1_0
  6
CONTINUOUS
 62
    7
 10
599.47514678409664
 20
464.53269451840674
 11
599.52290362005635
 21
464.63281305585485
  0
LINE
  8
_0-1_0
  6
CONTINUOUS
 62
    7
 10
599.52290362005635
 20
464.63281305585485
 11
599.53217583486378
 21
464.65199517229985
  0
LINE
  8
_0-1_0
  6
CONTINUOUS
 62
    7
 10
601.89569733271219
 20
466.96975048055879
 11
601.84792847462131
 21
466.86962922035286
  0
LINE
  8
_0-1_0
  6
CONTINUOUS
 62
    7
 10
601.84792847462131
 20
466.86962922035286
 11
601.83929601643831
 21
466.85177517229965
  0
LINE
  8
_0-1_0
  6
CONTINUOUS
 62
    7
 10
601.47494678409669
 20
464.53269451840674
 11
601.52270362005629
 21
464.63281305585485
  0
LINE
  8
_0-1_0
  6
CONTINUOUS
 62
    7
 10
601.52270362005629
 20
464.63281305585485
 11
601.53197583486337
 21
464.65199517229985
  0
LINE
  8
_0-1_0
  6
CONTINUOUS
 62
    7
 10
603.87147138857756
 20
466.91918112709095
 11
603.83909601643848
 21
466.85177517229965
  0
LINE
  8
_0-1_0
  6
CONTINUOUS
 62
    7
 10
584.53501092800764
 20
468.76874123591574
 11
584.53501092800764
 21
468.66875123591581
  0
LINE
  8
_0-1_0
  6
CONTINUOUS
 62
    7
 10
584.53501092800764
 20
467.55139708614183
 11
584.53501092800764
 21
467.37820932604382
  0
LINE
  8
_0-1_0
  6
CONTINUOUS
 62
    7
 10
586.57849093411562
 20
462.75218517229973
 11
586.57849093411562
 21
468.75158517229988
  0
LINE
  8
_0-1_0
  6
CONTINUOUS
 62
    7
 10
603.9375327478416
 20
467.05917498115366
 11
603.91980337398638
 21
467.02131751909678
  0
LINE
  8
_0-1_0
  6
CONTINUOUS
 62
    7
 10
603.47474678409628
 20
464.53269451840674
 11
603.52250362005645
 21
464.63281305585485
  0
LINE
  8
_0-1_0
  6
CONTINUOUS
 62
    7
 10
603.52250362005645
 20
464.63281305585485
 11
603.53177583486342
 21
464.65199517229985
  0
LINE
  8
_0-1_0
  6
CONTINUOUS
 62
    7
 10
596.9361105958352
 20
469.65149517229963
 11
596.9361105958352
 21
461.85227517229987
  0
LINE
  8
_0-1_0
  6
CONTINUOUS
 62
    7
 10
597.93601059583546
 20
462.80218017229981
 11
597.93601059583546
 21
468.7015901722998
  0
LINE
  8
_0-1_0
  6
CONTINUOUS
 62
    7
 10
605.13529059583573
 20
453.95306517229983
 11
605.13529059583573
 21
476.95076517229973
  0
LINE
  8
_0-1_0
  6
CONTINUOUS
 62
    9
 10
605.63524059583551
 20
453.45311517229993
 11
605.63524059583551
 21
477.45071517229974
  0
LINE
  8
_0-1_0
  6
CONTINUOUS
 62
    7
 10
606.63514059583531
 20
476.95076517229973
 11
606.63514059583531
 21
453.95306517229983
  0
LINE
  8
_0-1_0
  6
CONTINUOUS
 62
    7
 10
582.83184391568159
 20
464.67136075645681
 11
582.83943388206364
 21
464.65567229030864
  0
LINE
  8
_0-1_0
  6
CONTINUOUS
 62
    7
 10
584.84099601643811
 20
464.65199517229985
 11
584.86848330501027
 21
464.59479073967884
  0
LINE
  8
_0-1_0
  6
CONTINUOUS
 62
    7
 10
598.74182888806865
 20
464.85022810156977
 11
598.77865098579343
 21
464.77665058005766
  0
LINE
  8
_0-1_0
  6
CONTINUOUS
 62
    7
 10
600.7416288880687
 20
464.85022810156977
 11
600.77845098579348
 21
464.77665058005766
  0
LINE
  8
_0-1_0
  6
CONTINUOUS
 62
    7
 10
598.63004237329233
 20
466.65354210425585
 11
598.59255833631335
 21
466.72845472709275
  0
LINE
  8
_0-1_0
  6
CONTINUOUS
 62
    7
 10
600.62984237329249
 20
466.65354210425585
 11
600.5923583363134
 21
466.72845472709275
  0
LINE
  8
_0-1_0
  6
CONTINUOUS
 62
    7
 10
600.43069457703359
 20
467.06542741130284
 11
600.41896415837448
 21
467.0893612364689
  0
LINE
  8
_0-1_0
  6
CONTINUOUS
 62
    7
 10
600.41896415837448
 20
467.0893612364689
 11
600.40717910124033
 21
467.11182508834383
  0
LINE
  8
_0-1_0
  6
CONTINUOUS
 62
    7
 10
600.40717910124033
 20
467.11182508834383
 11
600.39531498837641
 21
467.13284808856076
  0
LINE
  8
_0-1_0
  6
CONTINUOUS
 62
    7
 10
600.39531498837641
 20
467.13284808856076
 11
600.38334149948162
 21
467.15246457186765
  0
LINE
  8
_0-1_0
  6
CONTINUOUS
 62
    7
 10
600.38334149948162
 20
467.15246457186765
 11
600.37120786569369
 21
467.17073130046697
  0
LINE
  8
_0-1_0
  6
CONTINUOUS
 62
    7
 10
600.37120786569369
 20
467.17073130046697
 11
600.35886260761538
 21
467.18769157336067
  0
LINE
  8
_0-1_0
  6
CONTINUOUS
 62
    7
 10
600.35886260761538
 20
467.18769157336067
 11
600.34626088397465
 21
467.20336921483374
  0
LINE
  8
_0-1_0
  6
CONTINUOUS
 62
    7
 10
600.34626088397465
 20
467.20336921483374
 11
600.33333208395345
 21
467.21780616250976
  0
LINE
  8
_0-1_0
  6
CONTINUOUS
 62
    7
 10
600.33333208395345
 20
467.21780616250976
 11
600.31997944086663
 21
467.23104809303277
  0
LINE
  8
_0-1_0
  6
CONTINUOUS
 62
    7
 10
600.31997944086663
 20
467.23104809303277
 11
600.30617089246527
 21
467.24305767437875
  0
LINE
  8
_0-1_0
  6
CONTINUOUS
 62
    7
 10
600.30617089246527
 20
467.24305767437875
 11
600.29193058482053
 21
467.25375947015266
  0
LINE
  8
_0-1_0
  6
CONTINUOUS
 62
    7
 10
600.29193058482053
 20
467.25375947015266
 11
600.2772600368703
 21
467.26311268685879
  0
LINE
  8
_0-1_0
  6
CONTINUOUS
 62
    7
 10
600.2772600368703
 20
467.26311268685879
 11
600.26209344307529
 21
467.27111384151181
  0
LINE
  8
_0-1_0
  6
CONTINUOUS
 62
    7
 10
600.26209344307529
 20
467.27111384151181
 11
600.24639646808157
 21
467.2777193608938
  0
LINE
  8
_0-1_0
  6
CONTINUOUS
 62
    7
 10
600.24639646808157
 20
467.2777193608938
 11
600.23016962274642
 21
467.2828574240059
  0
LINE
  8
_0-1_0
  6
CONTINUOUS
 62
    7
 10
600.23016962274642
 20
467.2828574240059
 11
600.21348318125467
 21
467.28643310246275
  0
LINE
  8
_0-1_0
  6
CONTINUOUS
 62
    7
 10
600.21348318125467
 20
467.28643310246275
 11
600.19646862227466
 21
467.28835697793488
  0
LINE
  8
_0-1_0
  6
CONTINUOUS
 62
    7
 10
600.19646862227466
 20
467.28835697793488
 11
600.17915304976225
 21
467.28856315973883
  0
LINE
  8
_0-1_0
  6
CONTINUOUS
 62
    7
 10
600.17915304976225
 20
467.28856315973883
 11
600.16171366842048
 21
467.28698774002385
  0
LINE
  8
_0-1_0
  6
CONTINUOUS
 62
    7
 10
600.16171366842048
 20
467.28698774002385
 11
600.14452558224923
 21
467.28365653772289
  0
LINE
  8
_0-1_0
  6
CONTINUOUS
 62
    7
 10
600.14452558224923
 20
467.28365653772289
 11
600.12775432681519
 21
467.27864830344492
  0
LINE
  8
_0-1_0
  6
CONTINUOUS
 62
    7
 10
600.12775432681519
 20
467.27864830344492
 11
600.11138748123949
 21
467.27200614590868
  0
LINE
  8
_0-1_0
  6
CONTINUOUS
 62
    7
 10
600.11138748123949
 20
467.27200614590868
 11
600.09547235412367
 21
467.26378415425074
  0
LINE
  8
_0-1_0
  6
CONTINUOUS
 62
    7
 10
600.09547235412367
 20
467.26378415425074
 11
600.07996849557333
 21
467.25398693285888
  0
LINE
  8
_0-1_0
  6
CONTINUOUS
 62
    7
 10
600.07996849557333
 20
467.25398693285888
 11
600.06490538748949
 21
467.24265545157482
  0
LINE
  8
_0-1_0
  6
CONTINUOUS
 62
    7
 10
600.06490538748949
 20
467.24265545157482
 11
600.0503613593105
 21
467.22989596552964
  0
LINE
  8
_0-1_0
  6
CONTINUOUS
 62
    7
 10
600.0503613593105
 20
467.22989596552964
 11
600.03628386477669
 21
467.21572715285583
  0
LINE
  8
_0-1_0
  6
CONTINUOUS
 62
    7
 10
600.03628386477669
 20
467.21572715285583
 11
600.02258485239065
 21
467.2001155935618
  0
LINE
  8
_0-1_0
  6
CONTINUOUS
 62
    7
 10
600.02258485239065
 20
467.2001155935618
 11
600.00926488270227
 21
467.18312216792287
  0
LINE
  8
_0-1_0
  6
CONTINUOUS
 62
    7
 10
600.00926488270227
 20
467.18312216792287
 11
599.99630342685623
 21
467.16479748208985
  0
LINE
  8
_0-1_0
  6
CONTINUOUS
 62
    7
 10
599.99630342685623
 20
467.16479748208985
 11
599.98358910326442
 21
467.14505142658982
  0
LINE
  8
_0-1_0
  6
CONTINUOUS
 62
    7
 10
599.98358910326442
 20
467.14505142658982
 11
599.97101681910328
 21
467.12375989444081
  0
LINE
  8
_0-1_0
  6
CONTINUOUS
 62
    7
 10
599.97101681910328
 20
467.12375989444081
 11
599.9585676038464
 21
467.10092019045783
  0
LINE
  8
_0-1_0
  6
CONTINUOUS
 62
    7
 10
599.9585676038464
 20
467.10092019045783
 11
599.94618677750725
 21
467.07645679522363
  0
LINE
  8
_0-1_0
  6
CONTINUOUS
 62
    7
 10
599.94618677750725
 20
467.07645679522363
 11
599.93793192065152
 21
467.05917300862393
  0
LINE
  8
_0-1_0
  6
CONTINUOUS
 62
    7
 10
598.43123941345539
 20
467.06470038704288
 11
598.41982183350967
 21
467.08806038111277
  0
LINE
  8
_0-1_0
  6
CONTINUOUS
 62
    7
 10
598.41982183350967
 20
467.08806038111277
 11
598.40831455677665
 21
467.11009960424281
  0
LINE
  8
_0-1_0
  6
CONTINUOUS
 62
    7
 10
598.40831455677665
 20
467.11009960424281
 11
598.39669016084747
 21
467.13083711846593
  0
LINE
  8
_0-1_0
  6
CONTINUOUS
 62
    7
 10
598.39669016084747
 20
467.13083711846593
 11
598.38492351975049
 21
467.15028162836597
  0
LINE
  8
_0-1_0
  6
CONTINUOUS
 62
    7
 10
598.38492351975049
 20
467.15028162836597
 11
598.37297762203536
 21
467.16845762967478
  0
LINE
  8
_0-1_0
  6
CONTINUOUS
 62
    7
 10
598.37297762203536
 20
467.16845762967478
 11
598.36080307112763
 21
467.18539796092682
  0
LINE
  8
_0-1_0
  6
CONTINUOUS
 62
    7
 10
598.36080307112763
 20
467.18539796092682
 11
598.34835566781021
 21
467.20111559233987
  0
LINE
  8
_0-1_0
  6
CONTINUOUS
 62
    7
 10
598.34835566781021
 20
467.20111559233987
 11
598.33557646222255
 21
467.21563109549288
  0
LINE
  8
_0-1_0
  6
CONTINUOUS
 62
    7
 10
598.33557646222255
 20
467.21563109549288
 11
598.32236871949237
 21
467.22898870262884
  0
LINE
  8
_0-1_0
  6
CONTINUOUS
 62
    7
 10
598.32236871949237
 20
467.22898870262884
 11
598.30870095489047
 21
467.24114686699386
  0
LINE
  8
_0-1_0
  6
CONTINUOUS
 62
    7
 10
598.30870095489047
 20
467.24114686699386
 11
598.29460795524039
 21
467.25201631357675
  0
LINE
  8
_0-1_0
  6
CONTINUOUS
 62
    7
 10
598.29460795524039
 20
467.25201631357675
 11
598.28007339035742
 21
467.26156594791178
  0
LINE
  8
_0-1_0
  6
CONTINUOUS
 62
    7
 10
598.28007339035742
 20
467.26156594791178
 11
598.2650426229784
 21
467.26978390027693
  0
LINE
  8
_0-1_0
  6
CONTINUOUS
 62
    7
 10
598.2650426229784
 20
467.26978390027693
 11
598.24953691915846
 21
467.27660659399976
  0
LINE
  8
_0-1_0
  6
CONTINUOUS
 62
    7
 10
598.24953691915846
 20
467.27660659399976
 11
598.23362044248051
 21
467.28196181054591
  0
LINE
  8
_0-1_0
  6
CONTINUOUS
 62
    7
 10
598.23362044248051
 20
467.28196181054591
 11
598.2172956908762
 21
467.28580316909859
  0
LINE
  8
_0-1_0
  6
CONTINUOUS
 62
    7
 10
598.2172956908762
 20
467.28580316909859
 11
598.20054869786429
 21
467.28806934245881
  0
LINE
  8
_0-1_0
  6
CONTINUOUS
 62
    7
 10
598.20054869786429
 20
467.28806934245881
 11
598.18335582429347
 21
467.28867129922696
  0
LINE
  8
_0-1_0
  6
CONTINUOUS
 62
    7
 10
598.18335582429347
 20
467.28867129922696
 11
598.16593176929757
 21
467.2875097605438
  0
LINE
  8
_0-1_0
  6
CONTINUOUS
 62
    7
 10
598.16593176929757
 20
467.2875097605438
 11
598.14864251657775
 21
467.28457371629884
  0
LINE
  8
_0-1_0
  6
CONTINUOUS
 62
    7
 10
598.14864251657775
 20
467.28457371629884
 11
598.13161987083049
 21
467.27989572232696
  0
LINE
  8
_0-1_0
  6
CONTINUOUS
 62
    7
 10
598.13161987083049
 20
467.27989572232696
 11
598.11490688229651
 21
467.27349835303664
  0
LINE
  8
_0-1_0
  6
CONTINUOUS
 62
    7
 10
598.11490688229651
 20
467.27349835303664
 11
598.09867603342263
 21
467.2654737240648
  0
LINE
  8
_0-1_0
  6
CONTINUOUS
 62
    7
 10
598.09867603342263
 20
467.2654737240648
 11
598.08293908394137
 21
467.25587244428868
  0
LINE
  8
_0-1_0
  6
CONTINUOUS
 62
    7
 10
598.08293908394137
 20
467.25587244428868
 11
598.06767824714746
 21
467.24472358383173
  0
LINE
  8
_0-1_0
  6
CONTINUOUS
 62
    7
 10
598.06767824714746
 20
467.24472358383173
 11
598.05293819039161
 21
467.23210893451392
  0
LINE
  8
_0-1_0
  6
CONTINUOUS
 62
    7
 10
598.05293819039161
 20
467.23210893451392
 11
598.03866604805137
 21
467.21804466199092
  0
LINE
  8
_0-1_0
  6
CONTINUOUS
 62
    7
 10
598.03866604805137
 20
467.21804466199092
 11
598.02477519394245
 21
467.20249892187189
  0
LINE
  8
_0-1_0
  6
CONTINUOUS
 62
    7
 10
598.02477519394245
 20
467.20249892187189
 11
598.01123487265534
 21
467.18548680476874
  0
LINE
  8
_0-1_0
  6
CONTINUOUS
 62
    7
 10
598.01123487265534
 20
467.18548680476874
 11
597.99800203970756
 21
467.16700847521088
  0
LINE
  8
_0-1_0
  6
CONTINUOUS
 62
    7
 10
597.99800203970756
 20
467.16700847521088
 11
597.98498529545134
 21
467.14698452932089
  0
LINE
  8
_0-1_0
  6
CONTINUOUS
 62
    7
 10
597.98498529545134
 20
467.14698452932089
 11
597.97211062274448
 21
467.12533246171392
  0
LINE
  8
_0-1_0
  6
CONTINUOUS
 62
    7
 10
597.97211062274448
 20
467.12533246171392
 11
597.95934728859959
 21
467.1020232352937
  0
LINE
  8
_0-1_0
  6
CONTINUOUS
 62
    7
 10
597.95934728859959
 20
467.1020232352937
 11
597.94664663970036
 21
467.07698764001293
  0
LINE
  8
_0-1_0
  6
CONTINUOUS
 62
    7
 10
597.94664663970036
 20
467.07698764001293
 11
597.93805959424856
 21
467.05901775293876
  0
LINE
  8
_0-1_0
  6
CONTINUOUS
 62
    7
 10
598.77865098579343
 20
464.77665058005766
 11
598.8247656575013
 21
464.68266800440688
  0
LINE
  8
_0-1_0
  6
CONTINUOUS
 62
    7
 10
600.77845098579348
 20
464.77665058005766
 11
600.82456565750147
 21
464.68266800440688
  0
LINE
  8
_0-1_0
  6
CONTINUOUS
 62
    7
 10
602.77825098579353
 20
464.77665058005766
 11
602.82436565750152
 21
464.68266800440688
  0
LINE
  8
_0-1_0
  6
CONTINUOUS
 62
    7
 10
598.59255833631335
 20
466.72845472709275
 11
598.54645951938357
 21
466.82243233384668
  0
LINE
  8
_0-1_0
  6
CONTINUOUS
 62
    7
 10
600.5923583363134
 20
466.72845472709275
 11
600.54625951938351
 21
466.82243233384668
  0
LINE
  8
_0-1_0
  6
CONTINUOUS
 62
    7
 10
598.8247656575013
 20
464.68266800440688
 11
598.87197138857766
 21
464.58458921750889
  0
LINE
  8
_0-1_0
  6
CONTINUOUS
 62
    7
 10
600.82456565750147
 20
464.68266800440688
 11
600.87177138857726
 21
464.58458921750889
  0
LINE
  8
_0-1_0
  6
CONTINUOUS
 62
    7
 10
602.82436565750152
 20
464.68266800440688
 11
602.87157138857776
 21
464.58458921750889
  0
LINE
  8
_0-1_0
  6
CONTINUOUS
 62
    7
 10
598.54645951938357
 20
466.82243233384668
 11
598.49926701304548
 21
466.92050763321481
  0
LINE
  8
_0-1_0
  6
CONTINUOUS
 62
    7
 10
600.54625951938351
 20
466.82243233384668
 11
600.49906701304553
 21
466.92050763321481
  0
LINE
  8
_0-1_0
  6
CONTINUOUS
 62
    7
 10
598.93800839512551
 20
464.44464810907994
 11
598.94637371850979
 21
464.42713590047583
  0
LINE
  8
_0-1_0
  6
CONTINUOUS
 62
    7
 10
598.94637371850979
 20
464.42713590047583
 11
598.95889550832646
 21
464.40241577576569
  0
LINE
  8
_0-1_0
  6
CONTINUOUS
 62
    7
 10
598.95889550832646
 20
464.40241577576569
 11
598.97148501531058
 21
464.37936172746174
  0
LINE
  8
_0-1_0
  6
CONTINUOUS
 62
    7
 10
598.97148501531058
 20
464.37936172746174
 11
598.98419597984469
 21
464.35789799071676
  0
LINE
  8
_0-1_0
  6
CONTINUOUS
 62
    7
 10
598.98419597984469
 20
464.35789799071676
 11
598.99705098209427
 21
464.33801419081078
  0
LINE
  8
_0-1_0
  6
CONTINUOUS
 62
    7
 10
598.99705098209427
 20
464.33801419081078
 11
599.01013688125261
 21
464.31961280992084
  0
LINE
  8
_0-1_0
  6
CONTINUOUS
 62
    7
 10
599.01013688125261
 20
464.31961280992084
 11
599.02355495749271
 21
464.3026081757057
  0
LINE
  8
_0-1_0
  6
CONTINUOUS
 62
    7
 10
599.02355495749271
 20
464.3026081757057
 11
599.03733668978759
 21
464.28702564926573
  0
LINE
  8
_0-1_0
  6
CONTINUOUS
 62
    7
 10
599.03733668978759
 20
464.28702564926573
 11
599.05149371364041
 21
464.27290668342494
  0
LINE
  8
_0-1_0
  6
CONTINUOUS
 62
    7
 10
599.05149371364041
 20
464.27290668342494
 11
599.06610852504309
 21
464.26022143843977
  0
LINE
  8
_0-1_0
  6
CONTINUOUS
 62
    7
 10
599.06610852504309
 20
464.26022143843977
 11
599.08123753199163
 21
464.24898073777365
  0
LINE
  8
_0-1_0
  6
CONTINUOUS
 62
    7
 10
599.08123753199163
 20
464.24898073777365
 11
599.09682964929027
 21
464.23927098884576
  0
LINE
  8
_0-1_0
  6
CONTINUOUS
 62
    7
 10
599.09682964929027
 20
464.23927098884576
 11
599.11288321074335
 21
464.23112729662989
  0
LINE
  8
_0-1_0
  6
CONTINUOUS
 62
    7
 10
599.11288321074335
 20
464.23112729662989
 11
599.1294106732862
 21
464.22458178821569
  0
LINE
  8
_0-1_0
  6
CONTINUOUS
 62
    7
 10
599.1294106732862
 20
464.22458178821569
 11
599.14630458402928
 21
464.21970930187672
  0
LINE
  8
_0-1_0
  6
CONTINUOUS
 62
    7
 10
599.14630458402928
 20
464.21970930187672
 11
599.16355319869228
 21
464.21654501863986
  0
LINE
  8
_0-1_0
  6
CONTINUOUS
 62
    7
 10
599.16355319869228
 20
464.21654501863986
 11
599.18100522543648
 21
464.21514822863583
  0
LINE
  8
_0-1_0
  6
CONTINUOUS
 62
    7
 10
599.18100522543648
 20
464.21514822863583
 11
599.19828245420752
 21
464.21552916750784
  0
LINE
  8
_0-1_0
  6
CONTINUOUS
 62
    7
 10
599.19828245420752
 20
464.21552916750784
 11
599.21518852706731
 21
464.21760742178265
  0
LINE
  8
_0-1_0
  6
CONTINUOUS
 62
    7
 10
599.21518852706731
 20
464.21760742178265
 11
599.23172080882523
 21
464.22130476049688
  0
LINE
  8
_0-1_0
  6
CONTINUOUS
 62
    7
 10
599.23172080882523
 20
464.22130476049688
 11
599.24781218013334
 21
464.22654211125484
  0
LINE
  8
_0-1_0
  6
CONTINUOUS
 62
    7
 10
599.24781218013334
 20
464.22654211125484
 11
599.26342024159521
 21
464.23324347438484
  0
LINE
  8
_0-1_0
  6
CONTINUOUS
 62
    7
 10
599.26342024159521
 20
464.23324347438484
 11
599.2785190042955
 21
464.24133705282463
  0
LINE
  8
_0-1_0
  6
CONTINUOUS
 62
    7
 10
599.2785190042955
 20
464.24133705282463
 11
599.29312519353073
 21
464.25077504226488
  0
LINE
  8
_0-1_0
  6
CONTINUOUS
 62
    7
 10
599.29312519353073
 20
464.25077504226488
 11
599.30730285804668
 21
464.26155346855694
  0
LINE
  8
_0-1_0
  6
CONTINUOUS
 62
    7
 10
599.30730285804668
 20
464.26155346855694
 11
599.32105474635648
 21
464.27363448639471
  0
LINE
  8
_0-1_0
  6
CONTINUOUS
 62
    7
 10
599.32105474635648
 20
464.27363448639471
 11
599.33434850502908
 21
464.28693400085581
  0
LINE
  8
_0-1_0
  6
CONTINUOUS
 62
    7
 10
599.33434850502908
 20
464.28693400085581
 11
599.34721532094648
 21
464.30141283373666
  0
LINE
  8
_0-1_0
  6
CONTINUOUS
 62
    7
 10
599.34721532094648
 20
464.30141283373666
 11
599.35975269435642
 21
464.31711624081481
  0
LINE
  8
_0-1_0
  6
CONTINUOUS
 62
    7
 10
599.35975269435642
 20
464.31711624081481
 11
599.3720248958017
 21
464.33407444361274
  0
LINE
  8
_0-1_0
  6
CONTINUOUS
 62
    7
 10
599.3720248958017
 20
464.33407444361274
 11
599.38407650082365
 21
464.35230588271077
  0
LINE
  8
_0-1_0
  6
CONTINUOUS
 62
    7
 10
599.38407650082365
 20
464.35230588271077
 11
599.39595820404929
 21
464.37184988629679
  0
LINE
  8
_0-1_0
  6
CONTINUOUS
 62
    7
 10
599.39595820404929
 20
464.37184988629679
 11
599.40771369807965
 21
464.39274586133888
  0
LINE
  8
_0-1_0
  6
CONTINUOUS
 62
    7
 10
599.40771369807965
 20
464.39274586133888
 11
599.41937069499056
 21
464.41501477725478
  0
LINE
  8
_0-1_0
  6
CONTINUOUS
 62
    7
 10
599.41937069499056
 20
464.41501477725478
 11
599.4309553173216
 21
464.43868141550593
  0
LINE
  8
_0-1_0
  6
CONTINUOUS
 62
    7
 10
600.93777810603342
 20
464.44471239871075
 11
600.94617207534077
 21
464.42713942406283
  0
LINE
  8
_0-1_0
  6
CONTINUOUS
 62
    7
 10
600.94617207534077
 20
464.42713942406283
 11
600.95843418688548
 21
464.40291393806592
  0
LINE
  8
_0-1_0
  6
CONTINUOUS
 62
    7
 10
600.95843418688548
 20
464.40291393806592
 11
600.97075565764555
 21
464.38029447690474
  0
LINE
  8
_0-1_0
  6
CONTINUOUS
 62
    7
 10
600.97075565764555
 20
464.38029447690474
 11
600.98318816851224
 21
464.35920803333579
  0
LINE
  8
_0-1_0
  6
CONTINUOUS
 62
    7
 10
600.98318816851224
 20
464.35920803333579
 11
600.99575057002539
 21
464.33964613305488
  0
LINE
  8
_0-1_0
  6
CONTINUOUS
 62
    7
 10
600.99575057002539
 20
464.33964613305488
 11
601.00857018763247
 21
464.32144960107189
  0
LINE
  8
_0-1_0
  6
CONTINUOUS
 62
    7
 10
601.00857018763247
 20
464.32144960107189
 11
601.0217653167756
 21
464.30452590300479
  0
LINE
  8
_0-1_0
  6
CONTINUOUS
 62
    7
 10
601.0217653167756
 20
464.30452590300479
 11
601.03534731147022
 21
464.28894433889275
  0
LINE
  8
_0-1_0
  6
CONTINUOUS
 62
    7
 10
601.03534731147022
 20
464.28894433889275
 11
601.04931516696945
 21
464.2747696037809
  0
LINE
  8
_0-1_0
  6
CONTINUOUS
 62
    7
 10
601.04931516696945
 20
464.2747696037809
 11
601.06376846028354
 21
464.26196364965574
  0
LINE
  8
_0-1_0
  6
CONTINUOUS
 62
    7
 10
601.06376846028354
 20
464.26196364965574
 11
601.0787502213517
 21
464.25056130182293
  0
LINE
  8
_0-1_0
  6
CONTINUOUS
 62
    7
 10
601.0787502213517
 20
464.25056130182293
 11
601.09414980487566
 21
464.24069338053187
  0
LINE
  8
_0-1_0
  6
CONTINUOUS
 62
    7
 10
601.09414980487566
 20
464.24069338053187
 11
601.10991456672639
 21
464.23240371715667
  0
LINE
  8
_0-1_0
  6
CONTINUOUS
 62
    7
 10
601.10991456672639
 20
464.23240371715667
 11
601.12610826567936
 21
464.22567378233884
  0
LINE
  8
_0-1_0
  6
CONTINUOUS
 62
    7
 10
601.12610826567936
 20
464.22567378233884
 11
601.14272304918632
 21
464.22054138411477
  0
LINE
  8
_0-1_0
  6
CONTINUOUS
 62
    7
 10
601.14272304918632
 20
464.22054138411477
 11
601.15977572768736
 21
464.21705351263381
  0
LINE
  8
_0-1_0
  6
CONTINUOUS
 62
    7
 10
601.15977572768736
 20
464.21705351263381
 11
601.17710570633437
 21
464.21529449521972
  0
LINE
  8
_0-1_0
  6
CONTINUOUS
 62
    7
 10
601.17710570633437
 20
464.21529449521972
 11
601.19437963422342
 21
464.21530057127893
  0
LINE
  8
_0-1_0
  6
CONTINUOUS
 62
    7
 10
601.19437963422342
 20
464.21530057127893
 11
601.21144953403257
 21
464.21703184752766
  0
LINE
  8
_0-1_0
  6
CONTINUOUS
 62
    7
 10
601.21144953403257
 20
464.21703184752766
 11
601.22825597655367
 21
464.22044125564389
  0
LINE
  8
_0-1_0
  6
CONTINUOUS
 62
    7
 10
601.22825597655367
 20
464.22044125564389
 11
601.24461393059448
 21
464.22543964423994
  0
LINE
  8
_0-1_0
  6
CONTINUOUS
 62
    7
 10
601.24461393059448
 20
464.22543964423994
 11
601.26043834526729
 21
464.23192807290798
  0
LINE
  8
_0-1_0
  6
CONTINUOUS
 62
    7
 10
601.26043834526729
 20
464.23192807290798
 11
601.27573645409132
 21
464.23983657834174
  0
LINE
  8
_0-1_0
  6
CONTINUOUS
 62
    7
 10
601.27573645409132
 20
464.23983657834174
 11
601.29052589015157
 21
464.24911187556791
  0
LINE
  8
_0-1_0
  6
CONTINUOUS
 62
    7
 10
601.29052589015157
 20
464.24911187556791
 11
601.30486273026338
 21
464.25973947876196
  0
LINE
  8
_0-1_0
  6
CONTINUOUS
 62
    7
 10
601.30486273026338
 20
464.25973947876196
 11
601.31875389434128
 21
464.27168064088983
  0
LINE
  8
_0-1_0
  6
CONTINUOUS
 62
    7
 10
601.31875389434128
 20
464.27168064088983
 11
601.33218777324339
 21
464.28486900010364
  0
LINE
  8
_0-1_0
  6
CONTINUOUS
 62
    7
 10
601.33218777324339
 20
464.28486900010364
 11
601.34519844174349
 21
464.29926986138889
  0
LINE
  8
_0-1_0
  6
CONTINUOUS
 62
    7
 10
601.34519844174349
 20
464.29926986138889
 11
601.35788117788854
 21
464.31492875806964
  0
LINE
  8
_0-1_0
  6
CONTINUOUS
 62
    7
 10
601.35788117788854
 20
464.31492875806964
 11
601.37031413386239
 21
464.33189986169896
  0
LINE
  8
_0-1_0
  6
CONTINUOUS
 62
    7
 10
601.37031413386239
 20
464.33189986169896
 11
601.3825425078727
 21
464.35021010503692
  0
LINE
  8
_0-1_0
  6
CONTINUOUS
 62
    7
 10
601.3825425078727
 20
464.35021010503692
 11
601.39461910281955
 21
464.36990802747175
  0
LINE
  8
_0-1_0
  6
CONTINUOUS
 62
    7
 10
601.39461910281955
 20
464.36990802747175
 11
601.40660345547622
 21
464.39107141789077
  0
LINE
  8
_0-1_0
  6
CONTINUOUS
 62
    7
 10
601.40660345547622
 20
464.39107141789077
 11
601.41852905582766
 21
464.41374882871082
  0
LINE
  8
_0-1_0
  6
CONTINUOUS
 62
    7
 10
601.41852905582766
 20
464.41374882871082
 11
601.43041822800353
 21
464.43797165315573
  0
LINE
  8
_0-1_0
  6
CONTINUOUS
 62
    7
 10
601.43041822800353
 20
464.43797165315573
 11
601.47494678409669
 21
464.53269451840674
  0
LINE
  8
_0-1_0
  6
CONTINUOUS
 62
    7
 10
602.93759693930144
 20
464.44467267450182
 11
602.94580080428761
 21
464.42749000294077
  0
LINE
  8
_0-1_0
  6
CONTINUOUS
 62
    7
 10
602.94580080428761
 20
464.42749000294077
 11
602.95791015686757
 21
464.4035314011619
  0
LINE
  8
_0-1_0
  6
CONTINUOUS
 62
    7
 10
602.95791015686757
 20
464.4035314011619
 11
602.97004312132833
 21
464.38120136166174
  0
LINE
  8
_0-1_0
  6
CONTINUOUS
 62
    7
 10
602.97004312132833
 20
464.38120136166174
 11
602.98223723906722
 21
464.36043311475476
  0
LINE
  8
_0-1_0
  6
CONTINUOUS
 62
    7
 10
602.98223723906722
 20
464.36043311475476
 11
602.99451898319433
 21
464.34118688320677
  0
LINE
  8
_0-1_0
  6
CONTINUOUS
 62
    7
 10
602.99451898319433
 20
464.34118688320677
 11
603.00704306944874
 21
464.3232516435769
  0
LINE
  8
_0-1_0
  6
CONTINUOUS
 62
    7
 10
603.00704306944874
 20
464.3232516435769
 11
603.01992202566646
 21
464.30653653707282
  0
LINE
  8
_0-1_0
  6
CONTINUOUS
 62
    7
 10
603.01992202566646
 20
464.30653653707282
 11
603.03316276509679
 21
464.29110836610494
  0
LINE
  8
_0-1_0
  6
CONTINUOUS
 62
    7
 10
603.03316276509679
 20
464.29110836610494
 11
603.04679550350477
 21
464.27699757823393
  0
LINE
  8
_0-1_0
  6
CONTINUOUS
 62
    7
 10
603.04679550350477
 20
464.27699757823393
 11
603.06094106304965
 21
464.26415578102683
  0
LINE
  8
_0-1_0
  6
CONTINUOUS
 62
    7
 10
603.06094106304965
 20
464.26415578102683
 11
603.07562104763167
 21
464.25264745530785
  0
LINE
  8
_0-1_0
  6
CONTINUOUS
 62
    7
 10
603.07562104763167
 20
464.25264745530785
 11
603.09069717077739
 21
464.24262816885164
  0
LINE
  8
_0-1_0
  6
CONTINUOUS
 62
    7
 10
603.09069717077739
 20
464.24262816885164
 11
603.10612016317248
 21
464.23413849547978
  0
LINE
  8
_0-1_0
  6
CONTINUOUS
 62
    7
 10
603.10612016317248
 20
464.23413849547978
 11
603.1219602893043
 21
464.22715304591293
  0
LINE
  8
_0-1_0
  6
CONTINUOUS
 62
    7
 10
603.1219602893043
 20
464.22715304591293
 11
603.13818877447579
 21
464.22171233155382
  0
LINE
  8
_0-1_0
  6
CONTINUOUS
 62
    7
 10
603.13818877447579
 20
464.22171233155382
 11
603.15476319323136
 21
464.21785988744273
  0
LINE
  8
_0-1_0
  6
CONTINUOUS
 62
    7
 10
603.15476319323136
 20
464.21785988744273
 11
603.17159802715571
 21
464.2156449319906
  0
LINE
  8
_0-1_0
  6
CONTINUOUS
 62
    7
 10
603.17159802715571
 20
464.2156449319906
 11
603.18854304521119
 21
464.2151058356028
  0
LINE
  8
_0-1_0
  6
CONTINUOUS
 62
    7
 10
603.18854304521119
 20
464.2151058356028
 11
603.20551415732461
 21
464.21625690805979
  0
LINE
  8
_0-1_0
  6
CONTINUOUS
 62
    7
 10
603.20551415732461
 20
464.21625690805979
 11
603.22239171879357
 21
464.21910005735265
  0
LINE
  8
_0-1_0
  6
CONTINUOUS
 62
    7
 10
603.22239171879357
 20
464.21910005735265
 11
603.23897697404129
 21
464.22359055734876
  0
LINE
  8
_0-1_0
  6
CONTINUOUS
 62
    7
 10
603.23897697404129
 20
464.22359055734876
 11
603.25522006381254
 21
464.22968945012576
  0
LINE
  8
_0-1_0
  6
CONTINUOUS
 62
    7
 10
603.25522006381254
 20
464.22968945012576
 11
603.27105708752754
 21
464.23734809660891
  0
LINE
  8
_0-1_0
  6
CONTINUOUS
 62
    7
 10
603.27105708752754
 20
464.23734809660891
 11
603.28633948186246
 21
464.24644720660683
  0
LINE
  8
_0-1_0
  6
CONTINUOUS
 62
    7
 10
603.28633948186246
 20
464.24644720660683
 11
603.30106632812112
 21
464.25691620232988
  0
LINE
  8
_0-1_0
  6
CONTINUOUS
 62
    7
 10
603.30106632812112
 20
464.25691620232988
 11
603.31530011247935
 21
464.26873340230975
  0
LINE
  8
_0-1_0
  6
CONTINUOUS
 62
    7
 10
603.31530011247935
 20
464.26873340230975
 11
603.32904896018454
 21
464.2818410602008
  0
LINE
  8
_0-1_0
  6
CONTINUOUS
 62
    7
 10
603.32904896018454
 20
464.2818410602008
 11
603.34234761291339
 21
464.2962010604208
  0
LINE
  8
_0-1_0
  6
CONTINUOUS
 62
    7
 10
603.34234761291339
 20
464.2962010604208
 11
603.35529622428669
 21
464.31185873631489
  0
LINE
  8
_0-1_0
  6
CONTINUOUS
 62
    7
 10
603.35529622428669
 20
464.31185873631489
 11
603.36799941414358
 21
464.32889804463764
  0
LINE
  8
_0-1_0
  6
CONTINUOUS
 62
    7
 10
603.36799941414358
 20
464.32889804463764
 11
603.38050520374247
 21
464.3473545997067
  0
LINE
  8
_0-1_0
  6
CONTINUOUS
 62
    7
 10
603.38050520374247
 20
464.3473545997067
 11
603.39286954051852
 21
464.36728918726089
  0
LINE
  8
_0-1_0
  6
CONTINUOUS
 62
    7
 10
603.39286954051852
 20
464.36728918726089
 11
603.40517696056224
 21
464.38883140494465
  0
LINE
  8
_0-1_0
  6
CONTINUOUS
 62
    7
 10
603.40517696056224
 20
464.38883140494465
 11
603.41747006597745
 21
464.41206145261685
  0
LINE
  8
_0-1_0
  6
CONTINUOUS
 62
    7
 10
603.41747006597745
 20
464.41206145261685
 11
603.42976562751039
 21
464.43701941414679
  0
LINE
  8
_0-1_0
  6
CONTINUOUS
 62
    7
 10
603.42976562751039
 20
464.43701941414679
 11
603.47474678409628
 21
464.53269451840674
  0
LINE
  8
_0-1_0
  6
CONTINUOUS
 62
    7
 10
602.52260362005666
 20
466.87095728874476
 11
602.47484678409648
 21
466.97107582619287
  0
LINE
  8
_0-1_0
  6
CONTINUOUS
 62
    7
 10
598.87197138857766
 20
464.58458921750889
 11
598.92030337398648
 21
464.48245282550283
  0
LINE
  8
_0-1_0
  6
CONTINUOUS
 62
    7
 10
598.92030337398648
 20
464.48245282550283
 11
598.93803268602915
 21
464.44459549615976
  0
LINE
  8
_0-1_0
  6
CONTINUOUS
 62
    7
 10
598.49926701304548
 20
466.92050763321481
 11
598.45094584716037
 21
467.02264221721998
  0
LINE
  8
_0-1_0
  6
CONTINUOUS
 62
    7
 10
600.87177138857726
 20
464.58458921750889
 11
600.92010337398642
 21
464.48245282550283
  0
LINE
  8
_0-1_0
  6
CONTINUOUS
 62
    7
 10
600.92010337398642
 20
464.48245282550283
 11
600.93783283934738
 21
464.44459516740494
  0
LINE
  8
_0-1_0
  6
CONTINUOUS
 62
    7
 10
600.49906701304553
 20
466.92050763321481
 11
600.45074584716031
 21
467.02264221721998
  0
LINE
  8
_0-1_0
  6
CONTINUOUS
 62
    7
 10
602.87157138857776
 20
464.58458921750889
 11
602.91990337398659
 21
464.48245282550283
  0
LINE
  8
_0-1_0
  6
CONTINUOUS
 62
    7
 10
602.91990337398659
 20
464.48245282550283
 11
602.93763260967353
 21
464.44459565947682
  0
LINE
  8
_0-1_0
  6
CONTINUOUS
 62
    7
 10
598.43123941345539
 20
467.06470038704288
 11
598.45094584716037
 21
467.02264221721998
  0
LINE
  8
_0-1_0
  6
CONTINUOUS
 62
    7
 10
600.43069457703359
 20
467.06542741130284
 11
600.45074584716031
 21
467.02264221721998
  0
LINE
  8
_0-1_0
  6
CONTINUOUS
 62
    7
 10
602.43009598265428
 20
467.06626656374283
 11
602.47484678409648
 21
466.97107582619287
  0
LINE
  8
_0-1_0
  6
CONTINUOUS
 62
    9
 10
674.1283905958353
 20
425.90395129511569
 11
666.12919059583567
 21
425.90395129511569
  0
LINE
  8
_0-1_0
  6
CONTINUOUS
 62
    7
 10
567.64932164793038
 20
462.32604910471366
 11
566.34758559819068
 21
463.28397484255993
  0
LINE
  8
_0-1_0
  6
CONTINUOUS
 62
    7
 10
602.74142888806819
 20
464.85022810156977
 11
602.77825098579353
 21
464.77665058005766
  0
LINE
  8
_0-1_0
  6
CONTINUOUS
 62
    7
 10
604.74122888806835
 20
464.85022810156977
 11
604.77805097943019
 21
464.77665059278388
  0
LINE
  8
_0-1_0
  6
CONTINUOUS
 62
    7
 10
602.62964237329254
 20
466.65354210425585
 11
602.59215833631345
 21
466.72845472709275
  0
LINE
  8
_0-1_0
  6
CONTINUOUS
 62
    7
 10
604.62944237329259
 20
466.65354210425585
 11
604.59195833631338
 21
466.72845472709275
  0
LINE
  8
_0-1_0
  6
CONTINUOUS
 62
    7
 10
604.42946233329633
 20
467.0671775611188
 11
604.4169828540962
 21
467.09246714493793
  0
LINE
  8
_0-1_0
  6
CONTINUOUS
 62
    7
 10
604.4169828540962
 20
467.09246714493793
 11
604.40452612322736
 21
467.11593952413182
  0
LINE
  8
_0-1_0
  6
CONTINUOUS
 62
    7
 10
604.40452612322736
 20
467.11593952413182
 11
604.39207929227734
 21
467.13763858794766
  0
LINE
  8
_0-1_0
  6
CONTINUOUS
 62
    7
 10
604.39207929227734
 20
467.13763858794766
 11
604.37959442604051
 21
467.15766420306466
  0
LINE
  8
_0-1_0
  6
CONTINUOUS
 62
    7
 10
604.37959442604051
 20
467.15766420306466
 11
604.36697177418966
 21
467.17617434338081
  0
LINE
  8
_0-1_0
  6
CONTINUOUS
 62
    7
 10
604.36697177418966
 20
467.17617434338081
 11
604.35415478389552
 21
467.19323362364571
  0
LINE
  8
_0-1_0
  6
CONTINUOUS
 62
    7
 10
604.35415478389552
 20
467.19323362364571
 11
604.34109350742619
 21
467.20888328276578
  0
LINE
  8
_0-1_0
  6
CONTINUOUS
 62
    7
 10
604.34109350742619
 20
467.20888328276578
 11
604.32766456197044
 21
467.22322742820779
  0
LINE
  8
_0-1_0
  6
CONTINUOUS
 62
    7
 10
604.32766456197044
 20
467.22322742820779
 11
604.31375780672454
 21
467.23631375944387
  0
LINE
  8
_0-1_0
  6
CONTINUOUS
 62
    7
 10
604.31375780672454
 20
467.23631375944387
 11
604.29934444638639
 21
467.24809220723876
  0
LINE
  8
_0-1_0
  6
CONTINUOUS
 62
    7
 10
604.29934444638639
 20
467.24809220723876
 11
604.28442227360119
 21
467.25849665517478
  0
LINE
  8
_0-1_0
  6
CONTINUOUS
 62
    7
 10
604.28442227360119
 20
467.25849665517478
 11
604.26890347987876
 21
467.26751485568877
  0
LINE
  8
_0-1_0
  6
CONTINUOUS
 62
    7
 10
604.26890347987876
 20
467.26751485568877
 11
604.25281634602572
 21
467.27505193584477
  0
LINE
  8
_0-1_0
  6
CONTINUOUS
 62
    7
 10
604.25281634602572
 20
467.27505193584477
 11
604.23640474734941
 21
467.28095829151368
  0
LINE
  8
_0-1_0
  6
CONTINUOUS
 62
    7
 10
604.23640474734941
 20
467.28095829151368
 11
604.21978944177329
 21
467.28519997154581
  0
LINE
  8
_0-1_0
  6
CONTINUOUS
 62
    7
 10
604.21978944177329
 20
467.28519997154581
 11
604.20298151424959
 21
467.28778266294773
  0
LINE
  8
_0-1_0
  6
CONTINUOUS
 62
    7
 10
604.20298151424959
 20
467.28778266294773
 11
604.18613275141536
 21
467.28869055214977
  0
LINE
  8
_0-1_0
  6
CONTINUOUS
 62
    7
 10
604.18613275141536
 20
467.28869055214977
 11
604.16937023934963
 21
467.28793864098498
  0
LINE
  8
_0-1_0
  6
CONTINUOUS
 62
    7
 10
604.16937023934963
 20
467.28793864098498
 11
604.15276545847848
 21
467.28555434004477
  0
LINE
  8
_0-1_0
  6
CONTINUOUS
 62
    7
 10
604.15276545847848
 20
467.28555434004477
 11
604.13638736069436
 21
467.28156600952389
  0
LINE
  8
_0-1_0
  6
CONTINUOUS
 62
    7
 10
604.13638736069436
 20
467.28156600952389
 11
604.12027734428159
 21
467.27599494789763
  0
LINE
  8
_0-1_0
  6
CONTINUOUS
 62
    7
 10
604.12027734428159
 20
467.27599494789763
 11
604.10451906844867
 21
467.26888078059778
  0
LINE
  8
_0-1_0
  6
CONTINUOUS
 62
    7
 10
604.10451906844867
 20
467.26888078059778
 11
604.08918814502761
 21
467.26027996712878
  0
LINE
  8
_0-1_0
  6
CONTINUOUS
 62
    7
 10
604.08918814502761
 20
467.26027996712878
 11
604.07422780090849
 21
467.25018019993377
  0
LINE
  8
_0-1_0
  6
CONTINUOUS
 62
    7
 10
604.07422780090849
 20
467.25018019993377
 11
604.05966712197051
 21
467.23861553439474
  0
LINE
  8
_0-1_0
  6
CONTINUOUS
 62
    7
 10
604.05966712197051
 20
467.23861553439474
 11
604.04563985241339
 21
467.22574236123478
  0
LINE
  8
_0-1_0
  6
CONTINUOUS
 62
    7
 10
604.04563985241339
 20
467.22574236123478
 11
604.03213038288959
 21
467.21163247660684
  0
LINE
  8
_0-1_0
  6
CONTINUOUS
 62
    7
 10
604.03213038288959
 20
467.21163247660684
 11
604.01901270781866
 21
467.19623367027771
  0
LINE
  8
_0-1_0
  6
CONTINUOUS
 62
    7
 10
604.01901270781866
 20
467.19623367027771
 11
604.00623870504342
 21
467.17955416415271
  0
LINE
  8
_0-1_0
  6
CONTINUOUS
 62
    7
 10
604.00623870504342
 20
467.17955416415271
 11
603.99379735809055
 21
467.1616493811739
  0
LINE
  8
_0-1_0
  6
CONTINUOUS
 62
    7
 10
603.99379735809055
 20
467.1616493811739
 11
603.98158446798664
 21
467.14243204673573
  0
LINE
  8
_0-1_0
  6
CONTINUOUS
 62
    7
 10
603.98158446798664
 20
467.14243204673573
 11
603.96944620072247
 21
467.1216869772079
  0
LINE
  8
_0-1_0
  6
CONTINUOUS
 62
    7
 10
603.96944620072247
 20
467.1216869772079
 11
603.95735191815049
 21
467.09936260623181
  0
LINE
  8
_0-1_0
  6
CONTINUOUS
 62
    7
 10
603.95735191815049
 20
467.09936260623181
 11
603.94527002191546
 21
467.07539751510194
  0
LINE
  8
_0-1_0
  6
CONTINUOUS
 62
    7
 10
603.94527002191546
 20
467.07539751510194
 11
603.93752934848465
 21
467.05916716981392
  0
LINE
  8
_0-1_0
  6
CONTINUOUS
 62
    7
 10
602.43009598265428
 20
467.06626656374283
 11
602.41800894117659
 21
467.09084767205286
  0
LINE
  8
_0-1_0
  6
CONTINUOUS
 62
    7
 10
602.41800894117659
 20
467.09084767205286
 11
602.4059047398996
 21
467.11379459773673
  0
LINE
  8
_0-1_0
  6
CONTINUOUS
 62
    7
 10
602.4059047398996
 20
467.11379459773673
 11
602.39376356535058
 21
467.13514271816575
  0
LINE
  8
_0-1_0
  6
CONTINUOUS
 62
    7
 10
602.39376356535058
 20
467.13514271816575
 11
602.38154770917947
 21
467.15495540609265
  0
LINE
  8
_0-1_0
  6
CONTINUOUS
 62
    7
 10
602.38154770917947
 20
467.15495540609265
 11
602.36918614061153
 21
467.17333555819687
  0
LINE
  8
_0-1_0
  6
CONTINUOUS
 62
    7
 10
602.36918614061153
 20
467.17333555819687
 11
602.35662447296465
 21
467.19033809474286
  0
LINE
  8
_0-1_0
  6
CONTINUOUS
 62
    7
 10
602.35662447296465
 20
467.19033809474286
 11
602.34381634481451
 21
467.20599349480381
  0
LINE
  8
_0-1_0
  6
CONTINUOUS
 62
    7
 10
602.34381634481451
 20
467.20599349480381
 11
602.33067195908143
 21
467.22037011336192
  0
LINE
  8
_0-1_0
  6
CONTINUOUS
 62
    7
 10
602.33067195908143
 20
467.22037011336192
 11
602.31709525082726
 21
467.2335131310499
  0
LINE
  8
_0-1_0
  6
CONTINUOUS
 62
    7
 10
602.31709525082726
 20
467.2335131310499
 11
602.30305069148437
 21
467.24538845854966
  0
LINE
  8
_0-1_0
  6
CONTINUOUS
 62
    7
 10
602.30305069148437
 20
467.24538845854966
 11
602.28853739538329
 21
467.25593630214473
  0
LINE
  8
_0-1_0
  6
CONTINUOUS
 62
    7
 10
602.28853739538329
 20
467.25593630214473
 11
602.27352190465865
 21
467.26512651333485
  0
LINE
  8
_0-1_0
  6
CONTINUOUS
 62
    7
 10
602.27352190465865
 20
467.26512651333485
 11
602.25797519433308
 21
467.27291763262997
  0
LINE
  8
_0-1_0
  6
CONTINUOUS
 62
    7
 10
602.25797519433308
 20
467.27291763262997
 11
602.24195503711564
 21
467.27922462095864
  0
LINE
  8
_0-1_0
  6
CONTINUOUS
 62
    7
 10
602.24195503711564
 20
467.27922462095864
 11
602.22548167370735
 21
467.28398712405487
  0
LINE
  8
_0-1_0
  6
CONTINUOUS
 62
    7
 10
602.22548167370735
 20
467.28398712405487
 11
602.20862917397437
 21
467.28713058270773
  0
LINE
  8
_0-1_0
  6
CONTINUOUS
 62
    7
 10
602.20862917397437
 20
467.28713058270773
 11
602.19160420512628
 21
467.28858535994266
  0
LINE
  8
_0-1_0
  6
CONTINUOUS
 62
    7
 10
602.19160420512628
 20
467.28858535994266
 11
602.17450300299333
 21
467.28833110506764
  0
LINE
  8
_0-1_0
  6
CONTINUOUS
 62
    7
 10
602.17450300299333
 20
467.28833110506764
 11
602.15743551627668
 21
467.28635871444772
  0
LINE
  8
_0-1_0
  6
CONTINUOUS
 62
    7
 10
602.15743551627668
 20
467.28635871444772
 11
602.14063937848232
 21
467.28270779412185
  0
LINE
  8
_0-1_0
  6
CONTINUOUS
 62
    7
 10
602.14063937848232
 20
467.28270779412185
 11
602.12423982284429
 21
467.27744667907382
  0
LINE
  8
_0-1_0
  6
CONTINUOUS
 62
    7
 10
602.12423982284429
 20
467.27744667907382
 11
602.10824688775267
 21
467.27062094020073
  0
LINE
  8
_0-1_0
  6
CONTINUOUS
 62
    7
 10
602.10824688775267
 20
467.27062094020073
 11
602.09266811760347
 21
467.26226447835484
  0
LINE
  8
_0-1_0
  6
CONTINUOUS
 62
    7
 10
602.09266811760347
 20
467.26226447835484
 11
602.07743069786159
 21
467.25234878729589
  0
LINE
  8
_0-1_0
  6
CONTINUOUS
 62
    7
 10
602.07743069786159
 20
467.25234878729589
 11
602.06259347779235
 21
467.24091720662875
  0
LINE
  8
_0-1_0
  6
CONTINUOUS
 62
    7
 10
602.06259347779235
 20
467.24091720662875
 11
602.04829074336078
 21
467.22811873266483
  0
LINE
  8
_0-1_0
  6
CONTINUOUS
 62
    7
 10
602.04829074336078
 20
467.22811873266483
 11
602.03449186247747
 21
467.21400649736279
  0
LINE
  8
_0-1_0
  6
CONTINUOUS
 62
    7
 10
602.03449186247747
 20
467.21400649736279
 11
602.02108467545122
 21
467.19853707506581
  0
LINE
  8
_0-1_0
  6
CONTINUOUS
 62
    7
 10
602.02108467545122
 20
467.19853707506581
 11
602.00805779311861
 21
467.18176305324175
  0
LINE
  8
_0-1_0
  6
CONTINUOUS
 62
    7
 10
602.00805779311861
 20
467.18176305324175
 11
601.99540576511447
 21
467.16375961194785
  0
LINE
  8
_0-1_0
  6
CONTINUOUS
 62
    7
 10
601.99540576511447
 20
467.16375961194785
 11
601.98300907460464
 21
467.14443320478176
  0
LINE
  8
_0-1_0
  6
CONTINUOUS
 62
    7
 10
601.98300907460464
 20
467.14443320478176
 11
601.97071852650936
 21
467.12358695506975
  0
LINE
  8
_0-1_0
  6
CONTINUOUS
 62
    7
 10
601.97071852650936
 20
467.12358695506975
 11
601.95851287356038
 21
467.10119711882271
  0
LINE
  8
_0-1_0
  6
CONTINUOUS
 62
    7
 10
601.95851287356038
 20
467.10119711882271
 11
601.94634644820337
 21
467.07719151113884
  0
LINE
  8
_0-1_0
  6
CONTINUOUS
 62
    7
 10
601.94634644820337
 20
467.07719151113884
 11
601.93766427984076
 21
467.05902793161795
  0
LINE
  8
_0-1_0
  6
CONTINUOUS
 62
    7
 10
604.77805097943019
 20
464.77665059278388
 11
604.82416564447249
 21
464.68266803107065
  0
LINE
  8
_0-1_0
  6
CONTINUOUS
 62
    7
 10
602.59215833631345
 20
466.72845472709275
 11
602.54605951938368
 21
466.82243233384668
  0
LINE
  8
_0-1_0
  6
CONTINUOUS
 62
    7
 10
604.93974768238513
 20
464.43967029994076
 11
604.95122155155059
 21
464.41616153256791
  0
LINE
  8
_0-1_0
  6
CONTINUOUS
 62
    7
 10
604.95122155155059
 20
464.41616153256791
 11
604.96267140978364
 21
464.39419865665081
  0
LINE
  8
_0-1_0
  6
CONTINUOUS
 62
    7
 10
604.96267140978364
 20
464.39419865665081
 11
604.97411577099058
 21
464.37373392120776
  0
LINE
  8
_0-1_0
  6
CONTINUOUS
 62
    7
 10
604.97411577099058
 20
464.37373392120776
 11
604.98558270418243
 21
464.3547062126537
  0
LINE
  8
_0-1_0
  6
CONTINUOUS
 62
    7
 10
604.98558270418243
 20
464.3547062126537
 11
604.99717582717869
 21
464.33694750627785
  0
LINE
  8
_0-1_0
  6
CONTINUOUS
 62
    7
 10
604.99717582717869
 20
464.33694750627785
 11
605.00893979217938
 21
464.32041264841382
  0
LINE
  8
_0-1_0
  6
CONTINUOUS
 62
    7
 10
605.00893979217938
 20
464.32041264841382
 11
605.02091055649828
 21
464.30507944461476
  0
LINE
  8
_0-1_0
  6
CONTINUOUS
 62
    7
 10
605.02091055649828
 20
464.30507944461476
 11
605.03320871625658
 21
464.29083805041182
  0
LINE
  8
_0-1_0
  6
CONTINUOUS
 62
    7
 10
605.03320871625658
 20
464.29083805041182
 11
605.04594373050622
 21
464.27763322132967
  0
LINE
  8
_0-1_0
  6
CONTINUOUS
 62
    7
 10
605.04594373050622
 20
464.27763322132967
 11
605.05912574096158
 21
464.26553326387079
  0
LINE
  8
_0-1_0
  6
CONTINUOUS
 62
    7
 10
605.05912574096158
 20
464.26553326387079
 11
605.07273751298146
 21
464.25461784764275
  0
LINE
  8
_0-1_0
  6
CONTINUOUS
 62
    7
 10
605.07273751298146
 20
464.25461784764275
 11
605.08685761325444
 21
464.24488628422978
  0
LINE
  8
_0-1_0
  6
CONTINUOUS
 62
    7
 10
605.08685761325444
 20
464.24488628422978
 11
605.10149016924663
 21
464.23640201789271
  0
LINE
  8
_0-1_0
  6
CONTINUOUS
 62
    7
 10
605.10149016924663
 20
464.23640201789271
 11
605.11645977546959
 21
464.22930222006471
  0
LINE
  8
_0-1_0
  6
CONTINUOUS
 62
    7
 10
605.11645977546959
 20
464.22930222006471
 11
605.13166964281538
 21
464.22363044457188
  0
LINE
  8
_0-1_0
  6
CONTINUOUS
 62
    7
 10
605.13166964281538
 20
464.22363044457188
 11
605.13529059583573
 21
464.22263495291884
  0
LINE
  8
_0-1_0
  6
CONTINUOUS
 62
    7
 10
604.59195833631338
 20
466.72845472709275
 11
604.54585951938327
 21
466.82243233384668
  0
LINE
  8
_0-1_0
  6
CONTINUOUS
 62
    7
 10
602.54605951938368
 20
466.82243233384668
 11
602.52260362005666
 21
466.87095728874476
  0
LINE
  8
_0-1_0
  6
CONTINUOUS
 62
    7
 10
604.82416564447249
 20
464.68266803107065
 11
604.87137136857939
 21
464.58458925932291
  0
LINE
  8
_0-1_0
  6
CONTINUOUS
 62
    7
 10
604.54585951938327
 20
466.82243233384668
 11
604.49866701304575
 21
466.92050763321481
  0
LINE
  8
_0-1_0
  6
CONTINUOUS
 62
    7
 10
604.87137136857939
 20
464.58458925932291
 11
604.91970334641348
 21
464.48245288398164
  0
LINE
  8
_0-1_0
  6
CONTINUOUS
 62
    7
 10
604.91970334641348
 20
464.48245288398164
 11
604.93974768238513
 21
464.43967029994076
  0
LINE
  8
_0-1_0
  6
CONTINUOUS
 62
    7
 10
604.49866701304575
 20
466.92050763321481
 11
604.45034584716041
 21
467.02264221721998
  0
LINE
  8
_0-1_0
  6
CONTINUOUS
 62
    7
 10
604.42946233329633
 20
467.0671775611188
 11
604.45034584716041
 21
467.02264221721998
  0
LINE
  8
_0-1_0
  6
CONTINUOUS
 62
    7
 10
674.62834059583577
 20
431.37861744920281
 11
674.1283905958353
 21
431.37861744920281
  0
LINE
  8
_0-1_0
  6
CONTINUOUS
 62
    7
 10
666.12919059583567
 20
431.37861744920281
 11
665.62924059583577
 21
431.37861744920281
  0
LINE
  8
_0-1_0
  6
CONTINUOUS
 62
    9
 10
675.12829059583555
 20
431.87856744920282
 11
674.1283905958353
 21
431.87856744920282
  0
LINE
  8
_0-1_0
  6
CONTINUOUS
 62
    9
 10
666.12919059583567
 20
431.87856744920282
 11
665.1292905958353
 21
431.87856744920282
  0
LINE
  8
_0-1_0
  6
CONTINUOUS
 62
    9
 10
645.13129059583537
 20
461.37561744920265
 11
645.13129059583537
 21
471.37461744920267
  0
LINE
  8
_0-1_0
  6
CONTINUOUS
 62
    7
 10
674.1283905958353
 20
439.57779744920265
 11
666.12919059583567
 21
439.57779744920265
  0
LINE
  8
_0-1_0
  6
CONTINUOUS
 62
    9
 10
675.12829059583555
 20
441.37761744920283
 11
674.62834059583577
 21
441.37761744920283
  0
LINE
  8
_0-1_0
  6
CONTINUOUS
 62
    9
 10
665.1292905958353
 20
441.37761744920283
 11
665.62924059583577
 21
441.37761744920283
  0
LINE
  8
_0-1_0
  6
CONTINUOUS
 62
    7
 10
605.63524059583551
 20
453.45311517229993
 11
606.63514059583531
 21
453.45311517229993
  0
LINE
  8
_0-1_0
  6
CONTINUOUS
 62
    9
 10
605.13529059583573
 20
453.95306517229983
 11
606.63514059583531
 21
453.95306517229983
  0
LINE
  8
_0-1_0
  6
CONTINUOUS
 62
    7
 10
665.1292905958353
 20
431.87856744920282
 11
665.1292905958353
 21
441.37761744920283
  0
LINE
  8
_0-1_0
  6
CONTINUOUS
 62
    9
 10
665.62924059583577
 20
431.37861744920281
 11
665.62924059583577
 21
441.37761744920283
  0
LINE
  8
_0-1_0
  6
CONTINUOUS
 62
    7
 10
666.12919059583567
 20
439.57779744920265
 11
666.12919059583567
 21
341.5875974492028
  0
LINE
  8
_0-1_0
  6
CONTINUOUS
 62
    7
 10
596.9361105958352
 20
461.85227517229987
 11
597.72766079865653
 21
461.85227517229987
  0
LINE
  8
_0-1_0
  6
CONTINUOUS
 62
    7
 10
596.9361105958352
 20
462.2490714126468
 11
597.85807771869031
 21
462.2490714126468
  0
LINE
  8
_0-1_0
  6
CONTINUOUS
 62
    7
 10
584.53501092800764
 20
462.32604910471366
 11
567.64932164793038
 21
462.32604910471366
  0
LINE
  8
_0-1_0
  6
CONTINUOUS
 62
    7
 10
596.9361105958352
 20
462.99444449727775
 11
597.72766079865653
 21
462.99444449727775
  0
LINE
  8
_0-1_0
  6
CONTINUOUS
 62
    7
 10
562.9395105958356
 20
463.75208517229964
 11
563.33064430734078
 21
463.75208517229964
  0
LINE
  8
_0-1_0
  6
CONTINUOUS
 62
    7
 10
586.57849093411562
 20
462.75218517229973
 11
586.48608873222929
 21
462.75460480909976
  0
LINE
  8
_0-1_0
  6
CONTINUOUS
 62
    7
 10
566.35043851711237
 20
463.28187536646783
 11
563.33064430734078
 21
463.36095146079469
  0
LINE
  8
_0-1_0
  6
CONTINUOUS
 62
    7
 10
562.9395105958356
 20
463.37119365738181
 11
559.40059909389367
 21
463.46386331645874
  0
LINE
  8
_0-1_0
  6
CONTINUOUS
 62
    7
 10
596.9361105958352
 20
462.99444449727775
 11
591.48054860053537
 21
463.20517151186277
  0
LINE
  8
_0-1_0
  6
CONTINUOUS
 62
    7
 10
596.9361105958352
 20
462.2490714126468
 11
586.88825839911942
 21
462.72412658843882
  0
LINE
  8
_0-1_0
  6
CONTINUOUS
 62
    7
 10
596.9361105958352
 20
461.85227517229987
 11
591.67588453771543
 21
462.12630393698566
  0
LINE
  8
_0-1_0
  6
CONTINUOUS
 62
    7
 10
586.4861323884694
 20
467.16309789085381
 11
584.53501092800764
 21
467.37820932604382
  0
LINE
  8
_0-1_0
  6
CONTINUOUS
 62
    7
 10
586.4861323884694
 20
467.33628565095182
 11
584.53501092800764
 21
467.55139708614183
  0
LINE
  8
_0-1_0
  6
CONTINUOUS
 62
    7
 10
591.67588453771543
 20
462.12630393698566
 11
586.57849093411562
 21
462.75218517229973
  0
LINE
  8
_0-1_0
  6
CONTINUOUS
 62
    7
 10
585.0099885003483
 20
468.67804005906191
 11
584.53501092800764
 21
468.76874123591574
  0
LINE
  8
_0-1_0
  6
CONTINUOUS
 62
    7
 10
674.1283905958353
 20
439.57779744920265
 11
674.1283905958353
 21
341.5875974492028
  0
LINE
  8
_0-1_0
  6
CONTINUOUS
 62
    9
 10
674.62834059583577
 20
431.37861744920281
 11
674.62834059583577
 21
441.37761744920283
  0
LINE
  8
_0-1_0
  6
CONTINUOUS
 62
    7
 10
675.12829059583555
 20
441.37761744920283
 11
675.12829059583555
 21
431.87856744920282
  0
LINE
  8
_0-1_0
  6
CONTINUOUS
 62
    7
 10
586.4861323884694
 20
462.75627197479093
 11
584.53501092800764
 21
462.32604910471366
  0
LINE
  8
_0-1_0
  6
CONTINUOUS
 62
    7
 10
596.9361105958352
 20
469.25469893195282
 11
586.88825839911942
 21
468.77964375616079
  0
LINE
  8
_0-1_0
  6
CONTINUOUS
 62
    7
 10
596.9361105958352
 20
468.50932584732175
 11
591.48054860053537
 21
468.29859883273673
  0
LINE
  8
_0-1_0
  6
CONTINUOUS
 62
    7
 10
586.57849093411562
 20
468.75158517229988
 11
584.86044573460549
 21
468.7065965755487
  0
LINE
  8
_0-1_0
  6
CONTINUOUS
 62
    7
 10
568.9389105958353
 20
468.28967650505888
 11
563.33064430734078
 21
468.14281888380492
  0
LINE
  8
_0-1_0
  6
CONTINUOUS
 62
    7
 10
562.9395105958356
 20
468.13257668721781
 11
559.40059909389367
 21
468.03990702814076
  0
LINE
  8
_0-1_0
  6
CONTINUOUS
 62
    7
 10
596.9361105958352
 20
466.10559216927481
 11
586.88825839911942
 21
465.99787264260783
  0
LINE
  8
_0-1_0
  6
CONTINUOUS
 62
    7
 10
583.43746059583566
 20
464.65199517229985
 11
584.84099601643811
 21
464.65199517229985
  0
LINE
  8
_0-1_0
  6
CONTINUOUS
 62
    7
 10
597.93601059583546
 20
464.65199517229985
 11
598.83959601643858
 21
464.65199517229985
  0
LINE
  8
_0-1_0
  6
CONTINUOUS
 62
    7
 10
599.43586059583561
 20
464.65199517229985
 11
600.83939601643851
 21
464.65199517229985
  0
LINE
  8
_0-1_0
  6
CONTINUOUS
 62
    7
 10
601.43566059583566
 20
464.65199517229985
 11
602.83919601643822
 21
464.65199517229985
  0
LINE
  8
_0-1_0
  6
CONTINUOUS
 62
    7
 10
603.43546059583525
 20
464.65199517229985
 11
604.83899601643861
 21
464.65199517229985
  0
LINE
  8
_0-1_0
  6
CONTINUOUS
 62
    7
 10
596.9361105958352
 20
465.39817817502171
 11
597.85807771869031
 21
465.39817817502171
  0
LINE
  8
_0-1_0
  6
CONTINUOUS
 62
    7
 10
591.67588453771543
 20
465.75188517229981
 11
597.72766079865653
 21
465.75188517229981
  0
LINE
  8
_0-1_0
  6
CONTINUOUS
 62
    7
 10
596.9361105958352
 20
466.10559216927481
 11
597.85807771869031
 21
466.10559216927481
  0
LINE
  8
_0-1_0
  6
CONTINUOUS
 62
    7
 10
598.53227583486353
 20
466.85177517229965
 11
599.93581059583539
 21
466.85177517229965
  0
LINE
  8
_0-1_0
  6
CONTINUOUS
 62
    7
 10
600.53207583486358
 20
466.85177517229965
 11
601.93561059583556
 21
466.85177517229965
  0
LINE
  8
_0-1_0
  6
CONTINUOUS
 62
    7
 10
602.53187583486363
 20
466.85177517229965
 11
603.93541059583549
 21
466.85177517229965
  0
LINE
  8
_0-1_0
  6
CONTINUOUS
 62
    7
 10
604.53167583486368
 20
466.85177517229965
 11
605.13529059583573
 21
466.85177517229965
  0
LINE
  8
_0-1_0
  6
CONTINUOUS
 62
    7
 10
584.53501092800764
 20
467.37820932604382
 11
567.64932164793038
 21
467.37820932604382
  0
LINE
  8
_0-1_0
  6
CONTINUOUS
 62
    7
 10
584.53501092800764
 20
467.55139708614183
 11
567.64932164793038
 21
467.55139708614183
  0
LINE
  8
_0-1_0
  6
CONTINUOUS
 62
    7
 10
562.9395105958356
 20
467.75168517229974
 11
563.33064430734078
 21
467.75168517229974
  0
LINE
  8
_0-1_0
  6
CONTINUOUS
 62
    7
 10
596.9361105958352
 20
468.50932584732175
 11
597.72766079865653
 21
468.50932584732175
  0
LINE
  8
_0-1_0
  6
CONTINUOUS
 62
    7
 10
584.53501092800764
 20
468.66875123591581
 11
567.64932164793038
 21
468.66875123591581
  0
LINE
  8
_0-1_0
  6
CONTINUOUS
 62
    7
 10
584.53501092800764
 20
468.76874123591574
 11
567.64932164793038
 21
468.76874123591574
  0
LINE
  8
_0-1_0
  6
CONTINUOUS
 62
    7
 10
596.9361105958352
 20
469.25469893195282
 11
597.85807771869031
 21
469.25469893195282
  0
LINE
  8
_0-1_0
  6
CONTINUOUS
 62
    7
 10
596.9361105958352
 20
469.65149517229963
 11
597.72766079865653
 21
469.65149517229963
  0
LINE
  8
_0-1_0
  6
CONTINUOUS
 62
    7
 10
596.9361105958352
 20
465.39817817502171
 11
586.88825839911942
 21
465.5058977019919
  0
LINE
  8
_0-1_0
  6
CONTINUOUS
 62
    7
 10
591.67588453771543
 20
469.37746640761384
 11
586.57849093411562
 21
468.75158517229988
  0
LINE
  8
_0-1_0
  6
CONTINUOUS
 62
    7
 10
596.9361105958352
 20
469.65149517229963
 11
591.67588453771543
 21
469.37746640761384
  0
LINE
  8
_0-1_0
  6
CONTINUOUS
 62
    9
 10
605.13529059583573
 20
476.95076517229973
 11
606.63514059583531
 21
476.95076517229973
  0
LINE
  8
_0-1_0
  6
CONTINUOUS
 62
    7
 10
606.63514059583531
 20
477.45071517229974
 11
605.63524059583551
 21
477.45071517229974
  0
LINE
  8
_0-1_0
  6
CONTINUOUS
 62
    7
 10
99.730175784297558
 20
341.5875974492028
 11
399.70017578429758
 21
341.5875974492028
  0
LINE
  8
_0-1_0
  6
CONTINUOUS
 62
    7
 10
99.730175784297558
 20
349.58679744920278
 11
399.70017578429758
 21
349.58679744920278
  0
LINE
  8
_0-1_0
  6
CONTINUOUS
 62
    7
 10
224.71767578429751
 20
476.95076517229973
 11
224.71767578429751
 21
453.95306517229983
  0
LINE
  8
_0-1_0
  6
CONTINUOUS
 62
    7
 10
234.71667578429754
 20
470.87465896671779
 11
234.71667578429754
 21
431.57859744920268
  0
LINE
  8
_0-1_0
  6
CONTINUOUS
 62
    9
 10
235.21662578429732
 20
431.37861744920281
 11
235.21662578429732
 21
471.37461744889993
  0
LINE
  8
_0-1_0
  6
CONTINUOUS
 62
    9
 10
264.21372578429742
 20
431.37861744920281
 11
264.21372578429742
 21
471.37461744889993
  0
LINE
  8
_0-1_0
  6
CONTINUOUS
 62
    7
 10
264.71367578429766
 20
431.57859744920268
 11
264.71367578429766
 21
470.87465919790679
  0
LINE
  8
_0-1_0
  6
CONTINUOUS
 62
    7
 10
274.71267578429763
 20
476.95076517229973
 11
274.71267578429763
 21
453.95306517229983
  0
LINE
  8
_0-1_0
  6
CONTINUOUS
 62
    7
 10
264.21372578429742
 20
431.37861744920281
 11
235.21662578429732
 21
431.37861744920281
  0
LINE
  8
_0-1_0
  6
CONTINUOUS
 62
    7
 10
388.23996212997338
 20
431.57859744920268
 11
264.71367578429766
 21
431.57859744920268
  0
LINE
  8
_0-1_0
  6
CONTINUOUS
 62
    7
 10
234.71667578429754
 20
431.57859744920268
 11
111.19038943892463
 21
431.57859744920268
  0
LINE
  8
_0-1_0
  6
CONTINUOUS
 62
    9
 10
264.71367578429766
 20
431.87856744920282
 11
234.71667578429754
 21
431.87856744920282
  0
LINE
  8
_0-1_0
  6
CONTINUOUS
 62
    7
 10
388.23996212997338
 20
439.57779744920265
 11
264.71367578429766
 21
439.57779744920265
  0
LINE
  8
_0-1_0
  6
CONTINUOUS
 62
    7
 10
234.71667578429754
 20
439.57779744920265
 11
111.19038943892463
 21
439.57779744920265
  0
LINE
  8
_0-1_0
  6
CONTINUOUS
 62
    9
 10
234.71667578429754
 20
441.37761744920283
 11
264.71367578429766
 21
441.37761744920283
  0
LINE
  8
_0-1_0
  6
CONTINUOUS
 62
    7
 10
225.21762578429764
 20
453.45311517229993
 11
234.71667578429754
 21
453.45311517229993
  0
LINE
  8
_0-1_0
  6
CONTINUOUS
 62
    7
 10
264.71367578429766
 20
453.45311517229993
 11
274.21272578429756
 21
453.45311517229993
  0
LINE
  8
_0-1_0
  6
CONTINUOUS
 62
    7
 10
235.21662578429732
 20
471.37461744889993
 11
264.21372578429742
 21
471.37461744889993
  0
LINE
  8
_0-1_0
  6
CONTINUOUS
 62
    7
 10
274.21272578429756
 20
477.45071517229974
 11
225.21762578429764
 21
477.45071517229974
  0
LINE
  8
_0-1_0
  6
CONTINUOUS
 62
    7
 10
79.73217578429751
 20
118.06316331535686
 11
79.73217578429751
 21
110.06396331535689
  0
LINE
  8
_0-1_0
  6
CONTINUOUS
 62
    9
 10
79.778978744745643
 20
110.06396331535689
 11
79.778978744745643
 21
118.06316331535686
  0
LINE
  8
_0-1_0
  6
CONTINUOUS
 62
    9
 10
92.218697839638651
 20
110.06396331535689
 11
92.218697839638651
 21
118.06316331535686
  0
LINE
  8
_0-1_0
  6
CONTINUOUS
 62
    9
 10
111.19038943892463
 20
110.06396331535689
 11
111.19038943892463
 21
118.06316331535686
  0
LINE
  8
_0-1_0
  6
CONTINUOUS
 62
    7
 10
264.21372578429742
 20
109.06406331535689
 11
235.21662578429732
 21
109.06406331535689
  0
LINE
  8
_0-1_0
  6
CONTINUOUS
 62
    7
 10
419.69630790504345
 20
110.06396331535689
 11
264.71367578429766
 21
110.06396331535689
  0
LINE
  8
_0-1_0
  6
CONTINUOUS
 62
    7
 10
234.71667578429754
 20
110.06396331535689
 11
79.73404366385455
 21
110.06396331535689
  0
LINE
  8
_0-1_0
  6
CONTINUOUS
 62
    7
 10
419.69630790504345
 20
118.06316331535686
 11
264.71367578429766
 21
118.06316331535686
  0
LINE
  8
_0-1_0
  6
CONTINUOUS
 62
    7
 10
234.71667578429754
 20
118.06316331535686
 11
79.73404366385455
 21
118.06316331535686
  0
LINE
  8
_0-1_0
  6
CONTINUOUS
 62
    7
 10
224.71767578429751
 20
177.55721331535688
 11
224.71767578429751
 21
178.5571133153569
  0
LINE
  8
_0-1_0
  6
CONTINUOUS
 62
    9
 10
225.21762578429764
 20
177.55721331535688
 11
225.21762578429764
 21
179.05706331535686
  0
LINE
  8
_0-1_0
  6
CONTINUOUS
 62
    7
 10
240.44894472068154
 20
216.54303226326186
 11
241.27853274449154
 21
217.84476831300179
  0
LINE
  8
_0-1_0
  6
CONTINUOUS
 62
    7
 10
240.54893472068153
 20
216.54303226326186
 11
241.37852274449142
 21
217.84476831300179
  0
LINE
  8
_0-1_0
  6
CONTINUOUS
 62
    7
 10
259.55502530820957
 20
200.15419768607887
 11
259.59590747261433
 21
200.17390485486186
  0
LINE
  8
_0-1_0
  6
CONTINUOUS
 62
    9
 10
234.71667578429754
 20
139.06106331535688
 11
264.71367578429766
 21
139.06106331535688
  0
LINE
  8
_0-1_0
  6
CONTINUOUS
 62
    7
 10
234.71667578429754
 20
109.56401331535687
 11
234.71667578429754
 21
139.06106331535688
  0
LINE
  8
_0-1_0
  6
CONTINUOUS
 62
    9
 10
235.21662578429732
 20
139.0609967186839
 11
235.21662578429732
 21
109.06406331535689
  0
LINE
  8
_0-1_0
  6
CONTINUOUS
 62
    7
 10
239.96298702494732
 20
187.25624331535687
 11
240.43804220043654
 21
197.30409551207276
  0
LINE
  8
_0-1_0
  6
CONTINUOUS
 62
    7
 10
239.56619078429742
 20
187.25624331535687
 11
239.84021954898355
 21
192.51646937317389
  0
LINE
  8
_0-1_0
  6
CONTINUOUS
 62
    7
 10
239.84021954898355
 20
192.51646937317389
 11
240.46610078429745
 21
197.61386297707691
  0
LINE
  8
_0-1_0
  6
CONTINUOUS
 62
    7
 10
242.56414641420645
 20
179.95107638753291
 11
242.51525241773163
 21
179.9265307968829
  0
LINE
  8
_0-1_0
  6
CONTINUOUS
 62
    7
 10
242.56414371356732
 20
185.95047502282091
 11
242.49056619205555
 21
185.91365292539888
  0
LINE
  8
_0-1_0
  6
CONTINUOUS
 62
    7
 10
242.56414371356732
 20
183.95067502282086
 11
242.49056619205555
 21
183.91385292539877
  0
LINE
  8
_0-1_0
  6
CONTINUOUS
 62
    7
 10
242.56414371356732
 20
181.95087502282087
 11
242.49056619205555
 21
181.91405292539889
  0
LINE
  8
_0-1_0
  6
CONTINUOUS
 62
    7
 10
257.56264371356752
 20
185.95047502282091
 11
257.48906619205542
 21
185.91365292539888
  0
LINE
  8
_0-1_0
  6
CONTINUOUS
 62
    7
 10
257.56264371356752
 20
183.95067502282086
 11
257.48906619205542
 21
183.91385292539877
  0
LINE
  8
_0-1_0
  6
CONTINUOUS
 62
    7
 10
244.36745771655643
 20
186.0622615375969
 11
244.44237033939345
 21
186.09974557487891
  0
LINE
  8
_0-1_0
  6
CONTINUOUS
 62
    7
 10
244.36745771655643
 20
184.0624615375969
 11
244.44237033939345
 21
184.09994557487886
  0
LINE
  8
_0-1_0
  6
CONTINUOUS
 62
    7
 10
244.36745771655643
 20
182.06266153759691
 11
244.44237033939345
 21
182.10014557487887
  0
LINE
  8
_0-1_0
  6
CONTINUOUS
 62
    7
 10
244.36745771655643
 20
180.06286153759686
 11
244.44237033939345
 21
180.10034557487887
  0
LINE
  8
_0-1_0
  6
CONTINUOUS
 62
    7
 10
259.36595771655635
 20
186.0622615375969
 11
259.44087033939343
 21
186.09974557487891
  0
LINE
  8
_0-1_0
  6
CONTINUOUS
 62
    7
 10
242.51525241773163
 20
179.9265307968829
 11
242.44815370342542
 21
179.89332471115688
  0
LINE
  8
_0-1_0
  6
CONTINUOUS
 62
    7
 10
242.15027733919243
 20
183.75058463598191
 11
242.12649835520733
 21
183.73886877041286
  0
LINE
  8
_0-1_0
  6
CONTINUOUS
 62
    7
 10
242.12649835520733
 20
183.73886877041286
 11
242.10458637207955
 21
183.72731748080889
  0
LINE
  8
_0-1_0
  6
CONTINUOUS
 62
    7
 10
242.10458637207955
 20
183.72731748080889
 11
242.08453126112454
 21
183.71596779922379
  0
LINE
  8
_0-1_0
  6
CONTINUOUS
 62
    7
 10
242.08453126112454
 20
183.71596779922379
 11
242.06612013514842
 21
183.70474463589477
  0
LINE
  8
_0-1_0
  6
CONTINUOUS
 62
    7
 10
242.06612013514842
 20
183.70474463589477
 11
242.04899031315051
 21
183.69344718969188
  0
LINE
  8
_0-1_0
  6
CONTINUOUS
 62
    7
 10
242.04899031315051
 20
183.69344718969188
 11
242.03308901828751
 21
183.68203813192389
  0
LINE
  8
_0-1_0
  6
CONTINUOUS
 62
    7
 10
242.03308901828751
 20
183.68203813192389
 11
242.01837644302532
 21
183.67048452588489
  0
LINE
  8
_0-1_0
  6
CONTINUOUS
 62
    7
 10
242.01837644302532
 20
183.67048452588489
 11
242.00460368528735
 21
183.6585583564999
  0
LINE
  8
_0-1_0
  6
CONTINUOUS
 62
    7
 10
242.00460368528735
 20
183.6585583564999
 11
241.99170113112643
 21
183.64611640748586
  0
LINE
  8
_0-1_0
  6
CONTINUOUS
 62
    7
 10
241.99170113112643
 20
183.64611640748586
 11
241.97979695923851
 21
183.6331826373559
  0
LINE
  8
_0-1_0
  6
CONTINUOUS
 62
    7
 10
241.97979695923851
 20
183.6331826373559
 11
241.96897805729742
 21
183.61976032184276
  0
LINE
  8
_0-1_0
  6
CONTINUOUS
 62
    7
 10
241.96897805729742
 20
183.61976032184276
 11
241.95923425147254
 21
183.60572450950389
  0
LINE
  8
_0-1_0
  6
CONTINUOUS
 62
    7
 10
241.95923425147254
 20
183.60572450950389
 11
241.95068387114134
 21
183.59110634692087
  0
LINE
  8
_0-1_0
  6
CONTINUOUS
 62
    7
 10
241.95068387114134
 20
183.59110634692087
 11
241.94353595994346
 21
183.57619296749891
  0
LINE
  8
_0-1_0
  6
CONTINUOUS
 62
    7
 10
241.94353595994346
 20
183.57619296749891
 11
241.93784210726454
 21
183.56114159642277
  0
LINE
  8
_0-1_0
  6
CONTINUOUS
 62
    7
 10
241.93784210726454
 20
183.56114159642277
 11
241.93354479400841
 21
183.54585897362591
  0
LINE
  8
_0-1_0
  6
CONTINUOUS
 62
    7
 10
241.93354479400841
 20
183.54585897362591
 11
241.93064668687845
 21
183.5303210884789
  0
LINE
  8
_0-1_0
  6
CONTINUOUS
 62
    7
 10
241.93064668687845
 20
183.5303210884789
 11
241.92918062410541
 21
183.51458703537486
  0
LINE
  8
_0-1_0
  6
CONTINUOUS
 62
    7
 10
241.92918062410541
 20
183.51458703537486
 11
241.92917587003546
 21
183.4987444449439
  0
LINE
  8
_0-1_0
  6
CONTINUOUS
 62
    7
 10
241.92917587003546
 20
183.4987444449439
 11
241.93065733278365
 21
183.4828345170049
  0
LINE
  8
_0-1_0
  6
CONTINUOUS
 62
    7
 10
241.93065733278365
 20
183.4828345170049
 11
241.93366386816052
 21
183.46687068021487
  0
LINE
  8
_0-1_0
  6
CONTINUOUS
 62
    7
 10
241.93366386816052
 20
183.46687068021487
 11
241.93820588633753
 21
183.45100374615777
  0
LINE
  8
_0-1_0
  6
CONTINUOUS
 62
    7
 10
241.93820588633753
 20
183.45100374615777
 11
241.94422600790142
 21
183.43545296623989
  0
LINE
  8
_0-1_0
  6
CONTINUOUS
 62
    7
 10
241.94422600790142
 20
183.43545296623989
 11
241.95170089155056
 21
183.42024056641986
  0
LINE
  8
_0-1_0
  6
CONTINUOUS
 62
    7
 10
241.95170089155056
 20
183.42024056641986
 11
241.96060282732833
 21
183.40539760480391
  0
LINE
  8
_0-1_0
  6
CONTINUOUS
 62
    7
 10
241.96060282732833
 20
183.40539760480391
 11
241.97079761108154
 21
183.39108189803289
  0
LINE
  8
_0-1_0
  6
CONTINUOUS
 62
    7
 10
241.97079761108154
 20
183.39108189803289
 11
241.98221107719667
 21
183.37729617159187
  0
LINE
  8
_0-1_0
  6
CONTINUOUS
 62
    7
 10
241.98221107719667
 20
183.37729617159187
 11
241.99485707125842
 21
183.36394368970076
  0
LINE
  8
_0-1_0
  6
CONTINUOUS
 62
    7
 10
241.99485707125842
 20
183.36394368970076
 11
242.00871267374151
 21
183.35098980067386
  0
LINE
  8
_0-1_0
  6
CONTINUOUS
 62
    7
 10
242.00871267374151
 20
183.35098980067386
 11
242.02374701439936
 21
183.33840797958788
  0
LINE
  8
_0-1_0
  6
CONTINUOUS
 62
    7
 10
242.02374701439936
 20
183.33840797958788
 11
242.04001920974451
 21
183.32610372134877
  0
LINE
  8
_0-1_0
  6
CONTINUOUS
 62
    7
 10
242.04001920974451
 20
183.32610372134877
 11
242.05766191620643
 21
183.31395559931286
  0
LINE
  8
_0-1_0
  6
CONTINUOUS
 62
    7
 10
242.05766191620643
 20
183.31395559931286
 11
242.07673329039335
 21
183.30191820377888
  0
LINE
  8
_0-1_0
  6
CONTINUOUS
 62
    7
 10
242.07673329039335
 20
183.30191820377888
 11
242.09728811834134
 21
183.28995509869378
  0
LINE
  8
_0-1_0
  6
CONTINUOUS
 62
    7
 10
242.09728811834134
 20
183.28995509869378
 11
242.11946798498155
 21
183.27798809278687
  0
LINE
  8
_0-1_0
  6
CONTINUOUS
 62
    7
 10
242.11946798498155
 20
183.27798809278687
 11
242.14336499534443
 21
183.26597901896588
  0
LINE
  8
_0-1_0
  6
CONTINUOUS
 62
    7
 10
242.14336499534443
 20
183.26597901896588
 11
242.15848209711936
 21
183.25877895752888
  0
LINE
  8
_0-1_0
  6
CONTINUOUS
 62
    7
 10
257.14877733919235
 20
183.75058463598191
 11
257.12499835520754
 21
183.73886877041286
  0
LINE
  8
_0-1_0
  6
CONTINUOUS
 62
    7
 10
257.12499835520754
 20
183.73886877041286
 11
257.10308637207942
 21
183.72731748080889
  0
LINE
  8
_0-1_0
  6
CONTINUOUS
 62
    7
 10
257.10308637207942
 20
183.72731748080889
 11
257.08303126112452
 21
183.71596779922379
  0
LINE
  8
_0-1_0
  6
CONTINUOUS
 62
    7
 10
257.08303126112452
 20
183.71596779922379
 11
257.06462013514835
 21
183.70474463589477
  0
LINE
  8
_0-1_0
  6
CONTINUOUS
 62
    7
 10
257.06462013514835
 20
183.70474463589477
 11
257.04749031315043
 21
183.69344718969188
  0
LINE
  8
_0-1_0
  6
CONTINUOUS
 62
    7
 10
257.04749031315043
 20
183.69344718969188
 11
257.03158901828743
 21
183.68203813192389
  0
LINE
  8
_0-1_0
  6
CONTINUOUS
 62
    7
 10
257.03158901828743
 20
183.68203813192389
 11
257.01687644302552
 21
183.67048452588489
  0
LINE
  8
_0-1_0
  6
CONTINUOUS
 62
    7
 10
257.01687644302552
 20
183.67048452588489
 11
257.00310368528756
 21
183.6585583564999
  0
LINE
  8
_0-1_0
  6
CONTINUOUS
 62
    7
 10
257.00310368528756
 20
183.6585583564999
 11
256.99020113112653
 21
183.64611640748586
  0
LINE
  8
_0-1_0
  6
CONTINUOUS
 62
    7
 10
256.99020113112653
 20
183.64611640748586
 11
256.97829695923843
 21
183.6331826373559
  0
LINE
  8
_0-1_0
  6
CONTINUOUS
 62
    7
 10
256.97829695923843
 20
183.6331826373559
 11
256.96747805729734
 21
183.61976032184276
  0
LINE
  8
_0-1_0
  6
CONTINUOUS
 62
    7
 10
256.96747805729734
 20
183.61976032184276
 11
256.95773425147246
 21
183.60572450950389
  0
LINE
  8
_0-1_0
  6
CONTINUOUS
 62
    7
 10
256.95773425147246
 20
183.60572450950389
 11
256.94918387114154
 21
183.59110634692087
  0
LINE
  8
_0-1_0
  6
CONTINUOUS
 62
    7
 10
256.94918387114154
 20
183.59110634692087
 11
256.94203595994367
 21
183.57619296749891
  0
LINE
  8
_0-1_0
  6
CONTINUOUS
 62
    7
 10
256.94203595994367
 20
183.57619296749891
 11
256.93634210726447
 21
183.56114159642277
  0
LINE
  8
_0-1_0
  6
CONTINUOUS
 62
    7
 10
256.93634210726447
 20
183.56114159642277
 11
256.93204479400862
 21
183.54585897362591
  0
LINE
  8
_0-1_0
  6
CONTINUOUS
 62
    7
 10
256.93204479400862
 20
183.54585897362591
 11
256.92914668687865
 21
183.5303210884789
  0
LINE
  8
_0-1_0
  6
CONTINUOUS
 62
    7
 10
256.92914668687865
 20
183.5303210884789
 11
256.92768062410562
 21
183.51458703537486
  0
LINE
  8
_0-1_0
  6
CONTINUOUS
 62
    7
 10
256.92768062410562
 20
183.51458703537486
 11
256.92767587003556
 21
183.4987444449439
  0
LINE
  8
_0-1_0
  6
CONTINUOUS
 62
    7
 10
256.92767587003556
 20
183.4987444449439
 11
256.92915733278352
 21
183.4828345170049
  0
LINE
  8
_0-1_0
  6
CONTINUOUS
 62
    7
 10
256.92915733278352
 20
183.4828345170049
 11
256.93216386816044
 21
183.46687068021487
  0
LINE
  8
_0-1_0
  6
CONTINUOUS
 62
    7
 10
256.93216386816044
 20
183.46687068021487
 11
256.93670588633745
 21
183.45100374615777
  0
LINE
  8
_0-1_0
  6
CONTINUOUS
 62
    7
 10
256.93670588633745
 20
183.45100374615777
 11
256.94272600790146
 21
183.43545296623989
  0
LINE
  8
_0-1_0
  6
CONTINUOUS
 62
    7
 10
256.94272600790146
 20
183.43545296623989
 11
256.95020089155042
 21
183.42024056641986
  0
LINE
  8
_0-1_0
  6
CONTINUOUS
 62
    7
 10
256.95020089155042
 20
183.42024056641986
 11
256.95910282732854
 21
183.40539760480391
  0
LINE
  8
_0-1_0
  6
CONTINUOUS
 62
    7
 10
256.95910282732854
 20
183.40539760480391
 11
256.96929761108146
 21
183.39108189803289
  0
LINE
  8
_0-1_0
  6
CONTINUOUS
 62
    7
 10
256.96929761108146
 20
183.39108189803289
 11
256.98071107719653
 21
183.37729617159187
  0
LINE
  8
_0-1_0
  6
CONTINUOUS
 62
    7
 10
256.98071107719653
 20
183.37729617159187
 11
256.99335707125834
 21
183.36394368970076
  0
LINE
  8
_0-1_0
  6
CONTINUOUS
 62
    7
 10
256.99335707125834
 20
183.36394368970076
 11
257.00721267374144
 21
183.35098980067386
  0
LINE
  8
_0-1_0
  6
CONTINUOUS
 62
    7
 10
257.00721267374144
 20
183.35098980067386
 11
257.02224701439951
 21
183.33840797958788
  0
LINE
  8
_0-1_0
  6
CONTINUOUS
 62
    7
 10
257.02224701439951
 20
183.33840797958788
 11
257.03851920974455
 21
183.32610372134877
  0
LINE
  8
_0-1_0
  6
CONTINUOUS
 62
    7
 10
257.03851920974455
 20
183.32610372134877
 11
257.05616191620646
 21
183.31395559931286
  0
LINE
  8
_0-1_0
  6
CONTINUOUS
 62
    7
 10
257.05616191620646
 20
183.31395559931286
 11
257.07523329039356
 21
183.30191820377888
  0
LINE
  8
_0-1_0
  6
CONTINUOUS
 62
    7
 10
257.07523329039356
 20
183.30191820377888
 11
257.09578811834155
 21
183.28995509869378
  0
LINE
  8
_0-1_0
  6
CONTINUOUS
 62
    7
 10
257.09578811834155
 20
183.28995509869378
 11
257.11796798498153
 21
183.27798809278687
  0
LINE
  8
_0-1_0
  6
CONTINUOUS
 62
    7
 10
257.11796798498153
 20
183.27798809278687
 11
257.14186499534446
 21
183.26597901896588
  0
LINE
  8
_0-1_0
  6
CONTINUOUS
 62
    7
 10
257.14186499534446
 20
183.26597901896588
 11
257.15698209711957
 21
183.25877895752888
  0
LINE
  8
_0-1_0
  6
CONTINUOUS
 62
    7
 10
242.15074658680862
 20
185.75060857903986
 11
242.12693209485951
 21
185.73888940713488
  0
LINE
  8
_0-1_0
  6
CONTINUOUS
 62
    7
 10
242.12693209485951
 20
185.73888940713488
 11
242.10454354393852
 21
185.72709384468789
  0
LINE
  8
_0-1_0
  6
CONTINUOUS
 62
    7
 10
242.10454354393852
 20
185.72709384468789
 11
242.08355685918042
 21
185.71519491985089
  0
LINE
  8
_0-1_0
  6
CONTINUOUS
 62
    7
 10
242.08355685918042
 20
185.71519491985089
 11
242.06394969342642
 21
185.70316283196786
  0
LINE
  8
_0-1_0
  6
CONTINUOUS
 62
    7
 10
242.06394969342642
 20
185.70316283196786
 11
242.04567709329336
 21
185.6909497315819
  0
LINE
  8
_0-1_0
  6
CONTINUOUS
 62
    7
 10
242.04567709329336
 20
185.6909497315819
 11
242.02869841708844
 21
185.67850133230377
  0
LINE
  8
_0-1_0
  6
CONTINUOUS
 62
    7
 10
242.02869841708844
 20
185.67850133230377
 11
242.01299765550345
 21
185.6657711233309
  0
LINE
  8
_0-1_0
  6
CONTINUOUS
 62
    7
 10
242.01299765550345
 20
185.6657711233309
 11
241.99854600081335
 21
185.65269190168686
  0
LINE
  8
_0-1_0
  6
CONTINUOUS
 62
    7
 10
241.99854600081335
 20
185.65269190168686
 11
241.98529668527146
 21
185.63915998864991
  0
LINE
  8
_0-1_0
  6
CONTINUOUS
 62
    7
 10
241.98529668527146
 20
185.63915998864991
 11
241.97329598152243
 21
185.6251451342149
  0
LINE
  8
_0-1_0
  6
CONTINUOUS
 62
    7
 10
241.97329598152243
 20
185.6251451342149
 11
241.96263963877851
 21
185.61069036074588
  0
LINE
  8
_0-1_0
  6
CONTINUOUS
 62
    7
 10
241.96263963877851
 20
185.61069036074588
 11
241.95337482262545
 21
185.59580709285791
  0
LINE
  8
_0-1_0
  6
CONTINUOUS
 62
    7
 10
241.95337482262545
 20
185.59580709285791
 11
241.94549967234053
 21
185.58042372831778
  0
LINE
  8
_0-1_0
  6
CONTINUOUS
 62
    7
 10
241.94549967234053
 20
185.58042372831778
 11
241.93905727906855
 21
185.56450542576187
  0
LINE
  8
_0-1_0
  6
CONTINUOUS
 62
    7
 10
241.93905727906855
 20
185.56450542576187
 11
241.93412593073765
 21
185.54806969101486
  0
LINE
  8
_0-1_0
  6
CONTINUOUS
 62
    7
 10
241.93412593073765
 20
185.54806969101486
 11
241.93079751330953
 21
185.53118080310287
  0
LINE
  8
_0-1_0
  6
CONTINUOUS
 62
    7
 10
241.93079751330953
 20
185.53118080310287
 11
241.92915973649752
 21
185.51393524692179
  0
LINE
  8
_0-1_0
  6
CONTINUOUS
 62
    7
 10
241.92915973649752
 20
185.51393524692179
 11
241.92929165603147
 21
185.49635255445787
  0
LINE
  8
_0-1_0
  6
CONTINUOUS
 62
    7
 10
241.92929165603147
 20
185.49635255445787
 11
241.93126792414256
 21
185.4786287264119
  0
LINE
  8
_0-1_0
  6
CONTINUOUS
 62
    7
 10
241.93126792414256
 20
185.4786287264119
 11
241.93506830830853
 21
185.46113932037588
  0
LINE
  8
_0-1_0
  6
CONTINUOUS
 62
    7
 10
241.93506830830853
 20
185.46113932037588
 11
241.94063371080352
 21
185.44402553556188
  0
LINE
  8
_0-1_0
  6
CONTINUOUS
 62
    7
 10
241.94063371080352
 20
185.44402553556188
 11
241.94793030925263
 21
185.4273033624919
  0
LINE
  8
_0-1_0
  6
CONTINUOUS
 62
    7
 10
241.94793030925263
 20
185.4273033624919
 11
241.95687434688045
 21
185.41108696065788
  0
LINE
  8
_0-1_0
  6
CONTINUOUS
 62
    7
 10
241.95687434688045
 20
185.41108696065788
 11
241.96743769619752
 21
185.39535304360089
  0
LINE
  8
_0-1_0
  6
CONTINUOUS
 62
    7
 10
241.96743769619752
 20
185.39535304360089
 11
241.97959370471756
 21
185.38008977917087
  0
LINE
  8
_0-1_0
  6
CONTINUOUS
 62
    7
 10
241.97959370471756
 20
185.38008977917087
 11
241.99325187058236
 21
185.36534748263887
  0
LINE
  8
_0-1_0
  6
CONTINUOUS
 62
    7
 10
241.99325187058236
 20
185.36534748263887
 11
242.00839230487242
 21
185.35107363804491
  0
LINE
  8
_0-1_0
  6
CONTINUOUS
 62
    7
 10
242.00839230487242
 20
185.35107363804491
 11
242.02506598430733
 21
185.33716456606089
  0
LINE
  8
_0-1_0
  6
CONTINUOUS
 62
    7
 10
242.02506598430733
 20
185.33716456606089
 11
242.04327195534654
 21
185.32357903808287
  0
LINE
  8
_0-1_0
  6
CONTINUOUS
 62
    7
 10
242.04327195534654
 20
185.32357903808287
 11
242.06301130000253
 21
185.31027560916488
  0
LINE
  8
_0-1_0
  6
CONTINUOUS
 62
    7
 10
242.06301130000253
 20
185.31027560916488
 11
242.08436736509134
 21
185.29716507853078
  0
LINE
  8
_0-1_0
  6
CONTINUOUS
 62
    7
 10
242.08436736509134
 20
185.29716507853078
 11
242.10743593800345
 21
185.28417047175788
  0
LINE
  8
_0-1_0
  6
CONTINUOUS
 62
    7
 10
242.10743593800345
 20
185.28417047175788
 11
242.13225415199446
 21
185.27125993809187
  0
LINE
  8
_0-1_0
  6
CONTINUOUS
 62
    7
 10
242.13225415199446
 20
185.27125993809187
 11
242.15857263745835
 21
185.25853694324587
  0
LINE
  8
_0-1_0
  6
CONTINUOUS
 62
    7
 10
257.14924658680854
 20
185.75060857903986
 11
257.12543209485955
 21
185.73888940713488
  0
LINE
  8
_0-1_0
  6
CONTINUOUS
 62
    7
 10
257.12543209485955
 20
185.73888940713488
 11
257.10304354393855
 21
185.72709384468789
  0
LINE
  8
_0-1_0
  6
CONTINUOUS
 62
    7
 10
257.10304354393855
 20
185.72709384468789
 11
257.08205685918034
 21
185.71519491985089
  0
LINE
  8
_0-1_0
  6
CONTINUOUS
 62
    7
 10
257.08205685918034
 20
185.71519491985089
 11
257.06244969342663
 21
185.70316283196786
  0
LINE
  8
_0-1_0
  6
CONTINUOUS
 62
    7
 10
257.06244969342663
 20
185.70316283196786
 11
257.04417709329351
 21
185.6909497315819
  0
LINE
  8
_0-1_0
  6
CONTINUOUS
 62
    7
 10
257.04417709329351
 20
185.6909497315819
 11
257.02719841708836
 21
185.67850133230377
  0
LINE
  8
_0-1_0
  6
CONTINUOUS
 62
    7
 10
257.02719841708836
 20
185.67850133230377
 11
257.01149765550355
 21
185.6657711233309
  0
LINE
  8
_0-1_0
  6
CONTINUOUS
 62
    7
 10
257.01149765550355
 20
185.6657711233309
 11
256.99704600081355
 21
185.65269190168686
  0
LINE
  8
_0-1_0
  6
CONTINUOUS
 62
    7
 10
256.99704600081355
 20
185.65269190168686
 11
256.98379668527156
 21
185.63915998864991
  0
LINE
  8
_0-1_0
  6
CONTINUOUS
 62
    7
 10
256.98379668527156
 20
185.63915998864991
 11
256.97179598152252
 21
185.6251451342149
  0
LINE
  8
_0-1_0
  6
CONTINUOUS
 62
    7
 10
256.97179598152252
 20
185.6251451342149
 11
256.96113963877843
 21
185.61069036074588
  0
LINE
  8
_0-1_0
  6
CONTINUOUS
 62
    7
 10
256.96113963877843
 20
185.61069036074588
 11
256.95187482262565
 21
185.59580709285791
  0
LINE
  8
_0-1_0
  6
CONTINUOUS
 62
    7
 10
256.95187482262565
 20
185.59580709285791
 11
256.94399967234045
 21
185.58042372831778
  0
LINE
  8
_0-1_0
  6
CONTINUOUS
 62
    7
 10
256.94399967234045
 20
185.58042372831778
 11
256.93755727906841
 21
185.56450542576187
  0
LINE
  8
_0-1_0
  6
CONTINUOUS
 62
    7
 10
256.93755727906841
 20
185.56450542576187
 11
256.93262593073752
 21
185.54806969101486
  0
LINE
  8
_0-1_0
  6
CONTINUOUS
 62
    7
 10
256.93262593073752
 20
185.54806969101486
 11
256.92929751330945
 21
185.53118080310287
  0
LINE
  8
_0-1_0
  6
CONTINUOUS
 62
    7
 10
256.92929751330945
 20
185.53118080310287
 11
256.92765973649745
 21
185.51393524692179
  0
LINE
  8
_0-1_0
  6
CONTINUOUS
 62
    7
 10
256.92765973649745
 20
185.51393524692179
 11
256.92779165603133
 21
185.49635255445787
  0
LINE
  8
_0-1_0
  6
CONTINUOUS
 62
    7
 10
256.92779165603133
 20
185.49635255445787
 11
256.92976792414254
 21
185.4786287264119
  0
LINE
  8
_0-1_0
  6
CONTINUOUS
 62
    7
 10
256.92976792414254
 20
185.4786287264119
 11
256.93356830830845
 21
185.46113932037588
  0
LINE
  8
_0-1_0
  6
CONTINUOUS
 62
    7
 10
256.93356830830845
 20
185.46113932037588
 11
256.93913371080345
 21
185.44402553556188
  0
LINE
  8
_0-1_0
  6
CONTINUOUS
 62
    7
 10
256.93913371080345
 20
185.44402553556188
 11
256.94643030925232
 21
185.4273033624919
  0
LINE
  8
_0-1_0
  6
CONTINUOUS
 62
    7
 10
256.94643030925232
 20
185.4273033624919
 11
256.95537434688066
 21
185.41108696065788
  0
LINE
  8
_0-1_0
  6
CONTINUOUS
 62
    7
 10
256.95537434688066
 20
185.41108696065788
 11
256.96593769619756
 21
185.39535304360089
  0
LINE
  8
_0-1_0
  6
CONTINUOUS
 62
    7
 10
256.96593769619756
 20
185.39535304360089
 11
256.97809370471742
 21
185.38008977917087
  0
LINE
  8
_0-1_0
  6
CONTINUOUS
 62
    7
 10
256.97809370471742
 20
185.38008977917087
 11
256.99175187058256
 21
185.36534748263887
  0
LINE
  8
_0-1_0
  6
CONTINUOUS
 62
    7
 10
256.99175187058256
 20
185.36534748263887
 11
257.00689230487262
 21
185.35107363804491
  0
LINE
  8
_0-1_0
  6
CONTINUOUS
 62
    7
 10
257.00689230487262
 20
185.35107363804491
 11
257.02356598430754
 21
185.33716456606089
  0
LINE
  8
_0-1_0
  6
CONTINUOUS
 62
    7
 10
257.02356598430754
 20
185.33716456606089
 11
257.04177195534646
 21
185.32357903808287
  0
LINE
  8
_0-1_0
  6
CONTINUOUS
 62
    7
 10
257.04177195534646
 20
185.32357903808287
 11
257.06151130000256
 21
185.31027560916488
  0
LINE
  8
_0-1_0
  6
CONTINUOUS
 62
    7
 10
257.06151130000256
 20
185.31027560916488
 11
257.08286736509154
 21
185.29716507853078
  0
LINE
  8
_0-1_0
  6
CONTINUOUS
 62
    7
 10
257.08286736509154
 20
185.29716507853078
 11
257.10593593800331
 21
185.28417047175788
  0
LINE
  8
_0-1_0
  6
CONTINUOUS
 62
    7
 10
257.10593593800331
 20
185.28417047175788
 11
257.13075415199467
 21
185.27125993809187
  0
LINE
  8
_0-1_0
  6
CONTINUOUS
 62
    7
 10
257.13075415199467
 20
185.27125993809187
 11
257.15707263745855
 21
185.25853694324587
  0
LINE
  8
_0-1_0
  6
CONTINUOUS
 62
    7
 10
242.49056619205555
 20
185.91365292539888
 11
242.39658361670746
 21
185.8675382536909
  0
LINE
  8
_0-1_0
  6
CONTINUOUS
 62
    7
 10
242.49056619205555
 20
183.91385292539877
 11
242.39658361670746
 21
183.8677382536909
  0
LINE
  8
_0-1_0
  6
CONTINUOUS
 62
    7
 10
242.49056619205555
 20
181.91405292539889
 11
242.39658361670746
 21
181.86793825369091
  0
LINE
  8
_0-1_0
  6
CONTINUOUS
 62
    7
 10
257.48906619205542
 20
185.91365292539888
 11
257.39508361670732
 21
185.8675382536909
  0
LINE
  8
_0-1_0
  6
CONTINUOUS
 62
    7
 10
257.48906619205542
 20
183.91385292539877
 11
257.39508361670732
 21
183.8677382536909
  0
LINE
  8
_0-1_0
  6
CONTINUOUS
 62
    7
 10
244.44237033939345
 20
186.09974557487891
 11
244.53634794614754
 21
186.14584439150588
  0
LINE
  8
_0-1_0
  6
CONTINUOUS
 62
    7
 10
244.44237033939345
 20
184.09994557487886
 11
244.53634794614754
 21
184.14604439150577
  0
LINE
  8
_0-1_0
  6
CONTINUOUS
 62
    7
 10
244.44237033939345
 20
182.10014557487887
 11
244.53634794614754
 21
182.14624439150577
  0
LINE
  8
_0-1_0
  6
CONTINUOUS
 62
    7
 10
244.44237033939345
 20
180.10034557487887
 11
244.53634794614754
 21
180.1464443915059
  0
LINE
  8
_0-1_0
  6
CONTINUOUS
 62
    7
 10
259.44087033939343
 20
186.09974557487891
 11
259.53484794614752
 21
186.14584439150588
  0
LINE
  8
_0-1_0
  6
CONTINUOUS
 62
    7
 10
244.77579450606652
 20
184.2599329242409
 11
244.80288694200647
 21
184.27314255193386
  0
LINE
  8
_0-1_0
  6
CONTINUOUS
 62
    7
 10
244.80288694200647
 20
184.27314255193386
 11
244.82798207739353
 21
184.28634799307588
  0
LINE
  8
_0-1_0
  6
CONTINUOUS
 62
    7
 10
244.82798207739353
 20
184.28634799307588
 11
244.85112684117036
 21
184.29956943564787
  0
LINE
  8
_0-1_0
  6
CONTINUOUS
 62
    7
 10
244.85112684117036
 20
184.29956943564787
 11
244.87242643917955
 21
184.31286250378389
  0
LINE
  8
_0-1_0
  6
CONTINUOUS
 62
    7
 10
244.87242643917955
 20
184.31286250378389
 11
244.89200685609336
 21
184.32630983467391
  0
LINE
  8
_0-1_0
  6
CONTINUOUS
 62
    7
 10
244.89200685609336
 20
184.32630983467391
 11
244.90994276565664
 21
184.33997844010088
  0
LINE
  8
_0-1_0
  6
CONTINUOUS
 62
    7
 10
244.90994276565664
 20
184.33997844010088
 11
244.92628644021653
 21
184.35393107166777
  0
LINE
  8
_0-1_0
  6
CONTINUOUS
 62
    7
 10
244.92628644021653
 20
184.35393107166777
 11
244.94112690390062
 21
184.3682811359119
  0
LINE
  8
_0-1_0
  6
CONTINUOUS
 62
    7
 10
244.94112690390062
 20
184.3682811359119
 11
244.95453363885065
 21
184.38316752833589
  0
LINE
  8
_0-1_0
  6
CONTINUOUS
 62
    7
 10
244.95453363885065
 20
184.38316752833589
 11
244.96643979508565
 21
184.39861061781187
  0
LINE
  8
_0-1_0
  6
CONTINUOUS
 62
    7
 10
244.96643979508565
 20
184.39861061781187
 11
244.97672694838855
 21
184.4145284185999
  0
LINE
  8
_0-1_0
  6
CONTINUOUS
 62
    7
 10
244.97672694838855
 20
184.4145284185999
 11
244.98538045022451
 21
184.43095631352486
  0
LINE
  8
_0-1_0
  6
CONTINUOUS
 62
    7
 10
244.98538045022451
 20
184.43095631352486
 11
244.99235024469056
 21
184.44788201684588
  0
LINE
  8
_0-1_0
  6
CONTINUOUS
 62
    7
 10
244.99235024469056
 20
184.44788201684588
 11
244.99752307584066
 21
184.46505699038886
  0
LINE
  8
_0-1_0
  6
CONTINUOUS
 62
    7
 10
244.99752307584066
 20
184.46505699038886
 11
245.00089356118252
 21
184.48237865653391
  0
LINE
  8
_0-1_0
  6
CONTINUOUS
 62
    7
 10
245.00089356118252
 20
184.48237865653391
 11
245.00247364164352
 21
184.49977189461191
  0
LINE
  8
_0-1_0
  6
CONTINUOUS
 62
    7
 10
245.00247364164352
 20
184.49977189461191
 11
245.00228727149442
 21
184.51696027802586
  0
LINE
  8
_0-1_0
  6
CONTINUOUS
 62
    7
 10
245.00228727149442
 20
184.51696027802586
 11
245.00043159617144
 21
184.53370741556887
  0
LINE
  8
_0-1_0
  6
CONTINUOUS
 62
    7
 10
245.00043159617144
 20
184.53370741556887
 11
244.99699669090853
 21
184.55005376864887
  0
LINE
  8
_0-1_0
  6
CONTINUOUS
 62
    7
 10
244.99699669090853
 20
184.55005376864887
 11
244.99199222564744
 21
184.56615159809888
  0
LINE
  8
_0-1_0
  6
CONTINUOUS
 62
    7
 10
244.99199222564744
 20
184.56615159809888
 11
244.98537153384342
 21
184.58209919772486
  0
LINE
  8
_0-1_0
  6
CONTINUOUS
 62
    7
 10
244.98537153384342
 20
184.58209919772486
 11
244.97719986957645
 21
184.59769701990791
  0
LINE
  8
_0-1_0
  6
CONTINUOUS
 62
    7
 10
244.97719986957645
 20
184.59769701990791
 11
244.96763949298253
 21
184.6127152336939
  0
LINE
  8
_0-1_0
  6
CONTINUOUS
 62
    7
 10
244.96763949298253
 20
184.6127152336939
 11
244.95674852249164
 21
184.62718118149979
  0
LINE
  8
_0-1_0
  6
CONTINUOUS
 62
    7
 10
244.95674852249164
 20
184.62718118149979
 11
244.94455793439954
 21
184.64114681782689
  0
LINE
  8
_0-1_0
  6
CONTINUOUS
 62
    7
 10
244.94455793439954
 20
184.64114681782689
 11
244.93127524674043
 21
184.65448713699487
  0
LINE
  8
_0-1_0
  6
CONTINUOUS
 62
    7
 10
244.93127524674043
 20
184.65448713699487
 11
244.91708489167542
 21
184.66716315320588
  0
LINE
  8
_0-1_0
  6
CONTINUOUS
 62
    7
 10
244.91708489167542
 20
184.66716315320588
 11
244.90191070439744
 21
184.67936360606888
  0
LINE
  8
_0-1_0
  6
CONTINUOUS
 62
    7
 10
244.90191070439744
 20
184.67936360606888
 11
244.88557392339044
 21
184.69129478343791
  0
LINE
  8
_0-1_0
  6
CONTINUOUS
 62
    7
 10
244.88557392339044
 20
184.69129478343791
 11
244.86815214907534
 21
184.70294212979888
  0
LINE
  8
_0-1_0
  6
CONTINUOUS
 62
    7
 10
244.86815214907534
 20
184.70294212979888
 11
244.84954148154054
 21
184.71441004804387
  0
LINE
  8
_0-1_0
  6
CONTINUOUS
 62
    7
 10
244.84954148154054
 20
184.71441004804387
 11
244.82916686405463
 21
184.7260382138989
  0
LINE
  8
_0-1_0
  6
CONTINUOUS
 62
    7
 10
244.82916686405463
 20
184.7260382138989
 11
244.80671370807943
 21
184.7379460660249
  0
LINE
  8
_0-1_0
  6
CONTINUOUS
 62
    7
 10
244.80671370807943
 20
184.7379460660249
 11
244.78222668581435
 21
184.75005373604586
  0
LINE
  8
_0-1_0
  6
CONTINUOUS
 62
    7
 10
244.78222668581435
 20
184.75005373604586
 11
244.77323098092944
 21
184.75430542931878
  0
LINE
  8
_0-1_0
  6
CONTINUOUS
 62
    7
 10
242.44815370342542
 20
179.89332471115688
 11
242.37910594798257
 21
179.85966244953789
  0
LINE
  8
_0-1_0
  6
CONTINUOUS
 62
    7
 10
244.77303067884043
 20
180.25903774043888
 11
244.79871920154943
 21
180.2714455480189
  0
LINE
  8
_0-1_0
  6
CONTINUOUS
 62
    7
 10
244.79871920154943
 20
180.2714455480189
 11
244.82296051687246
 21
180.2840199131839
  0
LINE
  8
_0-1_0
  6
CONTINUOUS
 62
    7
 10
244.82296051687246
 20
180.2840199131839
 11
244.84552863831942
 21
180.29666620630678
  0
LINE
  8
_0-1_0
  6
CONTINUOUS
 62
    7
 10
244.84552863831942
 20
180.29666620630678
 11
244.86645592235152
 21
180.3094108371709
  0
LINE
  8
_0-1_0
  6
CONTINUOUS
 62
    7
 10
244.86645592235152
 20
180.3094108371709
 11
244.88591132025346
 21
180.32237730887886
  0
LINE
  8
_0-1_0
  6
CONTINUOUS
 62
    7
 10
244.88591132025346
 20
180.32237730887886
 11
244.90398790059646
 21
180.33567329702589
  0
LINE
  8
_0-1_0
  6
CONTINUOUS
 62
    7
 10
244.90398790059646
 20
180.33567329702589
 11
244.92063474423054
 21
180.34931629864991
  0
LINE
  8
_0-1_0
  6
CONTINUOUS
 62
    7
 10
244.92063474423054
 20
180.34931629864991
 11
244.93582184688336
 21
180.36333234751089
  0
LINE
  8
_0-1_0
  6
CONTINUOUS
 62
    7
 10
244.93582184688336
 20
180.36333234751089
 11
244.94960545171853
 21
180.37783806073389
  0
LINE
  8
_0-1_0
  6
CONTINUOUS
 62
    7
 10
244.94960545171853
 20
180.37783806073389
 11
244.96194337416642
 21
180.39287387881978
  0
LINE
  8
_0-1_0
  6
CONTINUOUS
 62
    7
 10
244.96194337416642
 20
180.39287387881978
 11
244.97270228725853
 21
180.40833746563987
  0
LINE
  8
_0-1_0
  6
CONTINUOUS
 62
    7
 10
244.97270228725853
 20
180.40833746563987
 11
244.98184439538056
 21
180.42419477550789
  0
LINE
  8
_0-1_0
  6
CONTINUOUS
 62
    7
 10
244.98184439538056
 20
180.42419477550789
 11
244.98939087671744
 21
180.4405187374939
  0
LINE
  8
_0-1_0
  6
CONTINUOUS
 62
    7
 10
244.98939087671744
 20
180.4405187374939
 11
244.99529708240163
 21
180.45729528815576
  0
LINE
  8
_0-1_0
  6
CONTINUOUS
 62
    7
 10
244.99529708240163
 20
180.45729528815576
 11
244.99951579048843
 21
180.47453493129188
  0
LINE
  8
_0-1_0
  6
CONTINUOUS
 62
    7
 10
244.99951579048843
 20
180.47453493129188
 11
245.00196200311535
 21
180.49209515448786
  0
LINE
  8
_0-1_0
  6
CONTINUOUS
 62
    7
 10
245.00196200311535
 20
180.49209515448786
 11
245.00258521169746
 21
180.50966154797578
  0
LINE
  8
_0-1_0
  6
CONTINUOUS
 62
    7
 10
245.00258521169746
 20
180.50966154797578
 11
245.00141125819533
 21
180.52709596587488
  0
LINE
  8
_0-1_0
  6
CONTINUOUS
 62
    7
 10
245.00141125819533
 20
180.52709596587488
 11
244.99847803548641
 21
180.54431360212078
  0
LINE
  8
_0-1_0
  6
CONTINUOUS
 62
    7
 10
244.99847803548641
 20
180.54431360212078
 11
244.99387564758956
 21
180.56108652072186
  0
LINE
  8
_0-1_0
  6
CONTINUOUS
 62
    7
 10
244.99387564758956
 20
180.56108652072186
 11
244.98771423288355
 21
180.57730710486487
  0
LINE
  8
_0-1_0
  6
CONTINUOUS
 62
    7
 10
244.98771423288355
 20
180.57730710486487
 11
244.98006944259032
 21
180.59298552383586
  0
LINE
  8
_0-1_0
  6
CONTINUOUS
 62
    7
 10
244.98006944259032
 20
180.59298552383586
 11
244.97099967087053
 21
180.60813750787986
  0
LINE
  8
_0-1_0
  6
CONTINUOUS
 62
    7
 10
244.97099967087053
 20
180.60813750787986
 11
244.96052393279143
 21
180.62281791999487
  0
LINE
  8
_0-1_0
  6
CONTINUOUS
 62
    7
 10
244.96052393279143
 20
180.62281791999487
 11
244.94868923486462
 21
180.63702777462487
  0
LINE
  8
_0-1_0
  6
CONTINUOUS
 62
    7
 10
244.94868923486462
 20
180.63702777462487
 11
244.93556916488143
 21
180.6507523826329
  0
LINE
  8
_0-1_0
  6
CONTINUOUS
 62
    7
 10
244.93556916488143
 20
180.6507523826329
 11
244.92120233413254
 21
180.66402686474891
  0
LINE
  8
_0-1_0
  6
CONTINUOUS
 62
    7
 10
244.92120233413254
 20
180.66402686474891
 11
244.90554402224154
 21
180.67695101856788
  0
LINE
  8
_0-1_0
  6
CONTINUOUS
 62
    7
 10
244.90554402224154
 20
180.67695101856788
 11
244.88854000826751
 21
180.68960805243489
  0
LINE
  8
_0-1_0
  6
CONTINUOUS
 62
    7
 10
244.88854000826751
 20
180.68960805243489
 11
244.87016495262344
 21
180.70204551916987
  0
LINE
  8
_0-1_0
  6
CONTINUOUS
 62
    7
 10
244.87016495262344
 20
180.70204551916987
 11
244.85036585727636
 21
180.71432065274587
  0
LINE
  8
_0-1_0
  6
CONTINUOUS
 62
    7
 10
244.85036585727636
 20
180.71432065274587
 11
244.82905452498665
 21
180.72649984228087
  0
LINE
  8
_0-1_0
  6
CONTINUOUS
 62
    7
 10
244.82905452498665
 20
180.72649984228087
 11
244.80617850736246
 21
180.7386197716819
  0
LINE
  8
_0-1_0
  6
CONTINUOUS
 62
    7
 10
244.80617850736246
 20
180.7386197716819
 11
244.78170449076663
 21
180.75070333381086
  0
LINE
  8
_0-1_0
  6
CONTINUOUS
 62
    7
 10
244.78170449076663
 20
180.75070333381086
 11
244.68366609255656
 21
180.7968065784799
  0
LINE
  8
_0-1_0
  6
CONTINUOUS
 62
    7
 10
242.39658361670746
 20
185.8675382536909
 11
242.29850482950644
 21
185.82033252261488
  0
LINE
  8
_0-1_0
  6
CONTINUOUS
 62
    7
 10
242.39658361670746
 20
183.8677382536909
 11
242.29850482950644
 21
183.82053252261477
  0
LINE
  8
_0-1_0
  6
CONTINUOUS
 62
    7
 10
242.39658361670746
 20
181.86793825369091
 11
242.29850482950644
 21
181.82073252261489
  0
LINE
  8
_0-1_0
  6
CONTINUOUS
 62
    7
 10
257.39508361670732
 20
185.8675382536909
 11
257.29700482950665
 21
185.82033252261488
  0
LINE
  8
_0-1_0
  6
CONTINUOUS
 62
    7
 10
257.39508361670732
 20
183.8677382536909
 11
257.29700482950665
 21
183.82053252261477
  0
LINE
  8
_0-1_0
  6
CONTINUOUS
 62
    7
 10
244.53634794614754
 20
186.14584439150588
 11
244.63442324521253
 21
186.19303689814677
  0
LINE
  8
_0-1_0
  6
CONTINUOUS
 62
    7
 10
244.53634794614754
 20
184.14604439150577
 11
244.63442324521253
 21
184.19323689814689
  0
LINE
  8
_0-1_0
  6
CONTINUOUS
 62
    7
 10
244.53634794614754
 20
182.14624439150577
 11
244.63442324521253
 21
182.1934368981469
  0
LINE
  8
_0-1_0
  6
CONTINUOUS
 62
    7
 10
244.53634794614754
 20
180.1464443915059
 11
244.63442324521253
 21
180.19363689814691
  0
LINE
  8
_0-1_0
  6
CONTINUOUS
 62
    7
 10
259.53484794614752
 20
186.14584439150588
 11
259.63292324521245
 21
186.19303689814677
  0
LINE
  8
_0-1_0
  6
CONTINUOUS
 62
    7
 10
242.37910594798257
 20
179.85966244953789
 11
242.30555347790443
 21
179.82429736609686
  0
LINE
  8
_0-1_0
  6
CONTINUOUS
 62
    7
 10
242.15817981250245
 20
179.75471573950091
 11
242.14305474516055
 21
179.74750637899388
  0
LINE
  8
_0-1_0
  6
CONTINUOUS
 62
    7
 10
242.14305474516055
 20
179.74750637899388
 11
242.12036764137054
 21
179.73611638992486
  0
LINE
  8
_0-1_0
  6
CONTINUOUS
 62
    7
 10
242.12036764137054
 20
179.73611638992486
 11
242.09897599196154
 21
179.72462423410389
  0
LINE
  8
_0-1_0
  6
CONTINUOUS
 62
    7
 10
242.09897599196154
 20
179.72462423410389
 11
242.07886280014856
 21
179.71300251093788
  0
LINE
  8
_0-1_0
  6
CONTINUOUS
 62
    7
 10
242.07886280014856
 20
179.71300251093788
 11
242.06001381644734
 21
179.70122198547188
  0
LINE
  8
_0-1_0
  6
CONTINUOUS
 62
    7
 10
242.06001381644734
 20
179.70122198547188
 11
242.04239785003853
 21
179.68923695954879
  0
LINE
  8
_0-1_0
  6
CONTINUOUS
 62
    7
 10
242.04239785003853
 20
179.68923695954879
 11
242.02598545719934
 21
179.67699408062578
  0
LINE
  8
_0-1_0
  6
CONTINUOUS
 62
    7
 10
242.02598545719934
 20
179.67699408062578
 11
242.01076825846542
 21
179.66444758933989
  0
LINE
  8
_0-1_0
  6
CONTINUOUS
 62
    7
 10
242.01076825846542
 20
179.66444758933989
 11
241.99672764903045
 21
179.65153285579089
  0
LINE
  8
_0-1_0
  6
CONTINUOUS
 62
    7
 10
241.99672764903045
 20
179.65153285579089
 11
241.98382623627054
 21
179.63814545678588
  0
LINE
  8
_0-1_0
  6
CONTINUOUS
 62
    7
 10
241.98382623627054
 20
179.63814545678588
 11
241.97212137505545
 21
179.62425854682789
  0
LINE
  8
_0-1_0
  6
CONTINUOUS
 62
    7
 10
241.97212137505545
 20
179.62425854682789
 11
241.96171969532753
 21
179.60992466793488
  0
LINE
  8
_0-1_0
  6
CONTINUOUS
 62
    7
 10
241.96171969532753
 20
179.60992466793488
 11
241.95265061020552
 21
179.59511873776677
  0
LINE
  8
_0-1_0
  6
CONTINUOUS
 62
    7
 10
241.95265061020552
 20
179.59511873776677
 11
241.94494680672352
 21
179.57980732693989
  0
LINE
  8
_0-1_0
  6
CONTINUOUS
 62
    7
 10
241.94494680672352
 20
179.57980732693989
 11
241.93870109196342
 21
179.56408618921091
  0
LINE
  8
_0-1_0
  6
CONTINUOUS
 62
    7
 10
241.93870109196342
 20
179.56408618921091
 11
241.93398062466366
 21
179.54807957972878
  0
LINE
  8
_0-1_0
  6
CONTINUOUS
 62
    7
 10
241.93398062466366
 20
179.54807957972878
 11
241.93079488993556
 21
179.5317578760019
  0
LINE
  8
_0-1_0
  6
CONTINUOUS
 62
    7
 10
241.93079488993556
 20
179.5317578760019
 11
241.92918309810034
 21
179.51504250558486
  0
LINE
  8
_0-1_0
  6
CONTINUOUS
 62
    7
 10
241.92918309810034
 20
179.51504250558486
 11
241.92923705270442
 21
179.49791299294986
  0
LINE
  8
_0-1_0
  6
CONTINUOUS
 62
    7
 10
241.92923705270442
 20
179.49791299294986
 11
241.93104989473557
 21
179.48058638184489
  0
LINE
  8
_0-1_0
  6
CONTINUOUS
 62
    7
 10
241.93104989473557
 20
179.48058638184489
 11
241.93463934333056
 21
179.46335253782587
  0
LINE
  8
_0-1_0
  6
CONTINUOUS
 62
    7
 10
241.93463934333056
 20
179.46335253782587
 11
241.94001041283656
 21
179.44628998425191
  0
LINE
  8
_0-1_0
  6
CONTINUOUS
 62
    7
 10
241.94001041283656
 20
179.44628998425191
 11
241.94715641331652
 21
179.42948946235089
  0
LINE
  8
_0-1_0
  6
CONTINUOUS
 62
    7
 10
241.94715641331652
 20
179.42948946235089
 11
241.95596523264942
 21
179.41318780540689
  0
LINE
  8
_0-1_0
  6
CONTINUOUS
 62
    7
 10
241.95596523264942
 20
179.41318780540689
 11
241.96638909258365
 21
179.39739401221686
  0
LINE
  8
_0-1_0
  6
CONTINUOUS
 62
    7
 10
241.96638909258365
 20
179.39739401221686
 11
241.97841494805954
 21
179.38206896699586
  0
LINE
  8
_0-1_0
  6
CONTINUOUS
 62
    7
 10
241.97841494805954
 20
179.38206896699586
 11
241.99193125477842
 21
179.36728559214788
  0
LINE
  8
_0-1_0
  6
CONTINUOUS
 62
    7
 10
241.99193125477842
 20
179.36728559214788
 11
242.00687932921556
 21
179.35302055303686
  0
LINE
  8
_0-1_0
  6
CONTINUOUS
 62
    7
 10
242.00687932921556
 20
179.35302055303686
 11
242.02333076118055
 21
179.33913930523988
  0
LINE
  8
_0-1_0
  6
CONTINUOUS
 62
    7
 10
242.02333076118055
 20
179.33913930523988
 11
242.04137078730042
 21
179.3255329690399
  0
LINE
  8
_0-1_0
  6
CONTINUOUS
 62
    7
 10
242.04137078730042
 20
179.3255329690399
 11
242.06105486930153
 21
179.3121381856219
  0
LINE
  8
_0-1_0
  6
CONTINUOUS
 62
    7
 10
242.06105486930153
 20
179.3121381856219
 11
242.08245721339841
 21
179.29889126802186
  0
LINE
  8
_0-1_0
  6
CONTINUOUS
 62
    7
 10
242.08245721339841
 20
179.29889126802186
 11
242.10568700352053
 21
179.28571950290586
  0
LINE
  8
_0-1_0
  6
CONTINUOUS
 62
    7
 10
242.10568700352053
 20
179.28571950290586
 11
242.13084563134544
 21
179.2725670797949
  0
LINE
  8
_0-1_0
  6
CONTINUOUS
 62
    7
 10
242.13084563134544
 20
179.2725670797949
 11
242.15854136997962
 21
179.25915130332487
  0
LINE
  8
_0-1_0
  6
CONTINUOUS
 62
    7
 10
244.77319039832162
 20
182.25891222965578
 11
244.78551359587851
 21
182.26476097199577
  0
LINE
  8
_0-1_0
  6
CONTINUOUS
 62
    7
 10
244.78551359587851
 20
182.26476097199577
 11
244.80909317616943
 21
182.27651291456289
  0
LINE
  8
_0-1_0
  6
CONTINUOUS
 62
    7
 10
244.80909317616943
 20
182.27651291456289
 11
244.83094615701646
 21
182.28818051162591
  0
LINE
  8
_0-1_0
  6
CONTINUOUS
 62
    7
 10
244.83094615701646
 20
182.28818051162591
 11
244.85119328755542
 21
182.29980912592089
  0
LINE
  8
_0-1_0
  6
CONTINUOUS
 62
    7
 10
244.85119328755542
 20
182.29980912592089
 11
244.87003487987431
 21
182.31150660999486
  0
LINE
  8
_0-1_0
  6
CONTINUOUS
 62
    7
 10
244.87003487987431
 20
182.31150660999486
 11
244.88752239519056
 21
182.32330883510889
  0
LINE
  8
_0-1_0
  6
CONTINUOUS
 62
    7
 10
244.88752239519056
 20
182.32330883510889
 11
244.90370360084745
 21
182.33525342780291
  0
LINE
  8
_0-1_0
  6
CONTINUOUS
 62
    7
 10
244.90370360084745
 20
182.33525342780291
 11
244.91873841509442
 21
182.34748087766286
  0
LINE
  8
_0-1_0
  6
CONTINUOUS
 62
    7
 10
244.91873841509442
 20
182.34748087766286
 11
244.93269094758045
 21
182.36009498279287
  0
LINE
  8
_0-1_0
  6
CONTINUOUS
 62
    7
 10
244.93269094758045
 20
182.36009498279287
 11
244.94550522238842
 21
182.3731084173798
  0
LINE
  8
_0-1_0
  6
CONTINUOUS
 62
    7
 10
244.94550522238842
 20
182.3731084173798
 11
244.95714377993141
 21
182.3865438597619
  0
LINE
  8
_0-1_0
  6
CONTINUOUS
 62
    7
 10
244.95714377993141
 20
182.3865438597619
 11
244.96762418996752
 21
182.40049976403191
  0
LINE
  8
_0-1_0
  6
CONTINUOUS
 62
    7
 10
244.96762418996752
 20
182.40049976403191
 11
244.97687362190146
 21
182.41497819937689
  0
LINE
  8
_0-1_0
  6
CONTINUOUS
 62
    7
 10
244.97687362190146
 20
182.41497819937689
 11
244.98474829132545
 21
182.42982007352589
  0
LINE
  8
_0-1_0
  6
CONTINUOUS
 62
    7
 10
244.98474829132545
 20
182.42982007352589
 11
244.99121762281254
 21
182.44498732270989
  0
LINE
  8
_0-1_0
  6
CONTINUOUS
 62
    7
 10
244.99121762281254
 20
182.44498732270989
 11
244.99627102166443
 21
182.46048373594391
  0
LINE
  8
_0-1_0
  6
CONTINUOUS
 62
    7
 10
244.99627102166443
 20
182.46048373594391
 11
244.99985285314244
 21
182.4761425265749
  0
LINE
  8
_0-1_0
  6
CONTINUOUS
 62
    7
 10
244.99985285314244
 20
182.4761425265749
 11
245.00195560375562
 21
182.49181490917988
  0
LINE
  8
_0-1_0
  6
CONTINUOUS
 62
    7
 10
245.00195560375562
 20
182.49181490917988
 11
245.00260599931545
 21
182.50750137734587
  0
LINE
  8
_0-1_0
  6
CONTINUOUS
 62
    7
 10
245.00260599931545
 20
182.50750137734587
 11
245.00180718284145
 21
182.52322638286989
  0
LINE
  8
_0-1_0
  6
CONTINUOUS
 62
    7
 10
245.00180718284145
 20
182.52322638286989
 11
244.99954693070742
 21
182.53893800851989
  0
LINE
  8
_0-1_0
  6
CONTINUOUS
 62
    7
 10
244.99954693070742
 20
182.53893800851989
 11
244.99582668095155
 21
182.55452901744491
  0
LINE
  8
_0-1_0
  6
CONTINUOUS
 62
    7
 10
244.99582668095155
 20
182.55452901744491
 11
244.99064379989755
 21
182.56995616184889
  0
LINE
  8
_0-1_0
  6
CONTINUOUS
 62
    7
 10
244.99064379989755
 20
182.56995616184889
 11
244.98393642009643
 21
182.5852944960439
  0
LINE
  8
_0-1_0
  6
CONTINUOUS
 62
    7
 10
244.98393642009643
 20
182.5852944960439
 11
244.97573785730742
 21
182.60037889442287
  0
LINE
  8
_0-1_0
  6
CONTINUOUS
 62
    7
 10
244.97573785730742
 20
182.60037889442287
 11
244.96626167562641
 21
182.61487654936087
  0
LINE
  8
_0-1_0
  6
CONTINUOUS
 62
    7
 10
244.96626167562641
 20
182.61487654936087
 11
244.95564270399342
 21
182.62873185035886
  0
LINE
  8
_0-1_0
  6
CONTINUOUS
 62
    7
 10
244.95564270399342
 20
182.62873185035886
 11
244.94386435224953
 21
182.64208683563589
  0
LINE
  8
_0-1_0
  6
CONTINUOUS
 62
    7
 10
244.94386435224953
 20
182.64208683563589
 11
244.93098168064546
 21
182.65496480952777
  0
LINE
  8
_0-1_0
  6
CONTINUOUS
 62
    7
 10
244.93098168064546
 20
182.65496480952777
 11
244.91708247767434
 21
182.66736496211587
  0
LINE
  8
_0-1_0
  6
CONTINUOUS
 62
    7
 10
244.91708247767434
 20
182.66736496211587
 11
244.90210934059252
 21
182.67941097466689
  0
LINE
  8
_0-1_0
  6
CONTINUOUS
 62
    7
 10
244.90210934059252
 20
182.67941097466689
 11
244.88585638695946
 21
182.69129767405991
  0
LINE
  8
_0-1_0
  6
CONTINUOUS
 62
    7
 10
244.88585638695946
 20
182.69129767405991
 11
244.86826640976943
 21
182.70306922284789
  0
LINE
  8
_0-1_0
  6
CONTINUOUS
 62
    7
 10
244.86826640976943
 20
182.70306922284789
 11
244.84928546441745
 21
182.7147615486499
  0
LINE
  8
_0-1_0
  6
CONTINUOUS
 62
    7
 10
244.84928546441745
 20
182.7147615486499
 11
244.82864528227833
 21
182.72652460313589
  0
LINE
  8
_0-1_0
  6
CONTINUOUS
 62
    7
 10
244.82864528227833
 20
182.72652460313589
 11
244.80618028809346
 21
182.73841920113279
  0
LINE
  8
_0-1_0
  6
CONTINUOUS
 62
    7
 10
244.80618028809346
 20
182.73841920113279
 11
244.78185675008444
 21
182.7504306098719
  0
LINE
  8
_0-1_0
  6
CONTINUOUS
 62
    7
 10
244.78185675008444
 20
182.7504306098719
 11
244.68366609255656
 21
182.79660657847978
  0
LINE
  8
_0-1_0
  6
CONTINUOUS
 62
    7
 10
242.15796825669042
 20
181.7544174247879
 11
242.14799130266744
 21
181.74969125563388
  0
LINE
  8
_0-1_0
  6
CONTINUOUS
 62
    7
 10
242.14799130266744
 20
181.74969125563388
 11
242.12204948529052
 21
181.73678677893787
  0
LINE
  8
_0-1_0
  6
CONTINUOUS
 62
    7
 10
242.12204948529052
 20
181.73678677893787
 11
242.09809599330345
 21
181.72393321836188
  0
LINE
  8
_0-1_0
  6
CONTINUOUS
 62
    7
 10
242.09809599330345
 20
181.72393321836188
 11
242.07608457921043
 21
181.71112498991886
  0
LINE
  8
_0-1_0
  6
CONTINUOUS
 62
    7
 10
242.07608457921043
 20
181.71112498991886
 11
242.05587840336335
 21
181.6983012845389
  0
LINE
  8
_0-1_0
  6
CONTINUOUS
 62
    7
 10
242.05587840336335
 20
181.6983012845389
 11
242.03725824071745
 21
181.68532702118591
  0
LINE
  8
_0-1_0
  6
CONTINUOUS
 62
    7
 10
242.03725824071745
 20
181.68532702118591
 11
242.02015528815366
 21
181.67214081327188
  0
LINE
  8
_0-1_0
  6
CONTINUOUS
 62
    7
 10
242.02015528815366
 20
181.67214081327188
 11
242.00452461713456
 21
181.65868677608279
  0
LINE
  8
_0-1_0
  6
CONTINUOUS
 62
    7
 10
242.00452461713456
 20
181.65868677608279
 11
241.99022725640754
 21
181.64479945525687
  0
LINE
  8
_0-1_0
  6
CONTINUOUS
 62
    7
 10
241.99022725640754
 20
181.64479945525687
 11
241.97719989927361
 21
181.63032622120988
  0
LINE
  8
_0-1_0
  6
CONTINUOUS
 62
    7
 10
241.97719989927361
 20
181.63032622120988
 11
241.96554502063555
 21
181.6152654450139
  0
LINE
  8
_0-1_0
  6
CONTINUOUS
 62
    7
 10
241.96554502063555
 20
181.6152654450139
 11
241.95539154487244
 21
181.5996864439789
  0
LINE
  8
_0-1_0
  6
CONTINUOUS
 62
    7
 10
241.95539154487244
 20
181.5996864439789
 11
241.94675263642546
 21
181.5835051492399
  0
LINE
  8
_0-1_0
  6
CONTINUOUS
 62
    7
 10
241.94675263642546
 20
181.5835051492399
 11
241.93972491048044
 21
181.56676841944386
  0
LINE
  8
_0-1_0
  6
CONTINUOUS
 62
    7
 10
241.93972491048044
 20
181.56676841944386
 11
241.93447171464055
 21
181.54983669339191
  0
LINE
  8
_0-1_0
  6
CONTINUOUS
 62
    7
 10
241.93447171464055
 20
181.54983669339191
 11
241.93099926434445
 21
181.53292360577888
  0
LINE
  8
_0-1_0
  6
CONTINUOUS
 62
    7
 10
241.93099926434445
 20
181.53292360577888
 11
241.92924045963633
 21
181.5159878343739
  0
LINE
  8
_0-1_0
  6
CONTINUOUS
 62
    7
 10
241.92924045963633
 20
181.5159878343739
 11
241.92916998153362
 21
181.49907604602487
  0
LINE
  8
_0-1_0
  6
CONTINUOUS
 62
    7
 10
241.92916998153362
 20
181.49907604602487
 11
241.93076229228666
 21
181.48230273988679
  0
LINE
  8
_0-1_0
  6
CONTINUOUS
 62
    7
 10
241.93076229228666
 20
181.48230273988679
 11
241.93398219541547
 21
181.46575065738188
  0
LINE
  8
_0-1_0
  6
CONTINUOUS
 62
    7
 10
241.93398219541547
 20
181.46575065738188
 11
241.93881997522544
 21
181.44940771577888
  0
LINE
  8
_0-1_0
  6
CONTINUOUS
 62
    7
 10
241.93881997522544
 20
181.44940771577888
 11
241.94530208997946
 21
181.43324419229288
  0
LINE
  8
_0-1_0
  6
CONTINUOUS
 62
    7
 10
241.94530208997946
 20
181.43324419229288
 11
241.95338998110952
 21
181.41740306898788
  0
LINE
  8
_0-1_0
  6
CONTINUOUS
 62
    7
 10
241.95338998110952
 20
181.41740306898788
 11
241.96296909885962
 21
181.40206364338678
  0
LINE
  8
_0-1_0
  6
CONTINUOUS
 62
    7
 10
241.96296909885962
 20
181.40206364338678
 11
241.97401583952933
 21
181.38719179920486
  0
LINE
  8
_0-1_0
  6
CONTINUOUS
 62
    7
 10
241.97401583952933
 20
181.38719179920486
 11
241.98651508251032
 21
181.37275645318687
  0
LINE
  8
_0-1_0
  6
CONTINUOUS
 62
    7
 10
241.98651508251032
 20
181.37275645318687
 11
242.00030582269267
 21
181.3588684966669
  0
LINE
  8
_0-1_0
  6
CONTINUOUS
 62
    7
 10
242.00030582269267
 20
181.3588684966669
 11
242.01528448710042
 21
181.34552592923887
  0
LINE
  8
_0-1_0
  6
CONTINUOUS
 62
    7
 10
242.01528448710042
 20
181.34552592923887
 11
242.03152323397245
 21
181.33257851198886
  0
LINE
  8
_0-1_0
  6
CONTINUOUS
 62
    7
 10
242.03152323397245
 20
181.33257851198886
 11
242.04909907469766
 21
181.31991462123187
  0
LINE
  8
_0-1_0
  6
CONTINUOUS
 62
    7
 10
242.04909907469766
 20
181.31991462123187
 11
242.06796228758145
 21
181.30752931473489
  0
LINE
  8
_0-1_0
  6
CONTINUOUS
 62
    7
 10
242.06796228758145
 20
181.30752931473489
 11
242.08821181848634
 21
181.29532294519089
  0
LINE
  8
_0-1_0
  6
CONTINUOUS
 62
    7
 10
242.08821181848634
 20
181.29532294519089
 11
242.11019951586042
 21
181.28308255238289
  0
LINE
  8
_0-1_0
  6
CONTINUOUS
 62
    7
 10
242.11019951586042
 20
181.28308255238289
 11
242.13407378607354
 21
181.27075054903986
  0
LINE
  8
_0-1_0
  6
CONTINUOUS
 62
    7
 10
242.13407378607354
 20
181.27075054903986
 11
242.15851136298045
 21
181.25896556644386
  0
LINE
  8
_0-1_0
  6
CONTINUOUS
 62
    7
 10
242.30555347790443
 20
179.82429736609686
 11
242.21454497208953
 21
179.78114677825391
  0
LINE
  8
_0-1_0
  6
CONTINUOUS
 62
    7
 10
242.29850482950644
 20
185.82033252261488
 11
242.19636843780341
 21
185.77200053720588
  0
LINE
  8
_0-1_0
  6
CONTINUOUS
 62
    7
 10
244.63442324521253
 20
186.19303689814677
 11
244.73655782952034
 21
186.24135806403189
  0
LINE
  8
_0-1_0
  6
CONTINUOUS
 62
    7
 10
244.73655782952034
 20
186.24135806403189
 11
244.76855874971443
 21
186.2563433153569
  0
LINE
  8
_0-1_0
  6
CONTINUOUS
 62
    7
 10
242.29850482950644
 20
183.82053252261477
 11
242.19636843780341
 21
183.77220053720589
  0
LINE
  8
_0-1_0
  6
CONTINUOUS
 62
    7
 10
244.63442324521253
 20
184.19323689814689
 11
244.73655782952034
 21
184.24155806403178
  0
LINE
  8
_0-1_0
  6
CONTINUOUS
 62
    7
 10
244.73655782952034
 20
184.24155806403178
 11
244.77579450606652
 21
184.2599329242409
  0
LINE
  8
_0-1_0
  6
CONTINUOUS
 62
    7
 10
242.29850482950644
 20
181.82073252261489
 11
242.19636843780341
 21
181.77240053720578
  0
LINE
  8
_0-1_0
  6
CONTINUOUS
 62
    7
 10
244.63442324521253
 20
182.1934368981469
 11
244.73655782952034
 21
182.2417580640319
  0
LINE
  8
_0-1_0
  6
CONTINUOUS
 62
    7
 10
244.73655782952034
 20
182.2417580640319
 11
244.77309096220563
 21
182.25886563976991
  0
LINE
  8
_0-1_0
  6
CONTINUOUS
 62
    7
 10
244.63442324521253
 20
180.19363689814691
 11
244.73655782952034
 21
180.24195806403191
  0
LINE
  8
_0-1_0
  6
CONTINUOUS
 62
    7
 10
244.73655782952034
 20
180.24195806403191
 11
244.77309038377854
 21
180.25906536979687
  0
LINE
  8
_0-1_0
  6
CONTINUOUS
 62
    7
 10
257.29700482950665
 20
185.82033252261488
 11
257.19486843780356
 21
185.77200053720588
  0
LINE
  8
_0-1_0
  6
CONTINUOUS
 62
    7
 10
259.63292324521245
 20
186.19303689814677
 11
259.73505782952043
 21
186.24135806403189
  0
LINE
  8
_0-1_0
  6
CONTINUOUS
 62
    7
 10
259.73505782952043
 20
186.24135806403189
 11
259.76705874971447
 21
186.2563433153569
  0
LINE
  8
_0-1_0
  6
CONTINUOUS
 62
    7
 10
257.29700482950665
 20
183.82053252261477
 11
257.19486843780356
 21
183.77220053720589
  0
LINE
  8
_0-1_0
  6
CONTINUOUS
 62
    7
 10
242.19636843780341
 20
185.77200053720588
 11
242.15074658680862
 21
185.75060857903986
  0
LINE
  8
_0-1_0
  6
CONTINUOUS
 62
    7
 10
242.19636843780341
 20
181.77240053720578
 11
242.15797367917844
 21
181.75441999968177
  0
LINE
  8
_0-1_0
  6
CONTINUOUS
 62
    7
 10
242.21454497208953
 20
179.78114677825391
 11
242.15817985280142
 21
179.7547164221599
  0
LINE
  8
_0-1_0
  6
CONTINUOUS
 62
    7
 10
257.19486843780356
 20
185.77200053720588
 11
257.14924658680854
 21
185.75060857903986
  0
LINE
  8
_0-1_0
  6
CONTINUOUS
 62
    7
 10
242.19636843780341
 20
183.77220053720589
 11
242.15027733919243
 21
183.75058463598191
  0
LINE
  8
_0-1_0
  6
CONTINUOUS
 62
    7
 10
257.19486843780356
 20
183.77220053720589
 11
257.14877733919235
 21
183.75058463598191
  0
LINE
  8
_0-1_0
  6
CONTINUOUS
 62
    9
 10
242.16950510895055
 20
179.75992966078388
 11
242.15851282737941
 21
179.75487202811286
  0
LINE
  8
_0-1_0
  6
CONTINUOUS
 62
    7
 10
247.36541078429747
 20
187.25624331535687
 11
247.09138201991442
 21
192.51646937317389
  0
LINE
  8
_0-1_0
  6
CONTINUOUS
 62
    7
 10
246.96861454395054
 20
187.25624331535687
 11
246.49355936815846
 21
197.30409551207276
  0
LINE
  8
_0-1_0
  6
CONTINUOUS
 62
    7
 10
246.22324145931964
 20
187.25624331535687
 11
246.01251444473434
 21
192.71180531065687
  0
LINE
  8
_0-1_0
  6
CONTINUOUS
 62
    7
 10
246.46550078429766
 20
197.61386297707691
 11
246.42051218754642
 21
199.33190817658686
  0
LINE
  8
_0-1_0
  6
CONTINUOUS
 62
    7
 10
245.94784814837436
 20
217.3822196000749
 11
245.85673449610556
 21
220.86170960385186
  0
LINE
  8
_0-1_0
  6
CONTINUOUS
 62
    7
 10
245.84649229921553
 20
221.25284331535676
 11
245.75382264044134
 21
224.79175481123877
  0
LINE
  8
_0-1_0
  6
CONTINUOUS
 62
    7
 10
243.81950778157534
 20
187.25624331535687
 11
243.71178825460544
 21
197.30409551207276
  0
LINE
  8
_0-1_0
  6
CONTINUOUS
 62
    7
 10
243.81830331264047
 20
215.25344331535689
 11
243.90508424004344
 21
198.77555494717086
  0
LINE
  8
_0-1_0
  6
CONTINUOUS
 62
    7
 10
239.56619078429742
 20
187.25624331535687
 11
239.56619078429742
 21
186.46469311253588
  0
LINE
  8
_0-1_0
  6
CONTINUOUS
 62
    7
 10
239.96298702494732
 20
187.25624331535687
 11
239.96298702494732
 21
186.3342761921989
  0
LINE
  8
_0-1_0
  6
CONTINUOUS
 62
    7
 10
240.44894472068154
 20
199.65734298318478
 11
240.44894472068154
 21
216.54303226326186
  0
LINE
  8
_0-1_0
  6
CONTINUOUS
 62
    7
 10
240.54893472068153
 20
199.65734298318478
 11
240.54893472068153
 21
216.54303226326186
  0
LINE
  8
_0-1_0
  6
CONTINUOUS
 62
    7
 10
240.70836010957862
 20
187.25624331535687
 11
240.70836010957862
 21
186.46469311253588
  0
LINE
  8
_0-1_0
  6
CONTINUOUS
 62
    7
 10
241.46600078429753
 20
221.25284331535676
 11
241.46600078429753
 21
220.86170960385186
  0
LINE
  8
_0-1_0
  6
CONTINUOUS
 62
    7
 10
242.36591078429734
 20
186.2563433153569
 11
242.36591078429734
 21
185.85270789475391
  0
LINE
  8
_0-1_0
  6
CONTINUOUS
 62
    7
 10
242.36591078429734
 20
185.25644331535688
 11
242.36591078429734
 21
183.85290789475391
  0
LINE
  8
_0-1_0
  6
CONTINUOUS
 62
    7
 10
242.36591078429734
 20
183.25664331535688
 11
242.36591078429734
 21
181.85310789475386
  0
LINE
  8
_0-1_0
  6
CONTINUOUS
 62
    7
 10
242.36591078429734
 20
181.25684331535689
 11
242.36591078429734
 21
179.85329583353587
  0
LINE
  8
_0-1_0
  6
CONTINUOUS
 62
    7
 10
242.36591078429734
 20
179.25704331535678
 11
242.36591078429734
 21
179.05706331535686
  0
LINE
  8
_0-1_0
  6
CONTINUOUS
 62
    7
 10
243.11209378732252
 20
187.25624331535687
 11
243.11209378732252
 21
186.3342761921989
  0
LINE
  8
_0-1_0
  6
CONTINUOUS
 62
    7
 10
243.46580078429753
 20
186.46469311253588
 11
243.46580078429753
 21
192.51646937317389
  0
LINE
  8
_0-1_0
  6
CONTINUOUS
 62
    7
 10
243.81950778157534
 20
187.25624331535687
 11
243.81950778157534
 21
186.3342761921989
  0
LINE
  8
_0-1_0
  6
CONTINUOUS
 62
    7
 10
244.56569078429754
 20
186.1600280763289
 11
244.56569078429754
 21
184.75649331535686
  0
LINE
  8
_0-1_0
  6
CONTINUOUS
 62
    7
 10
244.56569078429754
 20
184.16022807632879
 11
244.56569078429754
 21
182.75669331535687
  0
LINE
  8
_0-1_0
  6
CONTINUOUS
 62
    7
 10
244.56569078429754
 20
182.16042807632891
 11
244.56569078429754
 21
180.75689331535676
  0
LINE
  8
_0-1_0
  6
CONTINUOUS
 62
    7
 10
244.56569078429754
 20
180.16062807632886
 11
244.56569078429754
 21
179.05706331535686
  0
LINE
  8
_0-1_0
  6
CONTINUOUS
 62
    7
 10
245.46560078429752
 20
221.25284331535676
 11
245.46560078429752
 21
220.86170960385186
  0
LINE
  8
_0-1_0
  6
CONTINUOUS
 62
    7
 10
246.22324145931964
 20
187.25624331535687
 11
246.22324145931964
 21
186.46469311253588
  0
LINE
  8
_0-1_0
  6
CONTINUOUS
 62
    7
 10
246.38266684821645
 20
199.65734298318478
 11
246.38266684821645
 21
216.54303226326186
  0
LINE
  8
_0-1_0
  6
CONTINUOUS
 62
    7
 10
246.48265684821655
 20
199.65734298318478
 11
246.48265684821655
 21
216.54303226326186
  0
LINE
  8
_0-1_0
  6
CONTINUOUS
 62
    7
 10
246.96861454395054
 20
187.25624331535687
 11
246.96861454395054
 21
186.3342761921989
  0
LINE
  8
_0-1_0
  6
CONTINUOUS
 62
    7
 10
247.36541078429747
 20
187.25624331535687
 11
247.36541078429747
 21
186.46469311253588
  0
LINE
  8
_0-1_0
  6
CONTINUOUS
 62
    7
 10
243.02651732885454
 20
198.77555494717086
 11
243.11329825625745
 21
215.25344331535689
  0
LINE
  8
_0-1_0
  6
CONTINUOUS
 62
    7
 10
243.11209378732252
 20
187.25624331535687
 11
243.21981331398933
 21
197.30409551207276
  0
LINE
  8
_0-1_0
  6
CONTINUOUS
 62
    7
 10
240.46610078429745
 20
197.61386297707691
 11
240.51108938135144
 21
199.33190817658686
  0
LINE
  8
_0-1_0
  6
CONTINUOUS
 62
    7
 10
240.98375342052356
 20
217.3822196000749
 11
241.07486707279242
 21
220.86170960385186
  0
LINE
  8
_0-1_0
  6
CONTINUOUS
 62
    7
 10
241.08510926968245
 20
221.25284331535676
 11
241.17777892845663
 21
224.79175481123877
  0
LINE
  8
_0-1_0
  6
CONTINUOUS
 62
    7
 10
240.70836010957862
 20
187.25624331535687
 11
240.91908712386055
 21
192.71180531065687
  0
LINE
  8
_0-1_0
  6
CONTINUOUS
 62
    7
 10
246.01008291336655
 20
197.70622152272279
 11
246.38266684821645
 21
199.65734298318478
  0
LINE
  8
_0-1_0
  6
CONTINUOUS
 62
    7
 10
246.11007291336642
 20
197.70622152272279
 11
246.48265684821655
 21
199.65734298318478
  0
LINE
  8
_0-1_0
  6
CONTINUOUS
 62
    7
 10
256.66478887045542
 20
216.54303226326186
 11
257.14375173937833
 21
217.84476831300179
  0
LINE
  8
_0-1_0
  6
CONTINUOUS
 62
    7
 10
256.83797663085653
 20
216.54303226326186
 11
257.31693949947663
 21
217.84476831300179
  0
LINE
  8
_0-1_0
  6
CONTINUOUS
 62
    7
 10
257.56264641420654
 20
179.95107638753291
 11
257.51375241773155
 21
179.9265307968829
  0
LINE
  8
_0-1_0
  6
CONTINUOUS
 62
    7
 10
257.56264371356752
 20
181.95087502282087
 11
257.48906619205542
 21
181.91405292539889
  0
LINE
  8
_0-1_0
  6
CONTINUOUS
 62
    7
 10
259.36595771655635
 20
184.0624615375969
 11
259.44087033939343
 21
184.09994557487886
  0
LINE
  8
_0-1_0
  6
CONTINUOUS
 62
    7
 10
259.36595771655635
 20
182.06266153759691
 11
259.44087033939343
 21
182.10014557487887
  0
LINE
  8
_0-1_0
  6
CONTINUOUS
 62
    7
 10
259.36595771655635
 20
180.06286153759686
 11
259.44087033939343
 21
180.10034557487887
  0
LINE
  8
_0-1_0
  6
CONTINUOUS
 62
    7
 10
257.51375241773155
 20
179.9265307968829
 11
257.44665370342551
 21
179.89332471115688
  0
LINE
  8
_0-1_0
  6
CONTINUOUS
 62
    7
 10
257.48906619205542
 20
181.91405292539889
 11
257.39508361670732
 21
181.86793825369091
  0
LINE
  8
_0-1_0
  6
CONTINUOUS
 62
    7
 10
259.44087033939343
 20
184.09994557487886
 11
259.53484794614752
 21
184.14604439150577
  0
LINE
  8
_0-1_0
  6
CONTINUOUS
 62
    7
 10
259.44087033939343
 20
182.10014557487887
 11
259.53484794614752
 21
182.14624439150577
  0
LINE
  8
_0-1_0
  6
CONTINUOUS
 62
    7
 10
259.44087033939343
 20
180.10034557487887
 11
259.53484794614752
 21
180.1464443915059
  0
LINE
  8
_0-1_0
  6
CONTINUOUS
 62
    7
 10
259.77429450606644
 20
184.2599329242409
 11
259.80138694200662
 21
184.27314255193386
  0
LINE
  8
_0-1_0
  6
CONTINUOUS
 62
    7
 10
259.80138694200662
 20
184.27314255193386
 11
259.82648207739356
 21
184.28634799307588
  0
LINE
  8
_0-1_0
  6
CONTINUOUS
 62
    7
 10
259.82648207739356
 20
184.28634799307588
 11
259.84962684117056
 21
184.29956943564787
  0
LINE
  8
_0-1_0
  6
CONTINUOUS
 62
    7
 10
259.84962684117056
 20
184.29956943564787
 11
259.87092643917941
 21
184.31286250378389
  0
LINE
  8
_0-1_0
  6
CONTINUOUS
 62
    7
 10
259.87092643917941
 20
184.31286250378389
 11
259.89050685609357
 21
184.32630983467391
  0
LINE
  8
_0-1_0
  6
CONTINUOUS
 62
    7
 10
259.89050685609357
 20
184.32630983467391
 11
259.90844276565656
 21
184.33997844010088
  0
LINE
  8
_0-1_0
  6
CONTINUOUS
 62
    7
 10
259.90844276565656
 20
184.33997844010088
 11
259.92478644021645
 21
184.35393107166777
  0
LINE
  8
_0-1_0
  6
CONTINUOUS
 62
    7
 10
259.92478644021645
 20
184.35393107166777
 11
259.93962690390032
 21
184.3682811359119
  0
LINE
  8
_0-1_0
  6
CONTINUOUS
 62
    7
 10
259.93962690390032
 20
184.3682811359119
 11
259.95303363885051
 21
184.38316752833589
  0
LINE
  8
_0-1_0
  6
CONTINUOUS
 62
    7
 10
259.95303363885051
 20
184.38316752833589
 11
259.96493979508551
 21
184.39861061781187
  0
LINE
  8
_0-1_0
  6
CONTINUOUS
 62
    7
 10
259.96493979508551
 20
184.39861061781187
 11
259.97522694838841
 21
184.4145284185999
  0
LINE
  8
_0-1_0
  6
CONTINUOUS
 62
    7
 10
259.97522694838841
 20
184.4145284185999
 11
259.98388045022455
 21
184.43095631352486
  0
LINE
  8
_0-1_0
  6
CONTINUOUS
 62
    7
 10
259.98388045022455
 20
184.43095631352486
 11
259.99085024469042
 21
184.44788201684588
  0
LINE
  8
_0-1_0
  6
CONTINUOUS
 62
    7
 10
259.99085024469042
 20
184.44788201684588
 11
259.99602307584053
 21
184.46505699038886
  0
LINE
  8
_0-1_0
  6
CONTINUOUS
 62
    7
 10
259.99602307584053
 20
184.46505699038886
 11
259.99939356118244
 21
184.48237865653391
  0
LINE
  8
_0-1_0
  6
CONTINUOUS
 62
    7
 10
259.99939356118244
 20
184.48237865653391
 11
260.00097364164355
 21
184.49977189461191
  0
LINE
  8
_0-1_0
  6
CONTINUOUS
 62
    7
 10
260.00097364164355
 20
184.49977189461191
 11
260.00078727149446
 21
184.51696027802586
  0
LINE
  8
_0-1_0
  6
CONTINUOUS
 62
    7
 10
260.00078727149446
 20
184.51696027802586
 11
259.99893159617142
 21
184.53370741556887
  0
LINE
  8
_0-1_0
  6
CONTINUOUS
 62
    7
 10
259.99893159617142
 20
184.53370741556887
 11
259.99549669090845
 21
184.55005376864887
  0
LINE
  8
_0-1_0
  6
CONTINUOUS
 62
    7
 10
259.99549669090845
 20
184.55005376864887
 11
259.99049222564742
 21
184.56615159809888
  0
LINE
  8
_0-1_0
  6
CONTINUOUS
 62
    7
 10
259.99049222564742
 20
184.56615159809888
 11
259.98387153384334
 21
184.58209919772486
  0
LINE
  8
_0-1_0
  6
CONTINUOUS
 62
    7
 10
259.98387153384334
 20
184.58209919772486
 11
259.97569986957654
 21
184.59769701990791
  0
LINE
  8
_0-1_0
  6
CONTINUOUS
 62
    7
 10
259.97569986957654
 20
184.59769701990791
 11
259.96613949298245
 21
184.6127152336939
  0
LINE
  8
_0-1_0
  6
CONTINUOUS
 62
    7
 10
259.96613949298245
 20
184.6127152336939
 11
259.95524852249133
 21
184.62718118149979
  0
LINE
  8
_0-1_0
  6
CONTINUOUS
 62
    7
 10
259.95524852249133
 20
184.62718118149979
 11
259.94305793439946
 21
184.64114681782689
  0
LINE
  8
_0-1_0
  6
CONTINUOUS
 62
    7
 10
259.94305793439946
 20
184.64114681782689
 11
259.92977524674063
 21
184.65448713699487
  0
LINE
  8
_0-1_0
  6
CONTINUOUS
 62
    7
 10
259.92977524674063
 20
184.65448713699487
 11
259.91558489167556
 21
184.66716315320588
  0
LINE
  8
_0-1_0
  6
CONTINUOUS
 62
    7
 10
259.91558489167556
 20
184.66716315320588
 11
259.90041070439753
 21
184.67936360606888
  0
LINE
  8
_0-1_0
  6
CONTINUOUS
 62
    7
 10
259.90041070439753
 20
184.67936360606888
 11
259.88407392339042
 21
184.69129478343791
  0
LINE
  8
_0-1_0
  6
CONTINUOUS
 62
    7
 10
259.88407392339042
 20
184.69129478343791
 11
259.86665214907543
 21
184.70294212979888
  0
LINE
  8
_0-1_0
  6
CONTINUOUS
 62
    7
 10
259.86665214907543
 20
184.70294212979888
 11
259.84804148154046
 21
184.71441004804387
  0
LINE
  8
_0-1_0
  6
CONTINUOUS
 62
    7
 10
259.84804148154046
 20
184.71441004804387
 11
259.82766686405455
 21
184.7260382138989
  0
LINE
  8
_0-1_0
  6
CONTINUOUS
 62
    7
 10
259.82766686405455
 20
184.7260382138989
 11
259.80521370807952
 21
184.7379460660249
  0
LINE
  8
_0-1_0
  6
CONTINUOUS
 62
    7
 10
259.80521370807952
 20
184.7379460660249
 11
259.78072668581456
 21
184.75005373604586
  0
LINE
  8
_0-1_0
  6
CONTINUOUS
 62
    7
 10
259.78072668581456
 20
184.75005373604586
 11
259.77173098092965
 21
184.75430542931878
  0
LINE
  8
_0-1_0
  6
CONTINUOUS
 62
    7
 10
257.44665370342551
 20
179.89332471115688
 11
257.37760594798243
 21
179.85966244953789
  0
LINE
  8
_0-1_0
  6
CONTINUOUS
 62
    7
 10
259.77153067884052
 20
180.25903774043888
 11
259.79721920154952
 21
180.2714455480189
  0
LINE
  8
_0-1_0
  6
CONTINUOUS
 62
    7
 10
259.79721920154952
 20
180.2714455480189
 11
259.82146051687243
 21
180.2840199131839
  0
LINE
  8
_0-1_0
  6
CONTINUOUS
 62
    7
 10
259.82146051687243
 20
180.2840199131839
 11
259.84402863831934
 21
180.29666620630678
  0
LINE
  8
_0-1_0
  6
CONTINUOUS
 62
    7
 10
259.84402863831934
 20
180.29666620630678
 11
259.86495592235144
 21
180.3094108371709
  0
LINE
  8
_0-1_0
  6
CONTINUOUS
 62
    7
 10
259.86495592235144
 20
180.3094108371709
 11
259.88441132025366
 21
180.32237730887886
  0
LINE
  8
_0-1_0
  6
CONTINUOUS
 62
    7
 10
259.88441132025366
 20
180.32237730887886
 11
259.90248790059655
 21
180.33567329702589
  0
LINE
  8
_0-1_0
  6
CONTINUOUS
 62
    7
 10
259.90248790059655
 20
180.33567329702589
 11
259.91913474423052
 21
180.34931629864991
  0
LINE
  8
_0-1_0
  6
CONTINUOUS
 62
    7
 10
259.91913474423052
 20
180.34931629864991
 11
259.93432184688356
 21
180.36333234751089
  0
LINE
  8
_0-1_0
  6
CONTINUOUS
 62
    7
 10
259.93432184688356
 20
180.36333234751089
 11
259.94810545171856
 21
180.37783806073389
  0
LINE
  8
_0-1_0
  6
CONTINUOUS
 62
    7
 10
259.94810545171856
 20
180.37783806073389
 11
259.96044337416652
 21
180.39287387881978
  0
LINE
  8
_0-1_0
  6
CONTINUOUS
 62
    7
 10
259.96044337416652
 20
180.39287387881978
 11
259.97120228725845
 21
180.40833746563987
  0
LINE
  8
_0-1_0
  6
CONTINUOUS
 62
    7
 10
259.97120228725845
 20
180.40833746563987
 11
259.98034439538043
 21
180.42419477550789
  0
LINE
  8
_0-1_0
  6
CONTINUOUS
 62
    7
 10
259.98034439538043
 20
180.42419477550789
 11
259.98789087671736
 21
180.4405187374939
  0
LINE
  8
_0-1_0
  6
CONTINUOUS
 62
    7
 10
259.98789087671736
 20
180.4405187374939
 11
259.99379708240156
 21
180.45729528815576
  0
LINE
  8
_0-1_0
  6
CONTINUOUS
 62
    7
 10
259.99379708240156
 20
180.45729528815576
 11
259.99801579048847
 21
180.47453493129188
  0
LINE
  8
_0-1_0
  6
CONTINUOUS
 62
    7
 10
259.99801579048847
 20
180.47453493129188
 11
260.00046200311556
 21
180.49209515448786
  0
LINE
  8
_0-1_0
  6
CONTINUOUS
 62
    7
 10
260.00046200311556
 20
180.49209515448786
 11
260.00108521169756
 21
180.50966154797578
  0
LINE
  8
_0-1_0
  6
CONTINUOUS
 62
    7
 10
260.00108521169756
 20
180.50966154797578
 11
259.99991125819554
 21
180.52709596587488
  0
LINE
  8
_0-1_0
  6
CONTINUOUS
 62
    7
 10
259.99991125819554
 20
180.52709596587488
 11
259.99697803548645
 21
180.54431360212078
  0
LINE
  8
_0-1_0
  6
CONTINUOUS
 62
    7
 10
259.99697803548645
 20
180.54431360212078
 11
259.99237564758943
 21
180.56108652072186
  0
LINE
  8
_0-1_0
  6
CONTINUOUS
 62
    7
 10
259.99237564758943
 20
180.56108652072186
 11
259.98621423288353
 21
180.57730710486487
  0
LINE
  8
_0-1_0
  6
CONTINUOUS
 62
    7
 10
259.98621423288353
 20
180.57730710486487
 11
259.97856944259053
 21
180.59298552383586
  0
LINE
  8
_0-1_0
  6
CONTINUOUS
 62
    7
 10
259.97856944259053
 20
180.59298552383586
 11
259.96949967087045
 21
180.60813750787986
  0
LINE
  8
_0-1_0
  6
CONTINUOUS
 62
    7
 10
259.96949967087045
 20
180.60813750787986
 11
259.95902393279135
 21
180.62281791999487
  0
LINE
  8
_0-1_0
  6
CONTINUOUS
 62
    7
 10
259.95902393279135
 20
180.62281791999487
 11
259.94718923486454
 21
180.63702777462487
  0
LINE
  8
_0-1_0
  6
CONTINUOUS
 62
    7
 10
259.94718923486454
 20
180.63702777462487
 11
259.93406916488152
 21
180.6507523826329
  0
LINE
  8
_0-1_0
  6
CONTINUOUS
 62
    7
 10
259.93406916488152
 20
180.6507523826329
 11
259.91970233413247
 21
180.66402686474891
  0
LINE
  8
_0-1_0
  6
CONTINUOUS
 62
    7
 10
259.91970233413247
 20
180.66402686474891
 11
259.90404402224146
 21
180.67695101856788
  0
LINE
  8
_0-1_0
  6
CONTINUOUS
 62
    7
 10
259.90404402224146
 20
180.67695101856788
 11
259.88704000826743
 21
180.68960805243489
  0
LINE
  8
_0-1_0
  6
CONTINUOUS
 62
    7
 10
259.88704000826743
 20
180.68960805243489
 11
259.86866495262353
 21
180.70204551916987
  0
LINE
  8
_0-1_0
  6
CONTINUOUS
 62
    7
 10
259.86866495262353
 20
180.70204551916987
 11
259.84886585727656
 21
180.71432065274587
  0
LINE
  8
_0-1_0
  6
CONTINUOUS
 62
    7
 10
259.84886585727656
 20
180.71432065274587
 11
259.82755452498657
 21
180.72649984228087
  0
LINE
  8
_0-1_0
  6
CONTINUOUS
 62
    7
 10
259.82755452498657
 20
180.72649984228087
 11
259.80467850736255
 21
180.7386197716819
  0
LINE
  8
_0-1_0
  6
CONTINUOUS
 62
    7
 10
259.80467850736255
 20
180.7386197716819
 11
259.78020449076655
 21
180.75070333381086
  0
LINE
  8
_0-1_0
  6
CONTINUOUS
 62
    7
 10
259.78020449076655
 20
180.75070333381086
 11
259.68216609255643
 21
180.7968065784799
  0
LINE
  8
_0-1_0
  6
CONTINUOUS
 62
    7
 10
257.39508361670732
 20
181.86793825369091
 11
257.29700482950665
 21
181.82073252261489
  0
LINE
  8
_0-1_0
  6
CONTINUOUS
 62
    7
 10
259.53484794614752
 20
184.14604439150577
 11
259.63292324521245
 21
184.19323689814689
  0
LINE
  8
_0-1_0
  6
CONTINUOUS
 62
    7
 10
259.53484794614752
 20
182.14624439150577
 11
259.63292324521245
 21
182.1934368981469
  0
LINE
  8
_0-1_0
  6
CONTINUOUS
 62
    7
 10
259.53484794614752
 20
180.1464443915059
 11
259.63292324521245
 21
180.19363689814691
  0
LINE
  8
_0-1_0
  6
CONTINUOUS
 62
    7
 10
257.37760594798243
 20
179.85966244953789
 11
257.30405347790435
 21
179.82429736609686
  0
LINE
  8
_0-1_0
  6
CONTINUOUS
 62
    7
 10
257.15667981250255
 20
179.75471573950091
 11
257.14155474516042
 21
179.74750637899388
  0
LINE
  8
_0-1_0
  6
CONTINUOUS
 62
    7
 10
257.14155474516042
 20
179.74750637899388
 11
257.11886764137046
 21
179.73611638992486
  0
LINE
  8
_0-1_0
  6
CONTINUOUS
 62
    7
 10
257.11886764137046
 20
179.73611638992486
 11
257.09747599196146
 21
179.72462423410389
  0
LINE
  8
_0-1_0
  6
CONTINUOUS
 62
    7
 10
257.09747599196146
 20
179.72462423410389
 11
257.07736280014853
 21
179.71300251093788
  0
LINE
  8
_0-1_0
  6
CONTINUOUS
 62
    7
 10
257.07736280014853
 20
179.71300251093788
 11
257.05851381644754
 21
179.70122198547188
  0
LINE
  8
_0-1_0
  6
CONTINUOUS
 62
    7
 10
257.05851381644754
 20
179.70122198547188
 11
257.04089785003845
 21
179.68923695954879
  0
LINE
  8
_0-1_0
  6
CONTINUOUS
 62
    7
 10
257.04089785003845
 20
179.68923695954879
 11
257.02448545719955
 21
179.67699408062578
  0
LINE
  8
_0-1_0
  6
CONTINUOUS
 62
    7
 10
257.02448545719955
 20
179.67699408062578
 11
257.00926825846545
 21
179.66444758933989
  0
LINE
  8
_0-1_0
  6
CONTINUOUS
 62
    7
 10
257.00926825846545
 20
179.66444758933989
 11
256.99522764903031
 21
179.65153285579089
  0
LINE
  8
_0-1_0
  6
CONTINUOUS
 62
    7
 10
256.99522764903031
 20
179.65153285579089
 11
256.98232623627047
 21
179.63814545678588
  0
LINE
  8
_0-1_0
  6
CONTINUOUS
 62
    7
 10
256.98232623627047
 20
179.63814545678588
 11
256.97062137505566
 21
179.62425854682789
  0
LINE
  8
_0-1_0
  6
CONTINUOUS
 62
    7
 10
256.97062137505566
 20
179.62425854682789
 11
256.96021969532745
 21
179.60992466793488
  0
LINE
  8
_0-1_0
  6
CONTINUOUS
 62
    7
 10
256.96021969532745
 20
179.60992466793488
 11
256.95115061020545
 21
179.59511873776677
  0
LINE
  8
_0-1_0
  6
CONTINUOUS
 62
    7
 10
256.95115061020545
 20
179.59511873776677
 11
256.94344680672344
 21
179.57980732693989
  0
LINE
  8
_0-1_0
  6
CONTINUOUS
 62
    7
 10
256.94344680672344
 20
179.57980732693989
 11
256.93720109196352
 21
179.56408618921091
  0
LINE
  8
_0-1_0
  6
CONTINUOUS
 62
    7
 10
256.93720109196352
 20
179.56408618921091
 11
256.93248062466353
 21
179.54807957972878
  0
LINE
  8
_0-1_0
  6
CONTINUOUS
 62
    7
 10
256.93248062466353
 20
179.54807957972878
 11
256.92929488993542
 21
179.5317578760019
  0
LINE
  8
_0-1_0
  6
CONTINUOUS
 62
    7
 10
256.92929488993542
 20
179.5317578760019
 11
256.92768309810054
 21
179.51504250558486
  0
LINE
  8
_0-1_0
  6
CONTINUOUS
 62
    7
 10
256.92768309810054
 20
179.51504250558486
 11
256.92773705270434
 21
179.49791299294986
  0
LINE
  8
_0-1_0
  6
CONTINUOUS
 62
    7
 10
256.92773705270434
 20
179.49791299294986
 11
256.92954989473543
 21
179.48058638184489
  0
LINE
  8
_0-1_0
  6
CONTINUOUS
 62
    7
 10
256.92954989473543
 20
179.48058638184489
 11
256.93313934333042
 21
179.46335253782587
  0
LINE
  8
_0-1_0
  6
CONTINUOUS
 62
    7
 10
256.93313934333042
 20
179.46335253782587
 11
256.93851041283642
 21
179.44628998425191
  0
LINE
  8
_0-1_0
  6
CONTINUOUS
 62
    7
 10
256.93851041283642
 20
179.44628998425191
 11
256.94565641331644
 21
179.42948946235089
  0
LINE
  8
_0-1_0
  6
CONTINUOUS
 62
    7
 10
256.94565641331644
 20
179.42948946235089
 11
256.95446523264951
 21
179.41318780540689
  0
LINE
  8
_0-1_0
  6
CONTINUOUS
 62
    7
 10
256.95446523264951
 20
179.41318780540689
 11
256.96488909258352
 21
179.39739401221686
  0
LINE
  8
_0-1_0
  6
CONTINUOUS
 62
    7
 10
256.96488909258352
 20
179.39739401221686
 11
256.97691494805946
 21
179.38206896699586
  0
LINE
  8
_0-1_0
  6
CONTINUOUS
 62
    7
 10
256.97691494805946
 20
179.38206896699586
 11
256.99043125477851
 21
179.36728559214788
  0
LINE
  8
_0-1_0
  6
CONTINUOUS
 62
    7
 10
256.99043125477851
 20
179.36728559214788
 11
257.00537932921543
 21
179.35302055303686
  0
LINE
  8
_0-1_0
  6
CONTINUOUS
 62
    7
 10
257.00537932921543
 20
179.35302055303686
 11
257.02183076118041
 21
179.33913930523988
  0
LINE
  8
_0-1_0
  6
CONTINUOUS
 62
    7
 10
257.02183076118041
 20
179.33913930523988
 11
257.03987078730063
 21
179.3255329690399
  0
LINE
  8
_0-1_0
  6
CONTINUOUS
 62
    7
 10
257.03987078730063
 20
179.3255329690399
 11
257.05955486930145
 21
179.3121381856219
  0
LINE
  8
_0-1_0
  6
CONTINUOUS
 62
    7
 10
257.05955486930145
 20
179.3121381856219
 11
257.08095721339856
 21
179.29889126802186
  0
LINE
  8
_0-1_0
  6
CONTINUOUS
 62
    7
 10
257.08095721339856
 20
179.29889126802186
 11
257.10418700352045
 21
179.28571950290586
  0
LINE
  8
_0-1_0
  6
CONTINUOUS
 62
    7
 10
257.10418700352045
 20
179.28571950290586
 11
257.12934563134542
 21
179.2725670797949
  0
LINE
  8
_0-1_0
  6
CONTINUOUS
 62
    7
 10
257.12934563134542
 20
179.2725670797949
 11
257.15704136997954
 21
179.25915130332487
  0
LINE
  8
_0-1_0
  6
CONTINUOUS
 62
    7
 10
259.77169039832154
 20
182.25891222965578
 11
259.78401359587843
 21
182.26476097199577
  0
LINE
  8
_0-1_0
  6
CONTINUOUS
 62
    7
 10
259.78401359587843
 20
182.26476097199577
 11
259.80759317616946
 21
182.27651291456289
  0
LINE
  8
_0-1_0
  6
CONTINUOUS
 62
    7
 10
259.80759317616946
 20
182.27651291456289
 11
259.82944615701655
 21
182.28818051162591
  0
LINE
  8
_0-1_0
  6
CONTINUOUS
 62
    7
 10
259.82944615701655
 20
182.28818051162591
 11
259.84969328755557
 21
182.29980912592089
  0
LINE
  8
_0-1_0
  6
CONTINUOUS
 62
    7
 10
259.84969328755557
 20
182.29980912592089
 11
259.86853487987452
 21
182.31150660999486
  0
LINE
  8
_0-1_0
  6
CONTINUOUS
 62
    7
 10
259.86853487987452
 20
182.31150660999486
 11
259.88602239519042
 21
182.32330883510889
  0
LINE
  8
_0-1_0
  6
CONTINUOUS
 62
    7
 10
259.88602239519042
 20
182.32330883510889
 11
259.90220360084732
 21
182.33525342780291
  0
LINE
  8
_0-1_0
  6
CONTINUOUS
 62
    7
 10
259.90220360084732
 20
182.33525342780291
 11
259.91723841509452
 21
182.34748087766286
  0
LINE
  8
_0-1_0
  6
CONTINUOUS
 62
    7
 10
259.91723841509452
 20
182.34748087766286
 11
259.93119094758055
 21
182.36009498279287
  0
LINE
  8
_0-1_0
  6
CONTINUOUS
 62
    7
 10
259.93119094758055
 20
182.36009498279287
 11
259.94400522238834
 21
182.3731084173798
  0
LINE
  8
_0-1_0
  6
CONTINUOUS
 62
    7
 10
259.94400522238834
 20
182.3731084173798
 11
259.95564377993162
 21
182.3865438597619
  0
LINE
  8
_0-1_0
  6
CONTINUOUS
 62
    7
 10
259.95564377993162
 20
182.3865438597619
 11
259.96612418996762
 21
182.40049976403191
  0
LINE
  8
_0-1_0
  6
CONTINUOUS
 62
    7
 10
259.96612418996762
 20
182.40049976403191
 11
259.97537362190144
 21
182.41497819937689
  0
LINE
  8
_0-1_0
  6
CONTINUOUS
 62
    7
 10
259.97537362190144
 20
182.41497819937689
 11
259.98324829132554
 21
182.42982007352589
  0
LINE
  8
_0-1_0
  6
CONTINUOUS
 62
    7
 10
259.98324829132554
 20
182.42982007352589
 11
259.98971762281246
 21
182.44498732270989
  0
LINE
  8
_0-1_0
  6
CONTINUOUS
 62
    7
 10
259.98971762281246
 20
182.44498732270989
 11
259.99477102166435
 21
182.46048373594391
  0
LINE
  8
_0-1_0
  6
CONTINUOUS
 62
    7
 10
259.99477102166435
 20
182.46048373594391
 11
259.99835285314253
 21
182.4761425265749
  0
LINE
  8
_0-1_0
  6
CONTINUOUS
 62
    7
 10
259.99835285314253
 20
182.4761425265749
 11
260.00045560375554
 21
182.49181490917988
  0
LINE
  8
_0-1_0
  6
CONTINUOUS
 62
    7
 10
260.00045560375554
 20
182.49181490917988
 11
260.00110599931543
 21
182.50750137734587
  0
LINE
  8
_0-1_0
  6
CONTINUOUS
 62
    7
 10
260.00110599931543
 20
182.50750137734587
 11
260.00030718284142
 21
182.52322638286989
  0
LINE
  8
_0-1_0
  6
CONTINUOUS
 62
    7
 10
260.00030718284142
 20
182.52322638286989
 11
259.99804693070752
 21
182.53893800851989
  0
LINE
  8
_0-1_0
  6
CONTINUOUS
 62
    7
 10
259.99804693070752
 20
182.53893800851989
 11
259.99432668095153
 21
182.55452901744491
  0
LINE
  8
_0-1_0
  6
CONTINUOUS
 62
    7
 10
259.99432668095153
 20
182.55452901744491
 11
259.98914379989742
 21
182.56995616184889
  0
LINE
  8
_0-1_0
  6
CONTINUOUS
 62
    7
 10
259.98914379989742
 20
182.56995616184889
 11
259.98243642009646
 21
182.5852944960439
  0
LINE
  8
_0-1_0
  6
CONTINUOUS
 62
    7
 10
259.98243642009646
 20
182.5852944960439
 11
259.97423785730734
 21
182.60037889442287
  0
LINE
  8
_0-1_0
  6
CONTINUOUS
 62
    7
 10
259.97423785730734
 20
182.60037889442287
 11
259.96476167562662
 21
182.61487654936087
  0
LINE
  8
_0-1_0
  6
CONTINUOUS
 62
    7
 10
259.96476167562662
 20
182.61487654936087
 11
259.95414270399351
 21
182.62873185035886
  0
LINE
  8
_0-1_0
  6
CONTINUOUS
 62
    7
 10
259.95414270399351
 20
182.62873185035886
 11
259.94236435224946
 21
182.64208683563589
  0
LINE
  8
_0-1_0
  6
CONTINUOUS
 62
    7
 10
259.94236435224946
 20
182.64208683563589
 11
259.92948168064555
 21
182.65496480952777
  0
LINE
  8
_0-1_0
  6
CONTINUOUS
 62
    7
 10
259.92948168064555
 20
182.65496480952777
 11
259.91558247767443
 21
182.66736496211587
  0
LINE
  8
_0-1_0
  6
CONTINUOUS
 62
    7
 10
259.91558247767443
 20
182.66736496211587
 11
259.90060934059244
 21
182.67941097466689
  0
LINE
  8
_0-1_0
  6
CONTINUOUS
 62
    7
 10
259.90060934059244
 20
182.67941097466689
 11
259.88435638695967
 21
182.69129767405991
  0
LINE
  8
_0-1_0
  6
CONTINUOUS
 62
    7
 10
259.88435638695967
 20
182.69129767405991
 11
259.86676640976935
 21
182.70306922284789
  0
LINE
  8
_0-1_0
  6
CONTINUOUS
 62
    7
 10
259.86676640976935
 20
182.70306922284789
 11
259.84778546441754
 21
182.7147615486499
  0
LINE
  8
_0-1_0
  6
CONTINUOUS
 62
    7
 10
259.84778546441754
 20
182.7147615486499
 11
259.82714528227854
 21
182.72652460313589
  0
LINE
  8
_0-1_0
  6
CONTINUOUS
 62
    7
 10
259.82714528227854
 20
182.72652460313589
 11
259.80468028809366
 21
182.73841920113279
  0
LINE
  8
_0-1_0
  6
CONTINUOUS
 62
    7
 10
259.80468028809366
 20
182.73841920113279
 11
259.78035675008442
 21
182.7504306098719
  0
LINE
  8
_0-1_0
  6
CONTINUOUS
 62
    7
 10
259.78035675008442
 20
182.7504306098719
 11
259.68216609255643
 21
182.79660657847978
  0
LINE
  8
_0-1_0
  6
CONTINUOUS
 62
    7
 10
257.15646825669052
 20
181.7544174247879
 11
257.14649130266753
 21
181.74969125563388
  0
LINE
  8
_0-1_0
  6
CONTINUOUS
 62
    7
 10
257.14649130266753
 20
181.74969125563388
 11
257.12054948529044
 21
181.73678677893787
  0
LINE
  8
_0-1_0
  6
CONTINUOUS
 62
    7
 10
257.12054948529044
 20
181.73678677893787
 11
257.09659599330354
 21
181.72393321836188
  0
LINE
  8
_0-1_0
  6
CONTINUOUS
 62
    7
 10
257.09659599330354
 20
181.72393321836188
 11
257.07458457921047
 21
181.71112498991886
  0
LINE
  8
_0-1_0
  6
CONTINUOUS
 62
    7
 10
257.07458457921047
 20
181.71112498991886
 11
257.05437840336356
 21
181.6983012845389
  0
LINE
  8
_0-1_0
  6
CONTINUOUS
 62
    7
 10
257.05437840336356
 20
181.6983012845389
 11
257.03575824071743
 21
181.68532702118591
  0
LINE
  8
_0-1_0
  6
CONTINUOUS
 62
    7
 10
257.03575824071743
 20
181.68532702118591
 11
257.01865528815352
 21
181.67214081327188
  0
LINE
  8
_0-1_0
  6
CONTINUOUS
 62
    7
 10
257.01865528815352
 20
181.67214081327188
 11
257.00302461713466
 21
181.65868677608279
  0
LINE
  8
_0-1_0
  6
CONTINUOUS
 62
    7
 10
257.00302461713466
 20
181.65868677608279
 11
256.98872725640746
 21
181.64479945525687
  0
LINE
  8
_0-1_0
  6
CONTINUOUS
 62
    7
 10
256.98872725640746
 20
181.64479945525687
 11
256.97569989927354
 21
181.63032622120988
  0
LINE
  8
_0-1_0
  6
CONTINUOUS
 62
    7
 10
256.97569989927354
 20
181.63032622120988
 11
256.96404502063552
 21
181.6152654450139
  0
LINE
  8
_0-1_0
  6
CONTINUOUS
 62
    7
 10
256.96404502063552
 20
181.6152654450139
 11
256.95389154487253
 21
181.5996864439789
  0
LINE
  8
_0-1_0
  6
CONTINUOUS
 62
    7
 10
256.95389154487253
 20
181.5996864439789
 11
256.94525263642555
 21
181.5835051492399
  0
LINE
  8
_0-1_0
  6
CONTINUOUS
 62
    7
 10
256.94525263642555
 20
181.5835051492399
 11
256.93822491048041
 21
181.56676841944386
  0
LINE
  8
_0-1_0
  6
CONTINUOUS
 62
    7
 10
256.93822491048041
 20
181.56676841944386
 11
256.93297171464042
 21
181.54983669339191
  0
LINE
  8
_0-1_0
  6
CONTINUOUS
 62
    7
 10
256.93297171464042
 20
181.54983669339191
 11
256.92949926434454
 21
181.53292360577888
  0
LINE
  8
_0-1_0
  6
CONTINUOUS
 62
    7
 10
256.92949926434454
 20
181.53292360577888
 11
256.92774045963654
 21
181.5159878343739
  0
LINE
  8
_0-1_0
  6
CONTINUOUS
 62
    7
 10
256.92774045963654
 20
181.5159878343739
 11
256.92766998153354
 21
181.49907604602487
  0
LINE
  8
_0-1_0
  6
CONTINUOUS
 62
    7
 10
256.92766998153354
 20
181.49907604602487
 11
256.92926229228652
 21
181.48230273988679
  0
LINE
  8
_0-1_0
  6
CONTINUOUS
 62
    7
 10
256.92926229228652
 20
181.48230273988679
 11
256.93248219541562
 21
181.46575065738188
  0
LINE
  8
_0-1_0
  6
CONTINUOUS
 62
    7
 10
256.93248219541562
 20
181.46575065738188
 11
256.93731997522542
 21
181.44940771577888
  0
LINE
  8
_0-1_0
  6
CONTINUOUS
 62
    7
 10
256.93731997522542
 20
181.44940771577888
 11
256.94380208997961
 21
181.43324419229288
  0
LINE
  8
_0-1_0
  6
CONTINUOUS
 62
    7
 10
256.94380208997961
 20
181.43324419229288
 11
256.95188998110956
 21
181.41740306898788
  0
LINE
  8
_0-1_0
  6
CONTINUOUS
 62
    7
 10
256.95188998110956
 20
181.41740306898788
 11
256.96146909885954
 21
181.40206364338678
  0
LINE
  8
_0-1_0
  6
CONTINUOUS
 62
    7
 10
256.96146909885954
 20
181.40206364338678
 11
256.97251583952954
 21
181.38719179920486
  0
LINE
  8
_0-1_0
  6
CONTINUOUS
 62
    7
 10
256.97251583952954
 20
181.38719179920486
 11
256.98501508251053
 21
181.37275645318687
  0
LINE
  8
_0-1_0
  6
CONTINUOUS
 62
    7
 10
256.98501508251053
 20
181.37275645318687
 11
256.99880582269253
 21
181.3588684966669
  0
LINE
  8
_0-1_0
  6
CONTINUOUS
 62
    7
 10
256.99880582269253
 20
181.3588684966669
 11
257.01378448710034
 21
181.34552592923887
  0
LINE
  8
_0-1_0
  6
CONTINUOUS
 62
    7
 10
257.01378448710034
 20
181.34552592923887
 11
257.03002323397232
 21
181.33257851198886
  0
LINE
  8
_0-1_0
  6
CONTINUOUS
 62
    7
 10
257.03002323397232
 20
181.33257851198886
 11
257.04759907469753
 21
181.31991462123187
  0
LINE
  8
_0-1_0
  6
CONTINUOUS
 62
    7
 10
257.04759907469753
 20
181.31991462123187
 11
257.06646228758143
 21
181.30752931473489
  0
LINE
  8
_0-1_0
  6
CONTINUOUS
 62
    7
 10
257.06646228758143
 20
181.30752931473489
 11
257.08671181848655
 21
181.29532294519089
  0
LINE
  8
_0-1_0
  6
CONTINUOUS
 62
    7
 10
257.08671181848655
 20
181.29532294519089
 11
257.10869951586062
 21
181.28308255238289
  0
LINE
  8
_0-1_0
  6
CONTINUOUS
 62
    7
 10
257.10869951586062
 20
181.28308255238289
 11
257.13257378607346
 21
181.27075054903986
  0
LINE
  8
_0-1_0
  6
CONTINUOUS
 62
    7
 10
257.13257378607346
 20
181.27075054903986
 11
257.15701136298065
 21
181.25896556644386
  0
LINE
  8
_0-1_0
  6
CONTINUOUS
 62
    7
 10
257.30405347790435
 20
179.82429736609686
 11
257.21304497208945
 21
179.78114677825391
  0
LINE
  8
_0-1_0
  6
CONTINUOUS
 62
    7
 10
259.63292324521245
 20
184.19323689814689
 11
259.73505782952043
 21
184.24155806403178
  0
LINE
  8
_0-1_0
  6
CONTINUOUS
 62
    7
 10
259.73505782952043
 20
184.24155806403178
 11
259.77429450606644
 21
184.2599329242409
  0
LINE
  8
_0-1_0
  6
CONTINUOUS
 62
    7
 10
257.29700482950665
 20
181.82073252261489
 11
257.19486843780356
 21
181.77240053720578
  0
LINE
  8
_0-1_0
  6
CONTINUOUS
 62
    7
 10
259.63292324521245
 20
182.1934368981469
 11
259.73505782952043
 21
182.2417580640319
  0
LINE
  8
_0-1_0
  6
CONTINUOUS
 62
    7
 10
259.73505782952043
 20
182.2417580640319
 11
259.77159096220555
 21
182.25886563976991
  0
LINE
  8
_0-1_0
  6
CONTINUOUS
 62
    7
 10
259.63292324521245
 20
180.19363689814691
 11
259.73505782952043
 21
180.24195806403191
  0
LINE
  8
_0-1_0
  6
CONTINUOUS
 62
    7
 10
259.73505782952043
 20
180.24195806403191
 11
259.77159038377846
 21
180.25906536979687
  0
LINE
  8
_0-1_0
  6
CONTINUOUS
 62
    7
 10
257.19486843780356
 20
181.77240053720578
 11
257.15647367917842
 21
181.75441999968177
  0
LINE
  8
_0-1_0
  6
CONTINUOUS
 62
    7
 10
257.21304497208945
 20
179.78114677825391
 11
257.15667985280152
 21
179.7547164221599
  0
LINE
  8
_0-1_0
  6
CONTINUOUS
 62
    9
 10
257.16800510895052
 20
179.75992966078388
 11
257.15701282737962
 21
179.75487202811286
  0
LINE
  8
_0-1_0
  6
CONTINUOUS
 62
    7
 10
240.82152865553155
 20
197.70622152272279
 11
240.44894472068154
 21
199.65734298318478
  0
LINE
  8
_0-1_0
  6
CONTINUOUS
 62
    7
 10
240.92151865553143
 20
197.70622152272279
 11
240.54893472068153
 21
199.65734298318478
  0
LINE
  8
_0-1_0
  6
CONTINUOUS
 62
    7
 10
247.09138201991442
 20
192.51646937317389
 11
246.46550078429766
 21
197.61386297707691
  0
LINE
  8
_0-1_0
  6
CONTINUOUS
 62
    7
 10
261.96711454395046
 20
187.25624331535687
 11
261.49205936815855
 21
197.30409551207276
  0
LINE
  8
_0-1_0
  6
CONTINUOUS
 62
    7
 10
261.22174145931956
 20
187.25624331535687
 11
261.01101444473443
 21
192.71180531065687
  0
LINE
  8
_0-1_0
  6
CONTINUOUS
 62
    7
 10
261.46400078429753
 20
197.61386297707691
 11
261.46158114749744
 21
197.70626517896278
  0
LINE
  8
_0-1_0
  6
CONTINUOUS
 62
    7
 10
260.93431059043252
 20
217.8419153937769
 11
260.85523449610542
 21
220.86170960385186
  0
LINE
  8
_0-1_0
  6
CONTINUOUS
 62
    7
 10
260.84499229921545
 20
221.25284331535676
 11
260.75232264013835
 21
224.79175481729891
  0
LINE
  8
_0-1_0
  6
CONTINUOUS
 62
    7
 10
258.81800778157555
 20
187.25624331535687
 11
258.71028825460564
 21
197.30409551207276
  0
LINE
  8
_0-1_0
  6
CONTINUOUS
 62
    7
 10
254.56469078429751
 20
187.25624331535687
 11
254.56469078429751
 21
186.46469311253588
  0
LINE
  8
_0-1_0
  6
CONTINUOUS
 62
    7
 10
254.96148702494753
 20
187.25624331535687
 11
254.96148702494753
 21
186.3342761921989
  0
LINE
  8
_0-1_0
  6
CONTINUOUS
 62
    7
 10
255.70686010957854
 20
187.25624331535687
 11
255.70686010957854
 21
186.46469311253588
  0
LINE
  8
_0-1_0
  6
CONTINUOUS
 62
    7
 10
256.46450078429746
 20
221.25284331535676
 11
256.46450078429746
 21
220.86170960385186
  0
LINE
  8
_0-1_0
  6
CONTINUOUS
 62
    7
 10
256.66478887045542
 20
199.65734298318478
 11
256.66478887045542
 21
216.54303226326186
  0
LINE
  8
_0-1_0
  6
CONTINUOUS
 62
    7
 10
256.83797663085653
 20
199.65734298318478
 11
256.83797663085653
 21
216.54303226326186
  0
LINE
  8
_0-1_0
  6
CONTINUOUS
 62
    7
 10
257.36441078429743
 20
186.2563433153569
 11
257.36441078429743
 21
185.85270789475391
  0
LINE
  8
_0-1_0
  6
CONTINUOUS
 62
    7
 10
257.36441078429743
 20
185.25644331535688
 11
257.36441078429743
 21
183.85290789475391
  0
LINE
  8
_0-1_0
  6
CONTINUOUS
 62
    7
 10
257.36441078429743
 20
183.25664331535688
 11
257.36441078429743
 21
181.85310789475386
  0
LINE
  8
_0-1_0
  6
CONTINUOUS
 62
    7
 10
257.36441078429743
 20
181.25684331535689
 11
257.36441078429743
 21
179.85329583353587
  0
LINE
  8
_0-1_0
  6
CONTINUOUS
 62
    7
 10
257.36441078429743
 20
179.25704331535678
 11
257.36441078429743
 21
179.05706331535686
  0
LINE
  8
_0-1_0
  6
CONTINUOUS
 62
    7
 10
258.11059378732244
 20
187.25624331535687
 11
258.11059378732244
 21
186.3342761921989
  0
LINE
  8
_0-1_0
  6
CONTINUOUS
 62
    7
 10
258.46430078429745
 20
186.46469311253588
 11
258.46430078429745
 21
192.51646937317389
  0
LINE
  8
_0-1_0
  6
CONTINUOUS
 62
    7
 10
258.81800778157555
 20
187.25624331535687
 11
258.81800778157555
 21
186.3342761921989
  0
LINE
  8
_0-1_0
  6
CONTINUOUS
 62
    7
 10
259.56419078429747
 20
201.23054048527689
 11
259.56419078429747
 21
200.75489331535681
  0
LINE
  8
_0-1_0
  6
CONTINUOUS
 62
    7
 10
259.56419078429747
 20
186.1600280763289
 11
259.56419078429747
 21
184.75649331535686
  0
LINE
  8
_0-1_0
  6
CONTINUOUS
 62
    7
 10
259.56419078429747
 20
184.16022807632879
 11
259.56419078429747
 21
182.75669331535687
  0
LINE
  8
_0-1_0
  6
CONTINUOUS
 62
    7
 10
259.56419078429747
 20
182.16042807632891
 11
259.56419078429747
 21
180.75689331535676
  0
LINE
  8
_0-1_0
  6
CONTINUOUS
 62
    7
 10
259.56419078429747
 20
180.16062807632886
 11
259.56419078429747
 21
179.05706331535686
  0
LINE
  8
_0-1_0
  6
CONTINUOUS
 62
    7
 10
260.46410078429756
 20
221.25284331535676
 11
260.46410078429756
 21
220.86170960385186
  0
LINE
  8
_0-1_0
  6
CONTINUOUS
 62
    7
 10
261.22174145931956
 20
187.25624331535687
 11
261.22174145931956
 21
186.46469311253588
  0
LINE
  8
_0-1_0
  6
CONTINUOUS
 62
    7
 10
261.89013685188343
 20
199.65734298318478
 11
261.89013685188343
 21
216.54303226326186
  0
LINE
  8
_0-1_0
  6
CONTINUOUS
 62
    7
 10
261.96711454395046
 20
187.25624331535687
 11
261.96711454395046
 21
186.3342761921989
  0
LINE
  8
_0-1_0
  6
CONTINUOUS
 62
    7
 10
262.36391078429745
 20
187.25624331535687
 11
262.36391078429745
 21
186.46469311253588
  0
LINE
  8
_0-1_0
  6
CONTINUOUS
 62
    7
 10
258.11059378732244
 20
187.25624331535687
 11
258.21831331398954
 21
197.30409551207276
  0
LINE
  8
_0-1_0
  6
CONTINUOUS
 62
    7
 10
255.46460078429766
 20
197.61386297707691
 11
255.49419333898857
 21
198.74395704000489
  0
LINE
  8
_0-1_0
  6
CONTINUOUS
 62
    7
 10
255.92650945153844
 20
215.25344331535689
 11
256.07336707279262
 21
220.86170960385186
  0
LINE
  8
_0-1_0
  6
CONTINUOUS
 62
    7
 10
256.08360926968254
 20
221.25284331535676
 11
256.17627892845655
 21
224.79175481729891
  0
LINE
  8
_0-1_0
  6
CONTINUOUS
 62
    7
 10
255.70686010957854
 20
187.25624331535687
 11
255.91758712386041
 21
192.71180531065687
  0
LINE
  8
_0-1_0
  6
CONTINUOUS
 62
    7
 10
254.96148702494753
 20
187.25624331535687
 11
255.43654220043652
 21
197.30409551207276
  0
LINE
  8
_0-1_0
  6
CONTINUOUS
 62
    7
 10
254.56469078429751
 20
187.25624331535687
 11
254.83871954898342
 21
192.51646937317389
  0
LINE
  8
_0-1_0
  6
CONTINUOUS
 62
    7
 10
254.83871954898342
 20
192.51646937317389
 11
255.46460078429766
 21
197.61386297707691
  0
LINE
  8
_0-1_0
  6
CONTINUOUS
 62
    7
 10
261.45991398180666
 20
197.70622152272279
 11
261.89013685188343
 21
199.65734298318478
  0
LINE
  8
_0-1_0
  6
CONTINUOUS
 62
    7
 10
274.21272578429756
 20
177.55721331535688
 11
225.21762578429764
 21
177.55721331535688
  0
LINE
  8
_0-1_0
  6
CONTINUOUS
 62
    9
 10
224.71767578429751
 20
178.5571133153569
 11
274.71267578429763
 21
178.5571133153569
  0
LINE
  8
_0-1_0
  6
CONTINUOUS
 62
    7
 10
225.21762578429764
 20
179.05706331535686
 11
274.21272578429756
 21
179.05706331535686
  0
LINE
  8
_0-1_0
  6
CONTINUOUS
 62
    7
 10
242.15851042943751
 20
179.25916572248889
 11
242.24661013797936
 21
179.21775712345976
  0
LINE
  8
_0-1_0
  6
CONTINUOUS
 62
    7
 10
242.15851104816335
 20
181.25896543372977
 11
242.24661013040446
 21
181.21755712709586
  0
LINE
  8
_0-1_0
  6
CONTINUOUS
 62
    7
 10
242.15851049215865
 20
183.2587656934009
 11
242.24661013040446
 21
183.2173571270958
  0
LINE
  8
_0-1_0
  6
CONTINUOUS
 62
    7
 10
242.15851115118363
 20
185.25856538555286
 11
242.24661013040446
 21
185.2171571270959
  0
LINE
  8
_0-1_0
  6
CONTINUOUS
 62
    7
 10
257.15701042943743
 20
179.25916572248889
 11
257.24511013797945
 21
179.21775712345976
  0
LINE
  8
_0-1_0
  6
CONTINUOUS
 62
    7
 10
244.77323835776753
 20
184.75430212752786
 11
244.68366609255656
 21
184.79640657847989
  0
LINE
  8
_0-1_0
  6
CONTINUOUS
 62
    7
 10
242.24661013797936
 20
179.21775712345976
 11
242.34672867300344
 21
179.17000028840886
  0
LINE
  8
_0-1_0
  6
CONTINUOUS
 62
    7
 10
242.34672867300344
 20
179.17000028840886
 11
242.36591078429734
 21
179.16072807632878
  0
LINE
  8
_0-1_0
  6
CONTINUOUS
 62
    7
 10
242.24661013040446
 20
181.21755712709586
 11
242.34672866785246
 21
181.16980029083288
  0
LINE
  8
_0-1_0
  6
CONTINUOUS
 62
    7
 10
242.34672866785246
 20
181.16980029083288
 11
242.36591078429734
 21
181.16052807632889
  0
LINE
  8
_0-1_0
  6
CONTINUOUS
 62
    7
 10
244.68366609255656
 20
180.7968065784799
 11
244.58354483235053
 21
180.84457543657078
  0
LINE
  8
_0-1_0
  6
CONTINUOUS
 62
    7
 10
244.58354483235053
 20
180.84457543657078
 11
244.56569078429754
 21
180.85320789475389
  0
LINE
  8
_0-1_0
  6
CONTINUOUS
 62
    7
 10
242.24661013040446
 20
183.2173571270958
 11
242.34672866785246
 21
183.16960029083288
  0
LINE
  8
_0-1_0
  6
CONTINUOUS
 62
    7
 10
242.34672866785246
 20
183.16960029083288
 11
242.36591078429734
 21
183.16032807632877
  0
LINE
  8
_0-1_0
  6
CONTINUOUS
 62
    7
 10
244.68366609255656
 20
182.79660657847978
 11
244.58354483235053
 21
182.84437543657089
  0
LINE
  8
_0-1_0
  6
CONTINUOUS
 62
    7
 10
244.58354483235053
 20
182.84437543657089
 11
244.56569078429754
 21
182.85300789475377
  0
LINE
  8
_0-1_0
  6
CONTINUOUS
 62
    7
 10
242.24661013040446
 20
185.2171571270959
 11
242.34672866785246
 21
185.16940029083287
  0
LINE
  8
_0-1_0
  6
CONTINUOUS
 62
    7
 10
242.34672866785246
 20
185.16940029083287
 11
242.36591078429734
 21
185.16012807632876
  0
LINE
  8
_0-1_0
  6
CONTINUOUS
 62
    7
 10
244.68366609255656
 20
184.79640657847989
 11
244.58354483235053
 21
184.84417543657088
  0
LINE
  8
_0-1_0
  6
CONTINUOUS
 62
    7
 10
244.58354483235053
 20
184.84417543657088
 11
244.56569078429754
 21
184.85280789475388
  0
LINE
  8
_0-1_0
  6
CONTINUOUS
 62
    7
 10
257.24511013797945
 20
179.21775712345976
 11
257.34522867300353
 21
179.17000028840886
  0
LINE
  8
_0-1_0
  6
CONTINUOUS
 62
    7
 10
257.34522867300353
 20
179.17000028840886
 11
257.36441078429743
 21
179.16072807632878
  0
LINE
  8
_0-1_0
  6
CONTINUOUS
 62
    7
 10
256.87990030564544
 20
197.70622152272279
 11
256.66478887045542
 21
199.65734298318478
  0
LINE
  8
_0-1_0
  6
CONTINUOUS
 62
    7
 10
257.05308806574345
 20
197.70622152272279
 11
256.83797663085653
 21
199.65734298318478
  0
LINE
  8
_0-1_0
  6
CONTINUOUS
 62
    7
 10
262.36391078429745
 20
187.25624331535687
 11
262.08988201991451
 21
192.51646937317389
  0
LINE
  8
_0-1_0
  6
CONTINUOUS
 62
    9
 10
264.21372578429742
 20
109.06406331535689
 11
264.21372578429742
 21
139.06099870000077
  0
LINE
  8
_0-1_0
  6
CONTINUOUS
 62
    7
 10
264.71367578429766
 20
109.56401331535687
 11
264.71367578429766
 21
139.06106331535688
  0
LINE
  8
_0-1_0
  6
CONTINUOUS
 62
    9
 10
274.21272578429756
 20
179.05706331535686
 11
274.21272578429756
 21
177.55721331535688
  0
LINE
  8
_0-1_0
  6
CONTINUOUS
 62
    7
 10
274.71267578429763
 20
178.5571133153569
 11
274.71267578429763
 21
177.55721331535688
  0
LINE
  8
_0-1_0
  6
CONTINUOUS
 62
    7
 10
246.41550578429752
 20
186.2563433153569
 11
240.51609578429753
 21
186.2563433153569
  0
LINE
  8
_0-1_0
  6
CONTINUOUS
 62
    7
 10
255.51459578429746
 20
186.2563433153569
 11
261.41400578429744
 21
186.2563433153569
  0
LINE
  8
_0-1_0
  6
CONTINUOUS
 62
    7
 10
262.36391078429745
 20
187.25624331535687
 11
254.56469078429751
 21
187.25624331535687
  0
LINE
  8
_0-1_0
  6
CONTINUOUS
 62
    7
 10
247.36541078429747
 20
187.25624331535687
 11
239.56619078429742
 21
187.25624331535687
  0
LINE
  8
_0-1_0
  6
CONTINUOUS
 62
    7
 10
257.15701104816355
 20
181.25896543372977
 11
257.24511013040433
 21
181.21755712709586
  0
LINE
  8
_0-1_0
  6
CONTINUOUS
 62
    7
 10
257.15701049215852
 20
183.2587656934009
 11
257.24511013040433
 21
183.2173571270958
  0
LINE
  8
_0-1_0
  6
CONTINUOUS
 62
    7
 10
257.15701115118333
 20
185.25856538555286
 11
257.24511013040433
 21
185.2171571270959
  0
LINE
  8
_0-1_0
  6
CONTINUOUS
 62
    7
 10
259.77173835776745
 20
184.75430212752786
 11
259.68216609255643
 21
184.79640657847989
  0
LINE
  8
_0-1_0
  6
CONTINUOUS
 62
    7
 10
257.24511013040433
 20
181.21755712709586
 11
257.34522866785267
 21
181.16980029083288
  0
LINE
  8
_0-1_0
  6
CONTINUOUS
 62
    7
 10
257.34522866785267
 20
181.16980029083288
 11
257.36441078429743
 21
181.16052807632889
  0
LINE
  8
_0-1_0
  6
CONTINUOUS
 62
    7
 10
259.68216609255643
 20
180.7968065784799
 11
259.58204483235056
 21
180.84457543657078
  0
LINE
  8
_0-1_0
  6
CONTINUOUS
 62
    7
 10
259.58204483235056
 20
180.84457543657078
 11
259.56419078429747
 21
180.85320789475389
  0
LINE
  8
_0-1_0
  6
CONTINUOUS
 62
    7
 10
257.24511013040433
 20
183.2173571270958
 11
257.34522866785267
 21
183.16960029083288
  0
LINE
  8
_0-1_0
  6
CONTINUOUS
 62
    7
 10
257.34522866785267
 20
183.16960029083288
 11
257.36441078429743
 21
183.16032807632877
  0
LINE
  8
_0-1_0
  6
CONTINUOUS
 62
    7
 10
259.68216609255643
 20
182.79660657847978
 11
259.58204483235056
 21
182.84437543657089
  0
LINE
  8
_0-1_0
  6
CONTINUOUS
 62
    7
 10
259.58204483235056
 20
182.84437543657089
 11
259.56419078429747
 21
182.85300789475377
  0
LINE
  8
_0-1_0
  6
CONTINUOUS
 62
    7
 10
257.24511013040433
 20
185.2171571270959
 11
257.34522866785267
 21
185.16940029083287
  0
LINE
  8
_0-1_0
  6
CONTINUOUS
 62
    7
 10
257.34522866785267
 20
185.16940029083287
 11
257.36441078429743
 21
185.16012807632876
  0
LINE
  8
_0-1_0
  6
CONTINUOUS
 62
    7
 10
259.68216609255643
 20
184.79640657847989
 11
259.58204483235056
 21
184.84417543657088
  0
LINE
  8
_0-1_0
  6
CONTINUOUS
 62
    7
 10
259.58204483235056
 20
184.84417543657088
 11
259.56419078429747
 21
184.85280789475388
  0
LINE
  8
_0-1_0
  6
CONTINUOUS
 62
    7
 10
246.38266684821645
 20
216.54303226326186
 11
245.55307882440644
 21
217.84476831300179
  0
LINE
  8
_0-1_0
  6
CONTINUOUS
 62
    7
 10
246.48265684821655
 20
216.54303226326186
 11
245.65306882440666
 21
217.84476831300179
  0
LINE
  8
_0-1_0
  6
CONTINUOUS
 62
    7
 10
262.08988201991451
 20
192.51646937317389
 11
261.46400078429753
 21
197.61386297707691
  0
LINE
  8
_0-1_0
  6
CONTINUOUS
 62
    7
 10
240.46610078429745
 20
197.61386297707691
 11
246.46550078429766
 21
197.61386297707691
  0
LINE
  8
_0-1_0
  6
CONTINUOUS
 62
    7
 10
255.46460078429766
 20
197.61386297707691
 11
261.46400078429753
 21
197.61386297707691
  0
LINE
  8
_0-1_0
  6
CONTINUOUS
 62
    7
 10
256.83797663085653
 20
199.65734298318478
 11
256.66478887045542
 21
199.65734298318478
  0
LINE
  8
_0-1_0
  6
CONTINUOUS
 62
    7
 10
246.48265684821655
 20
199.65734298318478
 11
246.38266684821645
 21
199.65734298318478
  0
LINE
  8
_0-1_0
  6
CONTINUOUS
 62
    7
 10
240.54893472068153
 20
199.65734298318478
 11
240.44894472068154
 21
199.65734298318478
  0
LINE
  8
_0-1_0
  6
CONTINUOUS
 62
    7
 10
259.63660269783657
 20
198.81665414744589
 11
259.56604824792663
 21
198.85050980851088
  0
LINE
  8
_0-1_0
  6
CONTINUOUS
 62
    7
 10
259.57575807078643
 20
200.84561509499889
 11
259.56419078429747
 21
200.85120789475388
  0
LINE
  8
_0-1_0
  6
CONTINUOUS
 62
    7
 10
243.11329825625745
 20
215.25344331535689
 11
243.81830331264047
 21
215.25344331535689
  0
LINE
  8
_0-1_0
  6
CONTINUOUS
 62
    7
 10
255.92650945153844
 20
215.25344331535689
 11
255.95111021939744
 21
215.25344331535689
  0
LINE
  8
_0-1_0
  6
CONTINUOUS
 62
    7
 10
259.42731161206854
 20
215.25344331535689
 11
260.03207704917355
 21
215.25344331535689
  0
LINE
  8
_0-1_0
  6
CONTINUOUS
 62
    7
 10
256.83797663085653
 20
216.54303226326186
 11
256.66478887045542
 21
216.54303226326186
  0
LINE
  8
_0-1_0
  6
CONTINUOUS
 62
    7
 10
246.48265684821655
 20
216.54303226326186
 11
246.38266684821645
 21
216.54303226326186
  0
LINE
  8
_0-1_0
  6
CONTINUOUS
 62
    7
 10
240.54893472068153
 20
216.54303226326186
 11
240.44894472068154
 21
216.54303226326186
  0
LINE
  8
_0-1_0
  6
CONTINUOUS
 62
    7
 10
261.89013685188343
 20
216.54303226326186
 11
260.93221111434042
 21
217.84476831300179
  0
LINE
  8
_0-1_0
  6
CONTINUOUS
 62
    7
 10
241.07486707279242
 20
220.86170960385186
 11
245.85673449610556
 21
220.86170960385186
  0
LINE
  8
_0-1_0
  6
CONTINUOUS
 62
    7
 10
256.07347457628345
 20
220.86170960385186
 11
260.85512699261454
 21
220.86170960385186
  0
LINE
  8
_0-1_0
  6
CONTINUOUS
 62
    7
 10
260.84488525658765
 20
221.25284331535676
 11
256.08371631231046
 21
221.25284331535676
  0
LINE
  8
_0-1_0
  6
CONTINUOUS
 62
    7
 10
245.84649229921553
 20
221.25284331535676
 11
241.08510926968245
 21
221.25284331535676
  0
LINE
  8
_0-1_0
  6
CONTINUOUS
 62
    9
 10
241.17777892845663
 20
224.79175481123877
 11
245.75382264044134
 21
224.79175481123877
  0
LINE
  8
_0-1_0
  6
CONTINUOUS
 62
    9
 10
256.17627892845655
 20
224.7917548166929
 11
260.75232264044155
 21
224.7917548166929
  0
LINE
  8
_0-1_0
  6
CONTINUOUS
 62
    7
 10
242.67711496713042
 20
226.25234331535688
 11
244.25448660146446
 21
226.25234331535688
  0
LINE
  8
_0-1_0
  6
CONTINUOUS
 62
    7
 10
257.67565017603334
 20
226.25234331535688
 11
259.25295139286442
 21
226.25234331535688
  0
LINE
  8
_0-1_0
  6
CONTINUOUS
 62
    9
 10
388.23996212997338
 20
110.06396331535689
 11
388.23996212997338
 21
118.06316331535686
  0
LINE
  8
_0-1_0
  6
CONTINUOUS
 62
    9
 10
407.21165372895643
 20
110.06396331535689
 11
407.21165372895643
 21
118.06316331535686
  0
LINE
  8
_0-1_0
  6
CONTINUOUS
 62
    9
 10
419.65137282415242
 20
110.06396331535689
 11
419.65137282415242
 21
118.06316331535686
  0
LINE
  8
_0-1_0
  6
CONTINUOUS
 62
    7
 10
419.69817578429729
 20
118.06316331535686
 11
419.69817578429729
 21
110.06396331535689
  0
ARC
  8
_0-1_0
  6
CONTINUOUS
 62
    7
 10
559.43986059583551
 20
464.9631993551327
 40
1.499849999999999
 50
180
 51
268.49999976930457
  0
ARC
  8
_0-1_0
  6
CONTINUOUS
 62
    7
 10
559.43986059583551
 20
466.54057098946691
 40
1.499849999999999
 50
91.500000230695505
 51
180
  0
ARC
  8
_0-1_0
  6
CONTINUOUS
 62
    7
 10
595.43676823900523
 20
468.6512145406698
 40
2.4997499999999988
 50
1.1547180658004821
 51
16.110037904997803
  0
ARC
  8
_0-1_0
  6
CONTINUOUS
 62
    7
 10
645.13129059583537
 20
596.36211744920286
 40
124.9875
 50
252.06125753449368
 51
270.0000305288043
  0
ARC
  8
_0-1_0
  6
CONTINUOUS
 62
    7
 10
645.13129059583537
 20
441.37761744920283
 40
19.998000000000001
 50
0
 51
90
  0
ARC
  8
_0-1_0
  6
CONTINUOUS
 62
    7
 10
645.13129059583537
 20
363.88624141694879
 40
97.489376031950997
 50
90
 51
113.25819924029601
  0
ARC
  8
_0-1_0
  6
CONTINUOUS
 62
    7
 10
645.13129059583537
 20
441.37761744920283
 40
29.997
 50
0
 51
90
  0
ARC
  8
_0-1_0
  6
CONTINUOUS
 62
    7
 10
605.63524059583551
 20
453.95306517229983
 40
0.4999500000000001
 50
180
 51
270
  0
ARC
  8
_0-1_0
  6
CONTINUOUS
 62
    7
 10
605.63524059583551
 20
476.95076517229973
 40
0.4999500000000001
 50
90
 51
180
  0
ARC
  8
_0-1_0
  6
CONTINUOUS
 62
    7
 10
665.62924059583577
 20
431.87856744920282
 40
0.4999500000000001
 50
180
 51
270
  0
ARC
  8
_0-1_0
  6
CONTINUOUS
 62
    7
 10
674.62834059583577
 20
431.87856744920282
 40
0.4999500000000001
 50
270
 51
0
  0
ARC
  8
_0-1_0
  6
CONTINUOUS
 62
    9
 10
645.13129059583537
 20
441.37761744920283
 40
29.497049780325
 50
0
 51
89.999465892502826
  0
ARC
  8
_0-1_0
  6
CONTINUOUS
 62
    9
 10
645.13129059583537
 20
441.37761744920283
 40
20.497949521260001
 50
0
 51
89.999587984101396
  0
ARC
  8
_0-1_0
  6
CONTINUOUS
 62
    7
 10
235.21662578429732
 20
470.87466744920289
 40
0.4999500000000001
 50
90
 51
180
  0
ARC
  8
_0-1_0
  6
CONTINUOUS
 62
    7
 10
264.21372578429742
 20
470.87466744920289
 40
0.4999500000000001
 50
0
 51
90
  0
ARC
  8
_0-1_0
  6
CONTINUOUS
 62
    7
 10
264.21372578429742
 20
431.87856744920282
 40
0.4999500000000001
 50
270
 51
0
  0
ARC
  8
_0-1_0
  6
CONTINUOUS
 62
    7
 10
274.21272578429756
 20
453.95306517229983
 40
0.4999500000000001
 50
270
 51
0
  0
ARC
  8
_0-1_0
  6
CONTINUOUS
 62
    7
 10
225.21762578429764
 20
453.95306517229983
 40
0.4999500000000001
 50
180
 51
270
  0
ARC
  8
_0-1_0
  6
CONTINUOUS
 62
    7
 10
235.21662578429732
 20
431.87856744920282
 40
0.4999500000000001
 50
180
 51
270
  0
ARC
  8
_0-1_0
  6
CONTINUOUS
 62
    7
 10
225.21762578429764
 20
476.95076517229973
 40
0.4999500000000001
 50
90
 51
180
  0
ARC
  8
_0-1_0
  6
CONTINUOUS
 62
    7
 10
274.21272578429756
 20
476.95076517229973
 40
0.4999500000000001
 50
0
 51
90
  0
ARC
  8
_0-1_0
  6
CONTINUOUS
 62
    7
 10
99.730175784297558
 20
361.58559744920279
 40
19.998000000000001
 50
176.07928072449903
 51
270
  0
ARC
  8
_0-1_0
  6
CONTINUOUS
 62
    7
 10
111.19038943892463
 20
419.57979744920283
 40
11.998799999999999
 50
90
 51
161.56435359930319
  0
ARC
  8
_0-1_0
  6
CONTINUOUS
 62
    7
 10
333.15918114802554
 20
345.58719744920279
 40
245.97540000000001
 50
161.56435359930319
 51
176.079280724499
  0
ARC
  8
_0-1_0
  6
CONTINUOUS
 62
    7
 10
99.730175784297558
 20
361.58559744920279
 40
11.998799999999999
 50
176.07928072449903
 51
270
  0
ARC
  8
_0-1_0
  6
CONTINUOUS
 62
    7
 10
399.70017578429758
 20
361.58559744920279
 40
11.998799999999999
 50
270
 51
3.9207192755010372
  0
ARC
  8
_0-1_0
  6
CONTINUOUS
 62
    7
 10
166.27117042087264
 20
345.58719744920279
 40
245.97540000000001
 50
3.920719275501003
 51
18.435646400696751
  0
ARC
  8
_0-1_0
  6
CONTINUOUS
 62
    7
 10
388.23996212997338
 20
419.57979744920283
 40
11.998799999999999
 50
18.435646400696751
 51
90
  0
ARC
  8
_0-1_0
  6
CONTINUOUS
 62
    7
 10
399.70017578429758
 20
361.58559744920279
 40
19.998000000000001
 50
270
 51
3.9207192755010372
  0
ARC
  8
_0-1_0
  6
CONTINUOUS
 62
    7
 10
333.15918114802554
 20
345.58719744920279
 40
253.97460000000001
 50
161.56435359930319
 51
176.079280724499
  0
ARC
  8
_0-1_0
  6
CONTINUOUS
 62
    7
 10
166.27117042087264
 20
345.58719744920279
 40
253.97460000000001
 50
3.920719275501003
 51
18.435646400696751
  0
ARC
  8
_0-1_0
  6
CONTINUOUS
 62
    7
 10
111.19038943892463
 20
419.57979744920283
 40
19.998000000000001
 50
90
 51
161.56435359930319
  0
ARC
  8
_0-1_0
  6
CONTINUOUS
 62
    7
 10
388.23996212997338
 20
419.57979744920283
 40
19.998000000000001
 50
18.435646400696751
 51
90
  0
ARC
  8
_0-1_0
  6
CONTINUOUS
 62
    7
 10
259.25298660146461
 20
224.75249331535679
 40
1.499849999999999
 50
1.5000002306987572
 51
90
  0
ARC
  8
_0-1_0
  6
CONTINUOUS
 62
    7
 10
257.67561496713051
 20
224.75249331535679
 40
1.499849999999999
 50
90
 51
178.49999976930121
  0
ARC
  8
_0-1_0
  6
CONTINUOUS
 62
    7
 10
255.56497141623055
 20
188.7555856721869
 40
2.4997499999999988
 50
246.41230217540141
 51
268.84528193420277
  0
ARC
  8
_0-1_0
  6
CONTINUOUS
 62
    7
 10
261.36363015266744
 20
188.7555856721869
 40
2.4997499999999988
 50
271.15471806579723
 51
286.11003790500467
  0
ARC
  8
_0-1_0
  6
CONTINUOUS
 62
    7
 10
242.67711496713042
 20
224.75249331535679
 40
1.499849999999999
 50
90
 51
178.50000000000031
  0
ARC
  8
_0-1_0
  6
CONTINUOUS
 62
    7
 10
244.25448660146446
 20
224.75249331535679
 40
1.499849999999999
 50
1.4999999999996829
 51
90
  0
ARC
  8
_0-1_0
  6
CONTINUOUS
 62
    7
 10
240.56647141623034
 20
188.7555856721869
 40
2.4997499999999988
 50
246.41230217540141
 51
268.84528193420277
  0
ARC
  8
_0-1_0
  6
CONTINUOUS
 62
    7
 10
246.36513015266752
 20
188.7555856721869
 40
2.4997499999999988
 50
271.15471806579723
 51
286.11003790500467
  0
ARC
  8
_0-1_0
  6
CONTINUOUS
 62
    7
 10
155.61208703429753
 20
139.06106331535688
 40
79.104588749999991
 50
359.99980083840057
 51
29.120551238704394
  0
ARC
  8
_0-1_0
  6
CONTINUOUS
 62
    7
 10
343.81826453429755
 20
139.06106331535688
 40
79.104588749999991
 50
150.87944876129561
 51
180.00019372770001
  0
ARC
  8
_0-1_0
  6
CONTINUOUS
 62
    7
 10
235.21662578429732
 20
109.56401331535687
 40
0.4999500000000001
 50
180
 51
270
  0
ARC
  8
_0-1_0
  6
CONTINUOUS
 62
    7
 10
225.21762578429764
 20
178.5571133153569
 40
0.4999500000000001
 50
90
 51
180
  0
ARC
  8
_0-1_0
  6
CONTINUOUS
 62
    7
 10
274.21272578429756
 20
178.5571133153569
 40
0.4999500000000001
 50
0
 51
90
  0
ARC
  8
_0-1_0
  6
CONTINUOUS
 62
    7
 10
264.21372578429742
 20
109.56401331535687
 40
0.4999500000000001
 50
270
 51
0
  0
TEXT
  8
_0-2_寸法線
 62
    7
 10
512.89853873984259
 20
457.64239136277638
 40
8
 41
1
 50
90
  1
24
  0
LINE
  8
_0-1_0
  6
CONTINUOUS
 62
    7
 10
517.04213225984267
 20
461.45311517230004
 11
514.89853873984259
 21
453.45311517230004
  0
LINE
  8
_0-1_0
  6
CONTINUOUS
 62
    7
 10
514.89853873984259
 20
453.45311517230004
 11
512.75494521984263
 21
461.45311517230004
  0
LINE
  8
_0-1_0
  6
CONTINUOUS
 62
    7
 10
514.89853873984259
 20
453.45311517230004
 11
514.89853873984259
 21
461.45311517230004
  0
LINE
  8
_0-1_0
  6
CONTINUOUS
 62
    7
 10
512.75494521984263
 20
469.45071517229985
 11
514.89853873984259
 21
477.45071517229985
  0
LINE
  8
_0-1_0
  6
CONTINUOUS
 62
    7
 10
514.89853873984259
 20
477.45071517229985
 11
517.04213225984267
 21
469.45071517229985
  0
LINE
  8
_0-1_0
  6
CONTINUOUS
 62
    7
 10
514.89853873984259
 20
477.45071517229985
 11
514.89853873984259
 21
469.45071517229985
  0
TEXT
  8
_0-2_寸法線
 62
    7
 10
631.89649760506404
 20
523.4359774040588
 40
8
 41
1
 50
0
  1
70
  0
LINE
  8
_0-1_0
  6
CONTINUOUS
 62
    7
 10
613.13529059583573
 20
519.29238388405884
 11
605.13529059583573
 21
521.4359774040588
  0
LINE
  8
_0-1_0
  6
CONTINUOUS
 62
    7
 10
605.13529059583573
 20
521.4359774040588
 11
613.13529059583573
 21
523.57957092405866
  0
LINE
  8
_0-1_0
  6
CONTINUOUS
 62
    7
 10
605.13529059583573
 20
521.4359774040588
 11
613.13529059583573
 21
521.4359774040588
  0
LINE
  8
_0-1_0
  6
CONTINUOUS
 62
    7
 10
667.12829059583555
 20
523.57957092405866
 11
675.12829059583555
 21
521.4359774040588
  0
LINE
  8
_0-1_0
  6
CONTINUOUS
 62
    7
 10
675.12829059583555
 20
521.4359774040588
 11
667.12829059583555
 21
519.29238388405884
  0
LINE
  8
_0-1_0
  6
CONTINUOUS
 62
    7
 10
675.12829059583555
 20
521.4359774040588
 11
667.12829059583555
 21
521.4359774040588
  0
TEXT
  8
_0-2_寸法線
 62
    7
 10
721.34320819096968
 20
397.29213015336484
 40
8
 41
1
 50
90
  1
136
  0
TEXT
  8
_0-2_寸法線
 62
    7
 10
452.64743616601982
 20
153.58697283916638
 40
8
 41
1
 50
90
  1
8
  0
TEXT
  8
_0-2_寸法線
 62
    7
 10
242.77457459389706
 20
254.34241992422091
 40
8
 41
1
 50
0
  1
15
  0
TEXT
  8
_0-2_寸法線
 62
    7
 10
244.94600120375213
 20
281.04251320388221
 40
8
 41
1
 50
0
  1
50
  0
TEXT
  8
_0-2_寸法線
 62
    7
 10
47.973285501274859
 20
383.5116265419872
 40
8
 41
1
 50
90
  1
82
  0
TEXT
  8
_0-2_寸法線
 62
    7
 10
22.77390287903836
 20
375.30160562720187
 40
8
 41
1
 50
90
  1
98
  0
TEXT
  8
_0-2_寸法線
 62
    7
 10
237.53437023514601
 20
523.4359774040588
 40
8
 41
1
 50
0
  1
340
  0
LINE
  8
_0-4_図面枠
  6
CONTINUOUS
 62
    4
 10
-139.93437410409103
 20
651.13644322160496
 11
968.72513876546066
 21
651.13644322160496
  0
LINE
  8
_0-4_図面枠
  6
CONTINUOUS
 62
    4
 10
968.72513876546066
 20
-118.64978458216024
 11
-139.93437410409103
 21
-118.64978458216024
  0
LINE
  8
_0-4_図面枠
  6
CONTINUOUS
 62
    4
 10
-139.93437410409103
 20
-118.64978458216024
 11
-139.93437410409103
 21
651.13644322160496
  0
LINE
  8
_0-4_図面枠
  6
CONTINUOUS
 62
    4
 10
708.72513876546066
 20
-46.649784589360365
 11
708.72513876546066
 21
-118.64978458216024
  0
LINE
  8
_0-4_図面枠
  6
CONTINUOUS
 62
    4
 10
968.72513876546066
 20
-46.649784589360593
 11
198.93891096169602
 21
-46.649784589360593
  0
LINE
  8
_0-5_細線
  6
CONTINUOUS
 62
    6
 10
245.47667548587026
 20
-104.72606929355982
 11
262.29207469466212
 21
-104.72606929355982
  0
LINE
  8
_0-5_細線
  6
CONTINUOUS
 62
    6
 10
262.29207469466212
 20
-104.72606929355982
 11
262.29207469466212
 21
-87.886992450592174
  0
LINE
  8
_0-5_細線
  6
CONTINUOUS
 62
    6
 10
245.47667548587026
 20
-87.886992450592174
 11
245.47667548587026
 21
-104.72606929355982
  0
LINE
  8
_0-5_細線
  6
CONTINUOUS
 62
    6
 10
262.29207469466212
 20
-87.886992450592174
 11
245.47667548587026
 21
-87.886992450592174
  0
LINE
  8
_0-5_細線
  6
CONTINUOUS
 62
    6
 10
264.19736334449601
 20
-82.395825398096463
 11
272.79736334449547
 21
-67.500188453004512
  0
LINE
  8
_0-5_細線
  6
CONTINUOUS
 62
    6
 10
264.19736334449601
 20
-82.395825398096463
 11
281.39736334449583
 21
-82.395825398096463
  0
LINE
  8
_0-5_細線
  6
CONTINUOUS
 62
    6
 10
272.79736334449547
 20
-67.500188453004512
 11
281.39736334449583
 21
-82.395825398096463
  0
CIRCLE
  8
_0-5_細線
  6
CONTINUOUS
 62
    6
 10
286.32844118517562
 20
-64.317108540983895
 40
5.9034863340649544
  0
LINE
  8
_0-5_細線
  6
CONTINUOUS
 62
    6
 10
298.19562477497772
 20
-95.940068644842199
 11
305.44468465035897
 21
-95.940068644842199
  0
LINE
  8
_0-5_細線
  6
CONTINUOUS
 62
    6
 10
307.30991528297926
 20
-99.940068644841972
 11
309.73471510538656
 21
-105.14006864484224
  0
LINE
  8
_0-5_細線
  6
CONTINUOUS
 62
    6
 10
296.33039414235742
 20
-99.940068644841972
 11
293.90559431995194
 21
-105.14006864484224
  0
LINE
  8
_0-5_細線
  6
CONTINUOUS
 62
    6
 10
301.82015471266925
 20
-88.167239109869683
 11
305.44468465035897
 21
-95.940068644842199
  0
LINE
  8
_0-5_細線
  6
CONTINUOUS
 62
    6
 10
301.82015471266925
 20
-88.167239109869683
 11
298.19562477497772
 21
-95.940068644842199
  0
LINE
  8
_0-5_細線
  6
CONTINUOUS
 62
    6
 10
299.44023544820914
 20
-82.119556456109081
 11
288.70559431995122
 21
-105.14006864484224
  0
LINE
  8
_0-5_細線
  6
CONTINUOUS
 62
    6
 10
330.81172660458935
 20
-86.119556456109081
 11
331.11098263760243
 21
-86.283783435147029
  0
LINE
  8
_0-5_細線
  6
CONTINUOUS
 62
    6
 10
331.11098263760243
 20
-86.283783435147029
 11
331.62136844879484
 21
-86.570701566139064
  0
LINE
  8
_0-5_細線
  6
CONTINUOUS
 62
    6
 10
331.62136844879484
 20
-86.570701566139064
 11
332.11627407549452
 21
-86.868086828061337
  0
LINE
  8
_0-5_細線
  6
CONTINUOUS
 62
    6
 10
332.11627407549452
 20
-86.868086828061337
 11
332.58590193257544
 21
-87.182563987323306
  0
LINE
  8
_0-5_細線
  6
CONTINUOUS
 62
    6
 10
332.58590193257544
 20
-87.182563987323306
 11
333.02045443492096
 21
-87.520757810336931
  0
LINE
  8
_0-5_細線
  6
CONTINUOUS
 62
    6
 10
333.02045443492096
 20
-87.520757810336931
 11
333.41013399740501
 21
-87.889293063512582
  0
LINE
  8
_0-5_細線
  6
CONTINUOUS
 62
    6
 10
333.41013399740501
 20
-87.889293063512582
 11
333.61172660458863
 21
-88.119556456109081
  0
LINE
  8
_0-5_細線
  6
CONTINUOUS
 62
    6
 10
333.61172660458863
 20
-88.119556456109081
 11
333.89952115352122
 21
-88.52569457520724
  0
LINE
  8
_0-5_細線
  6
CONTINUOUS
 62
    6
 10
333.89952115352122
 20
-88.52569457520724
 11
334.28134343654443
 21
-89.302406373269719
  0
LINE
  8
_0-5_細線
  6
CONTINUOUS
 62
    6
 10
334.28134343654443
 20
-89.302406373269719
 11
334.53909053008022
 21
-90.160617001032847
  0
LINE
  8
_0-5_細線
  6
CONTINUOUS
 62
    6
 10
334.53909053008022
 20
-90.160617001032847
 11
334.69683634558993
 21
-91.08253195419627
  0
LINE
  8
_0-5_細線
  6
CONTINUOUS
 62
    6
 10
334.69683634558993
 20
-91.08253195419627
 11
334.77865479452805
 21
-92.050356728457132
  0
LINE
  8
_0-5_細線
  6
CONTINUOUS
 62
    6
 10
334.77865479452805
 20
-92.050356728457132
 11
334.80861978835043
 21
-93.046296819514851
  0
LINE
  8
_0-5_細線
  6
CONTINUOUS
 62
    6
 10
334.80861978835043
 20
-93.046296819514851
 11
334.81172660458935
 21
-93.629812550475549
  0
LINE
  8
_0-5_細線
  6
CONTINUOUS
 62
    6
 10
334.81172660458935
 20
-93.629812550475549
 11
334.80861978835043
 21
-94.21332828143602
  0
LINE
  8
_0-5_細線
  6
CONTINUOUS
 62
    6
 10
334.80861978835043
 20
-94.21332828143602
 11
334.77865479452805
 21
-95.209268372493739
  0
LINE
  8
_0-5_細線
  6
CONTINUOUS
 62
    6
 10
334.77865479452805
 20
-95.209268372493739
 11
334.69683634558993
 21
-96.177093146754373
  0
LINE
  8
_0-5_細線
  6
CONTINUOUS
 62
    6
 10
334.69683634558993
 20
-96.177093146754373
 11
334.53909053008022
 21
-97.099008099917796
  0
LINE
  8
_0-5_細線
  6
CONTINUOUS
 62
    6
 10
334.53909053008022
 20
-97.099008099917796
 11
334.28134343654443
 21
-97.957218727681607
  0
LINE
  8
_0-5_細線
  6
CONTINUOUS
 62
    6
 10
334.28134343654443
 20
-97.957218727681607
 11
333.89952115352122
 21
-98.733930525743858
  0
LINE
  8
_0-5_細線
  6
CONTINUOUS
 62
    6
 10
333.89952115352122
 20
-98.733930525743858
 11
333.61172660458863
 21
-99.140068644842245
  0
LINE
  8
_0-5_細線
  6
CONTINUOUS
 62
    6
 10
333.61172660458863
 20
-99.140068644842245
 11
333.41013399740501
 21
-99.370332037438061
  0
LINE
  8
_0-5_細線
  6
CONTINUOUS
 62
    6
 10
333.41013399740501
 20
-99.370332037438061
 11
333.02045443492096
 21
-99.738867290613712
  0
LINE
  8
_0-5_細線
  6
CONTINUOUS
 62
    6
 10
333.02045443492096
 20
-99.738867290613712
 11
332.58590193257544
 21
-100.07706111362779
  0
LINE
  8
_0-5_細線
  6
CONTINUOUS
 62
    6
 10
332.58590193257544
 20
-100.07706111362779
 11
332.11627407549452
 21
-100.39153827288976
  0
LINE
  8
_0-5_細線
  6
CONTINUOUS
 62
    6
 10
332.11627407549452
 20
-100.39153827288976
 11
331.62136844879484
 21
-100.68892353481181
  0
LINE
  8
_0-5_細線
  6
CONTINUOUS
 62
    6
 10
331.62136844879484
 20
-100.68892353481181
 11
331.11098263760243
 21
-100.97584166580452
  0
LINE
  8
_0-5_細線
  6
CONTINUOUS
 62
    6
 10
331.11098263760243
 20
-100.97584166580452
 11
330.81172660458935
 21
-101.14006864484224
  0
LINE
  8
_0-5_細線
  6
CONTINUOUS
 62
    6
 10
330.81172660458935
 20
-105.14006864484224
 11
331.07368151068573
 21
-105.07225342502318
  0
LINE
  8
_0-5_細線
  6
CONTINUOUS
 62
    6
 10
331.07368151068573
 20
-105.07225342502318
 11
331.52559097252652
 21
-104.9541557422591
  0
LINE
  8
_0-5_細線
  6
CONTINUOUS
 62
    6
 10
331.52559097252652
 20
-104.9541557422591
 11
331.97823118996803
 21
-104.83279447623511
  0
LINE
  8
_0-5_細線
  6
CONTINUOUS
 62
    6
 10
331.97823118996803
 20
-104.83279447623511
 11
332.43206466655562
 21
-104.70610406792719
  0
LINE
  8
_0-5_細線
  6
CONTINUOUS
 62
    6
 10
332.43206466655562
 20
-104.70610406792719
 11
332.88755390583452
 21
-104.57201895831179
  0
LINE
  8
_0-5_細線
  6
CONTINUOUS
 62
    6
 10
332.88755390583452
 20
-104.57201895831179
 11
333.34516141135197
 21
-104.42847358836218
  0
LINE
  8
_0-5_細線
  6
CONTINUOUS
 62
    6
 10
333.34516141135197
 20
-104.42847358836218
 11
333.61172660458863
 21
-104.34006864484229
  0
LINE
  8
_0-5_細線
  6
CONTINUOUS
 62
    6
 10
333.61172660458863
 20
-104.34006864484229
 11
334.14174356176142
 21
-104.15213771211972
  0
LINE
  8
_0-5_細線
  6
CONTINUOUS
 62
    6
 10
334.14174356176142
 20
-104.15213771211972
 11
335.04935392615073
 21
-103.78357553894796
  0
LINE
  8
_0-5_細線
  6
CONTINUOUS
 62
    6
 10
335.04935392615073
 20
-103.78357553894796
 11
335.92635363969305
 21
-103.35092659520262
  0
LINE
  8
_0-5_細線
  6
CONTINUOUS
 62
    6
 10
335.92635363969305
 20
-103.35092659520262
 11
336.74629224815823
 21
-102.84523411741145
  0
LINE
  8
_0-5_細線
  6
CONTINUOUS
 62
    6
 10
336.74629224815823
 20
-102.84523411741145
 11
337.48271929731266
 21
-102.25754134210172
  0
LINE
  8
_0-5_細線
  6
CONTINUOUS
 62
    6
 10
337.48271929731266
 20
-102.25754134210172
 11
338.10918433292773
 21
-101.57889150580183
  0
LINE
  8
_0-5_細線
  6
CONTINUOUS
 62
    6
 10
338.10918433292773
 20
-101.57889150580183
 11
338.41172660458966
 21
-101.14006864484224
  0
LINE
  8
_0-5_細線
  6
CONTINUOUS
 62
    6
 10
338.41172660458966
 20
-101.14006864484224
 11
338.51200860757592
 21
-100.96733015275061
  0
LINE
  8
_0-5_細線
  6
CONTINUOUS
 62
    6
 10
338.51200860757592
 20
-100.96733015275061
 11
338.66964579347683
 21
-100.65920171940309
  0
LINE
  8
_0-5_細線
  6
CONTINUOUS
 62
    6
 10
338.66964579347683
 20
-100.65920171940309
 11
338.81015828151521
 21
-100.33995668758268
  0
LINE
  8
_0-5_細線
  6
CONTINUOUS
 62
    6
 10
338.81015828151521
 20
-100.33995668758268
 11
338.93609877693876
 21
-100.01183428924116
  0
LINE
  8
_0-5_細線
  6
CONTINUOUS
 62
    6
 10
338.93609877693876
 20
-100.01183428924116
 11
339.05001998498216
 21
-99.677073756329605
  0
LINE
  8
_0-5_細線
  6
CONTINUOUS
 62
    6
 10
339.05001998498216
 20
-99.677073756329605
 11
339.15447461089121
 21
-99.337914320799996
  0
LINE
  8
_0-5_細線
  6
CONTINUOUS
 62
    6
 10
339.15447461089121
 20
-99.337914320799996
 11
339.21172660458893
 21
-99.140068644842245
  0
LINE
  8
_0-5_細線
  6
CONTINUOUS
 62
    6
 10
339.21172660458893
 20
-99.140068644842245
 11
339.35098726434904
 21
-98.627159320181931
  0
LINE
  8
_0-5_細線
  6
CONTINUOUS
 62
    6
 10
339.35098726434904
 20
-98.627159320181931
 11
339.56160011715752
 21
-97.738819698608154
  0
LINE
  8
_0-5_細線
  6
CONTINUOUS
 62
    6
 10
339.56160011715752
 20
-97.738819698608154
 11
339.73365404988641
 21
-96.84620316554026
  0
LINE
  8
_0-5_細線
  6
CONTINUOUS
 62
    6
 10
339.73365404988641
 20
-96.84620316554026
 11
339.86572160613935
 21
-95.950243544448654
  0
LINE
  8
_0-5_細線
  6
CONTINUOUS
 62
    6
 10
339.86572160613935
 20
-95.950243544448654
 11
339.95637532951253
 21
-95.05187465880374
  0
LINE
  8
_0-5_細線
  6
CONTINUOUS
 62
    6
 10
339.95637532951253
 20
-95.05187465880374
 11
340.00418776360954
 21
-94.152030332075697
  0
LINE
  8
_0-5_細線
  6
CONTINUOUS
 62
    6
 10
340.00418776360954
 20
-94.152030332075697
 11
340.01172660458826
 21
-93.629812550475549
  0
LINE
  8
_0-5_細線
  6
CONTINUOUS
 62
    6
 10
340.01172660458826
 20
-93.629812550475549
 11
340.00418776360954
 21
-93.107594768875174
  0
LINE
  8
_0-5_細線
  6
CONTINUOUS
 62
    6
 10
340.00418776360954
 20
-93.107594768875174
 11
339.95637532951253
 21
-92.207750442147358
  0
LINE
  8
_0-5_細線
  6
CONTINUOUS
 62
    6
 10
339.95637532951253
 20
-92.207750442147358
 11
339.86572160613935
 21
-91.309381556502899
  0
LINE
  8
_0-5_細線
  6
CONTINUOUS
 62
    6
 10
339.86572160613935
 20
-91.309381556502899
 11
339.73365404988641
 21
-90.413421935411293
  0
LINE
  8
_0-5_細線
  6
CONTINUOUS
 62
    6
 10
339.73365404988641
 20
-90.413421935411293
 11
339.56160011715752
 21
-89.520805402342944
  0
LINE
  8
_0-5_細線
  6
CONTINUOUS
 62
    6
 10
339.56160011715752
 20
-89.520805402342944
 11
339.35098726434904
 21
-88.632465780769394
  0
LINE
  8
_0-5_細線
  6
CONTINUOUS
 62
    6
 10
339.35098726434904
 20
-88.632465780769394
 11
339.21172660458893
 21
-88.119556456109081
  0
LINE
  8
_0-5_細線
  6
CONTINUOUS
 62
    6
 10
339.21172660458893
 20
-88.119556456109081
 11
339.15447461089121
 21
-87.921710780151102
  0
LINE
  8
_0-5_細線
  6
CONTINUOUS
 62
    6
 10
339.15447461089121
 20
-87.921710780151102
 11
339.05001998498216
 21
-87.582551344621947
  0
LINE
  8
_0-5_細線
  6
CONTINUOUS
 62
    6
 10
339.05001998498216
 20
-87.582551344621947
 11
338.93609877693876
 21
-87.247790811710388
  0
LINE
  8
_0-5_細線
  6
CONTINUOUS
 62
    6
 10
338.93609877693876
 20
-87.247790811710388
 11
338.81015828151521
 21
-86.919668413368186
  0
LINE
  8
_0-5_細線
  6
CONTINUOUS
 62
    6
 10
338.81015828151521
 20
-86.919668413368186
 11
338.66964579347683
 21
-86.600423381548012
  0
LINE
  8
_0-5_細線
  6
CONTINUOUS
 62
    6
 10
338.66964579347683
 20
-86.600423381548012
 11
338.51200860757592
 21
-86.292294948200947
  0
LINE
  8
_0-5_細線
  6
CONTINUOUS
 62
    6
 10
338.51200860757592
 20
-86.292294948200947
 11
338.41172660458966
 21
-86.119556456109081
  0
LINE
  8
_0-5_細線
  6
CONTINUOUS
 62
    6
 10
338.41172660458966
 20
-86.119556456109081
 11
338.10918433292773
 21
-85.680733595149036
  0
LINE
  8
_0-5_細線
  6
CONTINUOUS
 62
    6
 10
338.10918433292773
 20
-85.680733595149036
 11
337.48271929731266
 21
-85.002083758849153
  0
LINE
  8
_0-5_細線
  6
CONTINUOUS
 62
    6
 10
337.48271929731266
 20
-85.002083758849153
 11
336.74629224815823
 21
-84.414390983539874
  0
LINE
  8
_0-5_細線
  6
CONTINUOUS
 62
    6
 10
336.74629224815823
 20
-84.414390983539874
 11
335.92635363969305
 21
-83.90869850574893
  0
LINE
  8
_0-5_細線
  6
CONTINUOUS
 62
    6
 10
335.92635363969305
 20
-83.90869850574893
 11
335.04935392615073
 21
-83.476049562003368
  0
LINE
  8
_0-5_細線
  6
CONTINUOUS
 62
    6
 10
335.04935392615073
 20
-83.476049562003368
 11
334.14174356176142
 21
-83.107487388831601
  0
LINE
  8
_0-5_細線
  6
CONTINUOUS
 62
    6
 10
334.14174356176142
 20
-83.107487388831601
 11
333.61172660458863
 21
-82.919556456109035
  0
LINE
  8
_0-5_細線
  6
CONTINUOUS
 62
    6
 10
333.61172660458863
 20
-82.919556456109035
 11
333.34516141135197
 21
-82.831151512589372
  0
LINE
  8
_0-5_細線
  6
CONTINUOUS
 62
    6
 10
333.34516141135197
 20
-82.831151512589372
 11
332.88755390583452
 21
-82.687606142639311
  0
LINE
  8
_0-5_細線
  6
CONTINUOUS
 62
    6
 10
332.88755390583452
 20
-82.687606142639311
 11
332.43206466655562
 21
-82.553521033023458
  0
LINE
  8
_0-5_細線
  6
CONTINUOUS
 62
    6
 10
332.43206466655562
 20
-82.553521033023458
 11
331.97823118996803
 21
-82.426830624716217
  0
LINE
  8
_0-5_細線
  6
CONTINUOUS
 62
    6
 10
331.97823118996803
 20
-82.426830624716217
 11
331.52559097252652
 21
-82.305469358692449
  0
LINE
  8
_0-5_細線
  6
CONTINUOUS
 62
    6
 10
331.52559097252652
 20
-82.305469358692449
 11
331.07368151068573
 21
-82.187371675928375
  0
LINE
  8
_0-5_細線
  6
CONTINUOUS
 62
    6
 10
331.07368151068573
 20
-82.187371675928375
 11
330.81172660458935
 21
-82.119556456109081
  0
LINE
  8
_0-5_細線
  6
CONTINUOUS
 62
    6
 10
345.21172660458899
 20
-82.119556456109081
 11
353.34636773284649
 21
-99.564350651517429
  0
LINE
  8
_0-5_細線
  6
CONTINUOUS
 62
    6
 10
361.48100886110217
 20
-82.119556456109081
 11
353.34636773284649
 21
-99.564350651517429
  0
LINE
  8
_0-5_細線
  6
CONTINUOUS
 62
    6
 10
340.01172660458826
 20
-82.119556456109081
 11
350.74636773284601
 21
-105.14006864484224
  0
LINE
  8
_0-5_細線
  6
CONTINUOUS
 62
    6
 10
355.94636773284492
 20
-105.14006864484224
 11
366.68100886110108
 21
-82.119556456109081
  0
LINE
  8
_0-5_細線
  6
CONTINUOUS
 62
    6
 10
370.68100886110278
 20
-82.119556456109081
 11
359.94636773284492
 21
-105.14006864484224
  0
LINE
  8
_0-5_細線
  6
CONTINUOUS
 62
    6
 10
376.02274470288933
 20
-82.119556456109081
 11
386.75738583114719
 21
-105.14006864484224
  0
LINE
  8
_0-5_細線
  6
CONTINUOUS
 62
    6
 10
296.33039414235742
 20
-99.940068644841972
 11
307.30991528297926
 21
-99.940068644841972
  0
LINE
  8
_0-5_細線
  6
CONTINUOUS
 62
    6
 10
367.57116755525112
 20
-99.940068644841972
 11
379.13258600874099
 21
-99.940068644841972
  0
LINE
  8
_0-5_細線
  6
CONTINUOUS
 62
    6
 10
369.43639818787142
 20
-95.940068644842199
 11
377.26735537612069
 21
-95.940068644842199
  0
LINE
  8
_0-5_細線
  6
CONTINUOUS
 62
    6
 10
394.26357967667821
 20
-86.119556456109081
 11
406.14891480103609
 21
-105.14006864484224
  0
LINE
  8
_0-5_細線
  6
CONTINUOUS
 62
    6
 10
408.57861718717788
 20
-100.72525364355886
 11
408.57861718717788
 21
-82.119556456109081
  0
LINE
  8
_0-5_細線
  6
CONTINUOUS
 62
    6
 10
412.97861718717752
 20
-105.14006864484224
 11
412.97861718717752
 21
-82.119556456109081
  0
LINE
  8
_0-5_細線
  6
CONTINUOUS
 62
    6
 10
396.95248724383521
 20
-82.119556456109081
 11
408.57861718717788
 21
-100.72525364355886
  0
LINE
  8
_0-5_細線
  6
CONTINUOUS
 62
    6
 10
389.06357967667918
 20
-82.119556456109081
 11
389.06357967667918
 21
-105.14006864484224
  0
LINE
  8
_0-5_細線
  6
CONTINUOUS
 62
    6
 10
330.81172660458935
 20
-86.119556456109081
 11
322.81172660458935
 21
-86.119556456109081
  0
LINE
  8
_0-5_細線
  6
CONTINUOUS
 62
    6
 10
322.81172660458935
 20
-101.14006864484224
 11
330.81172660458935
 21
-101.14006864484224
  0
LINE
  8
_0-5_細線
  6
CONTINUOUS
 62
    6
 10
377.26735537612069
 20
-95.940068644842199
 11
373.35187678199611
 21
-87.543297702634732
  0
LINE
  8
_0-5_細線
  6
CONTINUOUS
 62
    6
 10
369.43639818787142
 20
-95.940068644842199
 11
373.35187678199611
 21
-87.543297702634732
  0
LINE
  8
_0-5_細線
  6
CONTINUOUS
 62
    6
 10
365.14636773284576
 20
-105.14006864484224
 11
367.57116755525112
 21
-99.940068644841972
  0
LINE
  8
_0-5_細線
  6
CONTINUOUS
 62
    6
 10
381.55738583114646
 20
-105.14006864484224
 11
379.13258600874099
 21
-99.940068644841972
  0
LINE
  8
_0-5_細線
  6
CONTINUOUS
 62
    6
 10
394.26357967667821
 20
-86.119556456109081
 11
394.26357967667821
 21
-105.14006864484224
  0
LINE
  8
_0-5_細線
  6
CONTINUOUS
 62
    6
 10
288.70559431995122
 20
-105.14006864484224
 11
293.90559431995194
 21
-105.14006864484224
  0
LINE
  8
_0-5_細線
  6
CONTINUOUS
 62
    6
 10
309.73471510538656
 20
-105.14006864484224
 11
314.93471510538546
 21
-105.14006864484224
  0
LINE
  8
_0-5_細線
  6
CONTINUOUS
 62
    6
 10
304.20007397712936
 20
-82.119556456109081
 11
314.93471510538546
 21
-105.14006864484224
  0
LINE
  8
_0-5_細線
  6
CONTINUOUS
 62
    6
 10
304.20007397712936
 20
-82.119556456109081
 11
299.44023544820914
 21
-82.119556456109081
  0
LINE
  8
_0-5_細線
  6
CONTINUOUS
 62
    6
 10
317.61172660459044
 20
-82.119556456109081
 11
317.61172660459044
 21
-105.14006864484224
  0
LINE
  8
_0-5_細線
  6
CONTINUOUS
 62
    6
 10
322.81172660458935
 20
-86.119556456109081
 11
322.81172660458935
 21
-101.14006864484224
  0
LINE
  8
_0-5_細線
  6
CONTINUOUS
 62
    6
 10
317.61172660459044
 20
-105.14006864484224
 11
330.81172660458935
 21
-105.14006864484224
  0
LINE
  8
_0-5_細線
  6
CONTINUOUS
 62
    6
 10
330.81172660458935
 20
-82.119556456109081
 11
317.61172660459044
 21
-82.119556456109081
  0
LINE
  8
_0-5_細線
  6
CONTINUOUS
 62
    6
 10
345.21172660458899
 20
-82.119556456109081
 11
340.01172660458826
 21
-82.119556456109081
  0
LINE
  8
_0-5_細線
  6
CONTINUOUS
 62
    6
 10
350.74636773284601
 20
-105.14006864484224
 11
355.94636773284492
 21
-105.14006864484224
  0
LINE
  8
_0-5_細線
  6
CONTINUOUS
 62
    6
 10
366.68100886110108
 20
-82.119556456109081
 11
361.48100886110217
 21
-82.119556456109081
  0
LINE
  8
_0-5_細線
  6
CONTINUOUS
 62
    6
 10
359.94636773284492
 20
-105.14006864484224
 11
365.14636773284576
 21
-105.14006864484224
  0
LINE
  8
_0-5_細線
  6
CONTINUOUS
 62
    6
 10
381.55738583114646
 20
-105.14006864484224
 11
386.75738583114719
 21
-105.14006864484224
  0
LINE
  8
_0-5_細線
  6
CONTINUOUS
 62
    6
 10
389.06357967667918
 20
-105.14006864484224
 11
394.26357967667821
 21
-105.14006864484224
  0
LINE
  8
_0-5_細線
  6
CONTINUOUS
 62
    6
 10
406.14891480103609
 20
-105.14006864484224
 11
412.97861718717752
 21
-105.14006864484224
  0
LINE
  8
_0-5_細線
  6
CONTINUOUS
 62
    6
 10
412.97861718717752
 20
-82.119556456109081
 11
408.57861718717788
 21
-82.119556456109081
  0
LINE
  8
_0-5_細線
  6
CONTINUOUS
 62
    6
 10
396.95248724383521
 20
-82.119556456109081
 11
389.06357967667918
 21
-82.119556456109081
  0
LINE
  8
_0-5_細線
  6
CONTINUOUS
 62
    6
 10
376.02274470288933
 20
-82.119556456109081
 11
370.68100886110278
 21
-82.119556456109081
  0
LINE
  8
_0-5_細線
  6
CONTINUOUS
 62
    6
 10
288.99494390553724
 20
-104.51955645610917
 11
294.19494390553615
 21
-104.51955645610917
  0
LINE
  8
_0-5_細線
  6
CONTINUOUS
 62
    6
 10
309.44536551980042
 20
-104.51955645610917
 11
314.64536551980126
 21
-104.51955645610917
  0
LINE
  8
_0-5_細線
  6
CONTINUOUS
 62
    6
 10
317.61172660459044
 20
-104.51955645610917
 11
333.05479883177492
 21
-104.51955645610917
  0
LINE
  8
_0-5_細線
  6
CONTINUOUS
 62
    6
 10
350.45701814726181
 20
-104.51955645610917
 11
356.23571731843106
 21
-104.51955645610917
  0
LINE
  8
_0-5_細線
  6
CONTINUOUS
 62
    6
 10
360.23571731843106
 20
-104.51955645610917
 11
365.43571731842997
 21
-104.51955645610917
  0
LINE
  8
_0-5_細線
  6
CONTINUOUS
 62
    6
 10
381.26803624556214
 20
-104.51955645610917
 11
386.46803624556117
 21
-104.51955645610917
  0
LINE
  8
_0-5_細線
  6
CONTINUOUS
 62
    6
 10
389.06357967667918
 20
-104.51955645610917
 11
394.26357967667821
 21
-104.51955645610917
  0
LINE
  8
_0-5_細線
  6
CONTINUOUS
 62
    6
 10
405.7611757518107
 20
-104.51955645610917
 11
412.97861718717752
 21
-104.51955645610917
  0
LINE
  8
_0-5_細線
  6
CONTINUOUS
 62
    6
 10
289.36799003205954
 20
-103.71955645610899
 11
294.56799003206027
 21
-103.71955645610899
  0
LINE
  8
_0-5_細線
  6
CONTINUOUS
 62
    6
 10
309.07231939327824
 20
-103.71955645610899
 11
314.27231939327703
 21
-103.71955645610899
  0
LINE
  8
_0-5_細線
  6
CONTINUOUS
 62
    6
 10
317.61172660459044
 20
-103.71955645610899
 11
335.17912361153424
 21
-103.71955645610899
  0
LINE
  8
_0-5_細線
  6
CONTINUOUS
 62
    6
 10
350.08397202073604
 20
-103.71955645610899
 11
356.608763444955
 21
-103.71955645610899
  0
LINE
  8
_0-5_細線
  6
CONTINUOUS
 62
    6
 10
360.608763444955
 20
-103.71955645610899
 11
365.80876344495391
 21
-103.71955645610899
  0
LINE
  8
_0-5_細線
  6
CONTINUOUS
 62
    6
 10
380.89499011903808
 20
-103.71955645610899
 11
386.09499011903893
 21
-103.71955645610899
  0
LINE
  8
_0-5_細線
  6
CONTINUOUS
 62
    6
 10
389.06357967667918
 20
-103.71955645610899
 11
394.26357967667821
 21
-103.71955645610899
  0
LINE
  8
_0-5_細線
  6
CONTINUOUS
 62
    6
 10
405.26128027028346
 20
-103.71955645610899
 11
412.97861718717752
 21
-103.71955645610899
  0
LINE
  8
_0-5_細線
  6
CONTINUOUS
 62
    6
 10
289.74103615858542
 20
-102.91955645610904
 11
294.94103615858432
 21
-102.91955645610904
  0
LINE
  8
_0-5_細線
  6
CONTINUOUS
 62
    6
 10
308.69927326675236
 20
-102.91955645610904
 11
313.89927326675303
 21
-102.91955645610904
  0
LINE
  8
_0-5_細線
  6
CONTINUOUS
 62
    6
 10
317.61172660459044
 20
-102.91955645610904
 11
336.62578471117473
 21
-102.91955645610904
  0
LINE
  8
_0-5_細線
  6
CONTINUOUS
 62
    6
 10
349.71092589421369
 20
-102.91955645610904
 11
356.98180957147918
 21
-102.91955645610904
  0
LINE
  8
_0-5_細線
  6
CONTINUOUS
 62
    6
 10
360.98180957147918
 20
-102.91955645610904
 11
366.18180957147808
 21
-102.91955645610904
  0
LINE
  8
_0-5_細線
  6
CONTINUOUS
 62
    6
 10
380.52194399251414
 20
-102.91955645610904
 11
385.72194399251487
 21
-102.91955645610904
  0
LINE
  8
_0-5_細線
  6
CONTINUOUS
 62
    6
 10
389.06357967667918
 20
-102.91955645610904
 11
394.26357967667821
 21
-102.91955645610904
  0
LINE
  8
_0-5_細線
  6
CONTINUOUS
 62
    6
 10
404.761384788756
 20
-102.91955645610904
 11
412.97861718717752
 21
-102.91955645610904
  0
LINE
  8
_0-5_細線
  6
CONTINUOUS
 62
    6
 10
290.11408228510766
 20
-102.11955645610885
 11
295.31408228510833
 21
-102.11955645610885
  0
LINE
  8
_0-5_細線
  6
CONTINUOUS
 62
    6
 10
308.32622714023006
 20
-102.11955645610885
 11
313.52622714022891
 21
-102.11955645610885
  0
LINE
  8
_0-5_細線
  6
CONTINUOUS
 62
    6
 10
317.61172660459044
 20
-102.11955645610885
 11
337.61009383112014
 21
-102.11955645610885
  0
LINE
  8
_0-5_細線
  6
CONTINUOUS
 62
    6
 10
349.33787976768974
 20
-102.11955645610885
 11
357.3548556980013
 21
-102.11955645610885
  0
LINE
  8
_0-5_細線
  6
CONTINUOUS
 62
    6
 10
361.3548556980013
 20
-102.11955645610885
 11
366.55485569800214
 21
-102.11955645610885
  0
LINE
  8
_0-5_細線
  6
CONTINUOUS
 62
    6
 10
380.14889786599008
 20
-102.11955645610885
 11
385.34889786599069
 21
-102.11955645610885
  0
LINE
  8
_0-5_細線
  6
CONTINUOUS
 62
    6
 10
389.06357967667918
 20
-102.11955645610885
 11
394.26357967667821
 21
-102.11955645610885
  0
LINE
  8
_0-5_細線
  6
CONTINUOUS
 62
    6
 10
404.26148930722877
 20
-102.11955645610885
 11
412.97861718717752
 21
-102.11955645610885
  0
LINE
  8
_0-5_細線
  6
CONTINUOUS
 62
    6
 10
290.48712841163166
 20
-101.31955645610913
 11
295.68712841163244
 21
-101.31955645610913
  0
LINE
  8
_0-5_細線
  6
CONTINUOUS
 62
    6
 10
307.95318101370412
 20
-101.31955645610913
 11
313.15318101370497
 21
-101.31955645610913
  0
LINE
  8
_0-5_細線
  6
CONTINUOUS
 62
    6
 10
317.61172660459044
 20
-101.31955645610913
 11
338.28798043047851
 21
-101.31955645610913
  0
LINE
  8
_0-5_細線
  6
CONTINUOUS
 62
    6
 10
348.96483364116568
 20
-101.31955645610913
 11
357.72790182452729
 21
-101.31955645610913
  0
LINE
  8
_0-5_細線
  6
CONTINUOUS
 62
    6
 10
361.72790182452729
 20
-101.31955645610913
 11
366.92790182452609
 21
-101.31955645610913
  0
LINE
  8
_0-5_細線
  6
CONTINUOUS
 62
    6
 10
379.77585173946602
 20
-101.31955645610913
 11
384.97585173946663
 21
-101.31955645610913
  0
LINE
  8
_0-5_細線
  6
CONTINUOUS
 62
    6
 10
389.06357967667918
 20
-101.31955645610913
 11
394.26357967667821
 21
-101.31955645610913
  0
LINE
  8
_0-5_細線
  6
CONTINUOUS
 62
    6
 10
403.76159382569949
 20
-101.31955645610913
 11
412.97861718717752
 21
-101.31955645610913
  0
LINE
  8
_0-5_細線
  6
CONTINUOUS
 62
    6
 10
290.86017453815572
 20
-100.5195564561094
 11
296.06017453815645
 21
-100.5195564561094
  0
LINE
  8
_0-5_細線
  6
CONTINUOUS
 62
    6
 10
307.58013488718012
 20
-100.5195564561094
 11
312.78013488718096
 21
-100.5195564561094
  0
LINE
  8
_0-5_細線
  6
CONTINUOUS
 62
    6
 10
317.61172660459044
 20
-100.5195564561094
 11
322.81172660458935
 21
-100.5195564561094
  0
LINE
  8
_0-5_細線
  6
CONTINUOUS
 62
    6
 10
331.90322747464512
 20
-100.5195564561094
 11
338.73110925079806
 21
-100.5195564561094
  0
LINE
  8
_0-5_細線
  6
CONTINUOUS
 62
    6
 10
348.59178751463969
 20
-100.5195564561094
 11
358.10094795105135
 21
-100.5195564561094
  0
LINE
  8
_0-5_細線
  6
CONTINUOUS
 62
    6
 10
362.10094795105135
 20
-100.5195564561094
 11
367.30094795105026
 21
-100.5195564561094
  0
LINE
  8
_0-5_細線
  6
CONTINUOUS
 62
    6
 10
379.40280561294185
 20
-100.5195564561094
 11
384.60280561294269
 21
-100.5195564561094
  0
LINE
  8
_0-5_細線
  6
CONTINUOUS
 62
    6
 10
389.06357967667918
 20
-100.5195564561094
 11
394.26357967667821
 21
-100.5195564561094
  0
LINE
  8
_0-5_細線
  6
CONTINUOUS
 62
    6
 10
403.26169834417408
 20
-100.5195564561094
 11
408.45008331896599
 21
-100.5195564561094
  0
LINE
  8
_0-5_細線
  6
CONTINUOUS
 62
    6
 10
408.57861718717788
 20
-100.5195564561094
 11
412.97861718717752
 21
-100.5195564561094
  0
LINE
  8
_0-5_細線
  6
CONTINUOUS
 62
    6
 10
291.23322066468154
 20
-99.71955645610899
 11
312.40708876065685
 21
-99.71955645610899
  0
LINE
  8
_0-5_細線
  6
CONTINUOUS
 62
    6
 10
317.61172660459044
 20
-99.71955645610899
 11
322.81172660458935
 21
-99.71955645610899
  0
LINE
  8
_0-5_細線
  6
CONTINUOUS
 62
    6
 10
333.04087320755121
 20
-99.71955645610899
 11
339.03556284322173
 21
-99.71955645610899
  0
LINE
  8
_0-5_細線
  6
CONTINUOUS
 62
    6
 10
348.21874138811756
 20
-99.71955645610899
 11
358.4739940775753
 21
-99.71955645610899
  0
LINE
  8
_0-5_細線
  6
CONTINUOUS
 62
    6
 10
362.4739940775753
 20
-99.71955645610899
 11
384.22975948641863
 21
-99.71955645610899
  0
LINE
  8
_0-5_細線
  6
CONTINUOUS
 62
    6
 10
389.06357967667918
 20
-99.71955645610899
 11
394.26357967667821
 21
-99.71955645610899
  0
LINE
  8
_0-5_細線
  6
CONTINUOUS
 62
    6
 10
402.7618028626448
 20
-99.71955645610899
 11
407.95018783743853
 21
-99.71955645610899
  0
LINE
  8
_0-5_細線
  6
CONTINUOUS
 62
    6
 10
408.57861718717788
 20
-99.71955645610899
 11
412.97861718717752
 21
-99.71955645610899
  0
LINE
  8
_0-5_細線
  6
CONTINUOUS
 62
    6
 10
291.60626679120384
 20
-98.919556456108808
 11
312.03404263413273
 21
-98.919556456108808
  0
LINE
  8
_0-5_細線
  6
CONTINUOUS
 62
    6
 10
317.61172660459044
 20
-98.919556456108808
 11
322.81172660458935
 21
-98.919556456108808
  0
LINE
  8
_0-5_細線
  6
CONTINUOUS
 62
    6
 10
333.76798429847713
 20
-98.919556456108808
 11
339.27159814798244
 21
-98.919556456108808
  0
LINE
  8
_0-5_細線
  6
CONTINUOUS
 62
    6
 10
347.84569526159339
 20
-98.919556456108808
 11
353.0456952615923
 21
-98.919556456108808
  0
LINE
  8
_0-5_細線
  6
CONTINUOUS
 62
    6
 10
353.64704020409874
 20
-98.919556456108808
 11
358.84704020409765
 21
-98.919556456108808
  0
LINE
  8
_0-5_細線
  6
CONTINUOUS
 62
    6
 10
362.84704020409765
 20
-98.919556456108808
 11
383.85671335989457
 21
-98.919556456108808
  0
LINE
  8
_0-5_細線
  6
CONTINUOUS
 62
    6
 10
389.06357967667918
 20
-98.919556456108808
 11
394.26357967667821
 21
-98.919556456108808
  0
LINE
  8
_0-5_細線
  6
CONTINUOUS
 62
    6
 10
402.26190738111939
 20
-98.919556456108808
 11
407.4502923559113
 21
-98.919556456108808
  0
LINE
  8
_0-5_細線
  6
CONTINUOUS
 62
    6
 10
408.57861718717788
 20
-98.919556456108808
 11
412.97861718717752
 21
-98.919556456108808
  0
LINE
  8
_0-5_細線
  6
CONTINUOUS
 62
    6
 10
291.97931291772971
 20
-98.119556456108853
 11
311.66099650760862
 21
-98.119556456108853
  0
LINE
  8
_0-5_細線
  6
CONTINUOUS
 62
    6
 10
317.61172660459044
 20
-98.119556456108853
 11
322.81172660458935
 21
-98.119556456108853
  0
LINE
  8
_0-5_細線
  6
CONTINUOUS
 62
    6
 10
334.20154013982125
 20
-98.119556456108853
 11
339.47133277714516
 21
-98.119556456108853
  0
LINE
  8
_0-5_細線
  6
CONTINUOUS
 62
    6
 10
347.47264913506945
 20
-98.119556456108853
 11
352.67264913506835
 21
-98.119556456108853
  0
LINE
  8
_0-5_細線
  6
CONTINUOUS
 62
    6
 10
354.02008633062269
 20
-98.119556456108853
 11
359.2200863306216
 21
-98.119556456108853
  0
LINE
  8
_0-5_細線
  6
CONTINUOUS
 62
    6
 10
363.2200863306216
 20
-98.119556456108853
 11
383.4836672333704
 21
-98.119556456108853
  0
LINE
  8
_0-5_細線
  6
CONTINUOUS
 62
    6
 10
389.06357967667918
 20
-98.119556456108853
 11
394.26357967667821
 21
-98.119556456108853
  0
LINE
  8
_0-5_細線
  6
CONTINUOUS
 62
    6
 10
401.76201189959011
 20
-98.119556456108853
 11
406.95039687438396
 21
-98.119556456108853
  0
LINE
  8
_0-5_細線
  6
CONTINUOUS
 62
    6
 10
408.57861718717788
 20
-98.119556456108853
 11
412.97861718717752
 21
-98.119556456108853
  0
LINE
  8
_0-5_細線
  6
CONTINUOUS
 62
    6
 10
292.35235904425195
 20
-97.319556456109126
 11
311.28795038108461
 21
-97.319556456109126
  0
LINE
  8
_0-5_細線
  6
CONTINUOUS
 62
    6
 10
317.61172660459044
 20
-97.319556456109126
 11
322.81172660458935
 21
-97.319556456109126
  0
LINE
  8
_0-5_細線
  6
CONTINUOUS
 62
    6
 10
334.47285306348124
 20
-97.319556456109126
 11
339.64241409163424
 21
-97.319556456109126
  0
LINE
  8
_0-5_細線
  6
CONTINUOUS
 62
    6
 10
347.09960300854357
 20
-97.319556456109126
 11
352.2996030085443
 21
-97.319556456109126
  0
LINE
  8
_0-5_細線
  6
CONTINUOUS
 62
    6
 10
354.39313245714686
 20
-97.319556456109126
 11
359.59313245714577
 21
-97.319556456109126
  0
LINE
  8
_0-5_細線
  6
CONTINUOUS
 62
    6
 10
363.59313245714577
 20
-97.319556456109126
 11
383.11062110684634
 21
-97.319556456109126
  0
LINE
  8
_0-5_細線
  6
CONTINUOUS
 62
    6
 10
389.06357967667918
 20
-97.319556456109126
 11
394.26357967667821
 21
-97.319556456109126
  0
LINE
  8
_0-5_細線
  6
CONTINUOUS
 62
    6
 10
401.26211641806287
 20
-97.319556456109126
 11
406.45050139285649
 21
-97.319556456109126
  0
LINE
  8
_0-5_細線
  6
CONTINUOUS
 62
    6
 10
408.57861718717788
 20
-97.319556456109126
 11
412.97861718717752
 21
-97.319556456109126
  0
LINE
  8
_0-5_細線
  6
CONTINUOUS
 62
    6
 10
292.72540517077601
 20
-96.519556456109171
 11
310.91490425456061
 21
-96.519556456109171
  0
LINE
  8
_0-5_細線
  6
CONTINUOUS
 62
    6
 10
317.61172660459044
 20
-96.519556456109171
 11
322.81172660458935
 21
-96.519556456109171
  0
LINE
  8
_0-5_細線
  6
CONTINUOUS
 62
    6
 10
334.63823858249913
 20
-96.519556456109171
 11
339.78180290800003
 21
-96.519556456109171
  0
LINE
  8
_0-5_細線
  6
CONTINUOUS
 62
    6
 10
346.72655688202133
 20
-96.519556456109171
 11
351.92655688202024
 21
-96.519556456109171
  0
LINE
  8
_0-5_細線
  6
CONTINUOUS
 62
    6
 10
354.76617858367081
 20
-96.519556456109171
 11
359.96617858367165
 21
-96.519556456109171
  0
LINE
  8
_0-5_細線
  6
CONTINUOUS
 62
    6
 10
363.96617858367165
 20
-96.519556456109171
 11
382.73757498032239
 21
-96.519556456109171
  0
LINE
  8
_0-5_細線
  6
CONTINUOUS
 62
    6
 10
389.06357967667918
 20
-96.519556456109171
 11
394.26357967667821
 21
-96.519556456109171
  0
LINE
  8
_0-5_細線
  6
CONTINUOUS
 62
    6
 10
400.76222093653553
 20
-96.519556456109171
 11
405.95060591132926
 21
-96.519556456109171
  0
LINE
  8
_0-5_細線
  6
CONTINUOUS
 62
    6
 10
408.57861718717788
 20
-96.519556456109171
 11
412.97861718717752
 21
-96.519556456109171
  0
LINE
  8
_0-5_細線
  6
CONTINUOUS
 62
    6
 10
293.09845129730013
 20
-95.71955645610899
 11
298.29845129730086
 21
-95.71955645610899
  0
LINE
  8
_0-5_細線
  6
CONTINUOUS
 62
    6
 10
305.34185812803764
 20
-95.71955645610899
 11
310.54185812803655
 21
-95.71955645610899
  0
LINE
  8
_0-5_細線
  6
CONTINUOUS
 62
    6
 10
317.61172660459044
 20
-95.71955645610899
 11
322.81172660458935
 21
-95.71955645610899
  0
LINE
  8
_0-5_細線
  6
CONTINUOUS
 62
    6
 10
334.73551580839842
 20
-95.71955645610899
 11
339.88900006538381
 21
-95.71955645610899
  0
LINE
  8
_0-5_細線
  6
CONTINUOUS
 62
    6
 10
346.35351075549727
 20
-95.71955645610899
 11
351.55351075549618
 21
-95.71955645610899
  0
LINE
  8
_0-5_細線
  6
CONTINUOUS
 62
    6
 10
355.13922471019498
 20
-95.71955645610899
 11
360.33922471019389
 21
-95.71955645610899
  0
LINE
  8
_0-5_細線
  6
CONTINUOUS
 62
    6
 10
364.33922471019389
 20
-95.71955645610899
 11
369.5392247101945
 21
-95.71955645610899
  0
LINE
  8
_0-5_細線
  6
CONTINUOUS
 62
    6
 10
377.16452885379749
 20
-95.71955645610899
 11
382.36452885379833
 21
-95.71955645610899
  0
LINE
  8
_0-5_細線
  6
CONTINUOUS
 62
    6
 10
389.06357967667918
 20
-95.71955645610899
 11
394.26357967667821
 21
-95.71955645610899
  0
LINE
  8
_0-5_細線
  6
CONTINUOUS
 62
    6
 10
400.26232545500818
 20
-95.71955645610899
 11
405.4507104298018
 21
-95.71955645610899
  0
LINE
  8
_0-5_細線
  6
CONTINUOUS
 62
    6
 10
408.57861718717788
 20
-95.71955645610899
 11
412.97861718717752
 21
-95.71955645610899
  0
LINE
  8
_0-5_細線
  6
CONTINUOUS
 62
    6
 10
293.47149742382413
 20
-94.91955645610858
 11
298.67149742382486
 21
-94.91955645610858
  0
LINE
  8
_0-5_細線
  6
CONTINUOUS
 62
    6
 10
304.96881200151353
 20
-94.91955645610858
 11
310.16881200151244
 21
-94.91955645610858
  0
LINE
  8
_0-5_細線
  6
CONTINUOUS
 62
    6
 10
317.61172660459044
 20
-94.91955645610858
 11
322.81172660458935
 21
-94.91955645610858
  0
LINE
  8
_0-5_細線
  6
CONTINUOUS
 62
    6
 10
334.78737139893303
 20
-94.91955645610858
 11
339.96340594042806
 21
-94.91955645610858
  0
LINE
  8
_0-5_細線
  6
CONTINUOUS
 62
    6
 10
345.9804646289731
 20
-94.91955645610858
 11
351.18046462897394
 21
-94.91955645610858
  0
LINE
  8
_0-5_細線
  6
CONTINUOUS
 62
    6
 10
355.51227083671904
 20
-94.91955645610858
 11
360.71227083671795
 21
-94.91955645610858
  0
LINE
  8
_0-5_細線
  6
CONTINUOUS
 62
    6
 10
364.71227083671795
 20
-94.91955645610858
 11
369.91227083671868
 21
-94.91955645610858
  0
LINE
  8
_0-5_細線
  6
CONTINUOUS
 62
    6
 10
376.79148272727537
 20
-94.91955645610858
 11
381.99148272727427
 21
-94.91955645610858
  0
LINE
  8
_0-5_細線
  6
CONTINUOUS
 62
    6
 10
389.06357967667918
 20
-94.91955645610858
 11
394.26357967667821
 21
-94.91955645610858
  0
LINE
  8
_0-5_細線
  6
CONTINUOUS
 62
    6
 10
399.76242997348083
 20
-94.91955645610858
 11
404.95081494827457
 21
-94.91955645610858
  0
LINE
  8
_0-5_細線
  6
CONTINUOUS
 62
    6
 10
408.57861718717788
 20
-94.91955645610858
 11
412.97861718717752
 21
-94.91955645610858
  0
LINE
  8
_0-5_細線
  6
CONTINUOUS
 62
    6
 10
293.84454355034825
 20
-94.119556456109081
 11
299.04454355034892
 21
-94.119556456109081
  0
LINE
  8
_0-5_細線
  6
CONTINUOUS
 62
    6
 10
304.59576587498941
 20
-94.119556456109081
 11
309.79576587499025
 21
-94.119556456109081
  0
LINE
  8
_0-5_細線
  6
CONTINUOUS
 62
    6
 10
317.61172660459044
 20
-94.119556456109081
 11
322.81172660458935
 21
-94.119556456109081
  0
LINE
  8
_0-5_細線
  6
CONTINUOUS
 62
    6
 10
334.80911905822995
 20
-94.119556456109081
 11
340.00465656301742
 21
-94.119556456109081
  0
LINE
  8
_0-5_細線
  6
CONTINUOUS
 62
    6
 10
345.60741850244915
 20
-94.119556456109081
 11
350.80741850244988
 21
-94.119556456109081
  0
LINE
  8
_0-5_細線
  6
CONTINUOUS
 62
    6
 10
355.88531696324128
 20
-94.119556456109081
 11
361.08531696324189
 21
-94.119556456109081
  0
LINE
  8
_0-5_細線
  6
CONTINUOUS
 62
    6
 10
365.08531696324189
 20
-94.119556456109081
 11
370.28531696324274
 21
-94.119556456109081
  0
LINE
  8
_0-5_細線
  6
CONTINUOUS
 62
    6
 10
376.41843660074949
 20
-94.119556456109081
 11
381.6184366007501
 21
-94.119556456109081
  0
LINE
  8
_0-5_細線
  6
CONTINUOUS
 62
    6
 10
389.06357967667918
 20
-94.119556456109081
 11
394.26357967667821
 21
-94.119556456109081
  0
LINE
  8
_0-5_細線
  6
CONTINUOUS
 62
    6
 10
399.26253449195349
 20
-94.119556456109081
 11
404.45091946674711
 21
-94.119556456109081
  0
LINE
  8
_0-5_細線
  6
CONTINUOUS
 62
    6
 10
408.57861718717788
 20
-94.119556456109081
 11
412.97861718717752
 21
-94.119556456109081
  0
LINE
  8
_0-5_細線
  6
CONTINUOUS
 62
    6
 10
294.21758967687225
 20
-93.319556456108899
 11
299.41758967687304
 21
-93.319556456108899
  0
LINE
  8
_0-5_細線
  6
CONTINUOUS
 62
    6
 10
304.22271974846547
 20
-93.319556456108899
 11
309.42271974846432
 21
-93.319556456108899
  0
LINE
  8
_0-5_細線
  6
CONTINUOUS
 62
    6
 10
317.61172660459044
 20
-93.319556456108899
 11
322.81172660458935
 21
-93.319556456108899
  0
LINE
  8
_0-5_細線
  6
CONTINUOUS
 62
    6
 10
334.81007470624081
 20
-93.319556456108899
 11
340.00724768517745
 21
-93.319556456108899
  0
LINE
  8
_0-5_細線
  6
CONTINUOUS
 62
    6
 10
345.23437237592509
 20
-93.319556456108899
 11
350.43437237592389
 21
-93.319556456108899
  0
LINE
  8
_0-5_細線
  6
CONTINUOUS
 62
    6
 10
356.25836308976716
 20
-93.319556456108899
 11
361.45836308976789
 21
-93.319556456108899
  0
LINE
  8
_0-5_細線
  6
CONTINUOUS
 62
    6
 10
365.45836308976607
 20
-93.319556456108899
 11
370.65836308976498
 21
-93.319556456108899
  0
LINE
  8
_0-5_細線
  6
CONTINUOUS
 62
    6
 10
376.04539047422713
 20
-93.319556456108899
 11
381.24539047422604
 21
-93.319556456108899
  0
LINE
  8
_0-5_細線
  6
CONTINUOUS
 62
    6
 10
389.06357967667918
 20
-93.319556456108899
 11
394.26357967667821
 21
-93.319556456108899
  0
LINE
  8
_0-5_細線
  6
CONTINUOUS
 62
    6
 10
398.76263901042614
 20
-93.319556456108899
 11
403.95102398521988
 21
-93.319556456108899
  0
LINE
  8
_0-5_細線
  6
CONTINUOUS
 62
    6
 10
408.57861718717788
 20
-93.319556456108899
 11
412.97861718717752
 21
-93.319556456108899
  0
LINE
  8
_0-5_細線
  6
CONTINUOUS
 62
    6
 10
294.59063580339637
 20
-92.519556456108944
 11
299.79063580339704
 21
-92.519556456108944
  0
LINE
  8
_0-5_細線
  6
CONTINUOUS
 62
    6
 10
303.84967362194135
 20
-92.519556456108944
 11
309.04967362194202
 21
-92.519556456108944
  0
LINE
  8
_0-5_細線
  6
CONTINUOUS
 62
    6
 10
317.61172660459044
 20
-92.519556456108944
 11
322.81172660458935
 21
-92.519556456108944
  0
LINE
  8
_0-5_細線
  6
CONTINUOUS
 62
    6
 10
334.79277167471542
 20
-92.519556456108944
 11
339.97294286686252
 21
-92.519556456108944
  0
LINE
  8
_0-5_細線
  6
CONTINUOUS
 62
    6
 10
344.86132624940103
 20
-92.519556456108944
 11
350.06132624939994
 21
-92.519556456108944
  0
LINE
  8
_0-5_細線
  6
CONTINUOUS
 62
    6
 10
356.6314092162911
 20
-92.519556456108944
 11
361.83140921629001
 21
-92.519556456108944
  0
LINE
  8
_0-5_細線
  6
CONTINUOUS
 62
    6
 10
365.83140921629001
 20
-92.519556456108944
 11
371.03140921629085
 21
-92.519556456108944
  0
LINE
  8
_0-5_細線
  6
CONTINUOUS
 62
    6
 10
375.67234434770137
 20
-92.519556456108944
 11
380.87234434770198
 21
-92.519556456108944
  0
LINE
  8
_0-5_細線
  6
CONTINUOUS
 62
    6
 10
389.06357967667918
 20
-92.519556456108944
 11
394.26357967667821
 21
-92.519556456108944
  0
LINE
  8
_0-5_細線
  6
CONTINUOUS
 62
    6
 10
398.2627435288988
 20
-92.519556456108944
 11
403.45112850369253
 21
-92.519556456108944
  0
LINE
  8
_0-5_細線
  6
CONTINUOUS
 62
    6
 10
408.57861718717788
 20
-92.519556456108944
 11
412.97861718717752
 21
-92.519556456108944
  0
LINE
  8
_0-5_細線
  6
CONTINUOUS
 62
    6
 10
294.96368192992043
 20
-91.719556456109444
 11
300.16368192992115
 21
-91.719556456109444
  0
LINE
  8
_0-5_細線
  6
CONTINUOUS
 62
    6
 10
303.47662749541735
 20
-91.719556456109444
 11
308.67662749541626
 21
-91.719556456109444
  0
LINE
  8
_0-5_細線
  6
CONTINUOUS
 62
    6
 10
317.61172660459044
 20
-91.719556456109444
 11
322.81172660458935
 21
-91.719556456109444
  0
LINE
  8
_0-5_細線
  6
CONTINUOUS
 62
    6
 10
334.75068943766667
 20
-91.719556456109444
 11
339.90711204438333
 21
-91.719556456109444
  0
LINE
  8
_0-5_細線
  6
CONTINUOUS
 62
    6
 10
344.48828012287692
 20
-91.719556456109444
 11
349.68828012287759
 21
-91.719556456109444
  0
LINE
  8
_0-5_細線
  6
CONTINUOUS
 62
    6
 10
357.00445534281528
 20
-91.719556456109444
 11
362.20445534281419
 21
-91.719556456109444
  0
LINE
  8
_0-5_細線
  6
CONTINUOUS
 62
    6
 10
366.20445534281419
 20
-91.719556456109444
 11
371.4044553428148
 21
-91.719556456109444
  0
LINE
  8
_0-5_細線
  6
CONTINUOUS
 62
    6
 10
375.29929822117913
 20
-91.719556456109444
 11
380.49929822117804
 21
-91.719556456109444
  0
LINE
  8
_0-5_細線
  6
CONTINUOUS
 62
    6
 10
389.06357967667918
 20
-91.719556456109444
 11
394.26357967667821
 21
-91.719556456109444
  0
LINE
  8
_0-5_細線
  6
CONTINUOUS
 62
    6
 10
397.76284804737134
 20
-91.719556456109444
 11
402.95123302216518
 21
-91.719556456109444
  0
LINE
  8
_0-5_細線
  6
CONTINUOUS
 62
    6
 10
408.57861718717788
 20
-91.719556456109444
 11
412.97861718717752
 21
-91.719556456109444
  0
LINE
  8
_0-5_細線
  6
CONTINUOUS
 62
    6
 10
295.33672805644443
 20
-90.91955645610858
 11
300.53672805644516
 21
-90.91955645610858
  0
LINE
  8
_0-5_細線
  6
CONTINUOUS
 62
    6
 10
303.10358136889323
 20
-90.91955645610858
 11
308.30358136889396
 21
-90.91955645610858
  0
LINE
  8
_0-5_細線
  6
CONTINUOUS
 62
    6
 10
317.61172660459044
 20
-90.91955645610858
 11
322.81172660458935
 21
-90.91955645610858
  0
LINE
  8
_0-5_細線
  6
CONTINUOUS
 62
    6
 10
334.66895014766584
 20
-90.91955645610858
 11
339.80826003402865
 21
-90.91955645610858
  0
LINE
  8
_0-5_細線
  6
CONTINUOUS
 62
    6
 10
344.11523399635286
 20
-90.91955645610858
 11
349.31523399635364
 21
-90.91955645610858
  0
LINE
  8
_0-5_細線
  6
CONTINUOUS
 62
    6
 10
357.3775014693374
 20
-90.91955645610858
 11
362.57750146933824
 21
-90.91955645610858
  0
LINE
  8
_0-5_細線
  6
CONTINUOUS
 62
    6
 10
366.57750146933824
 20
-90.91955645610858
 11
371.77750146933897
 21
-90.91955645610858
  0
LINE
  8
_0-5_細線
  6
CONTINUOUS
 62
    6
 10
374.92625209465507
 20
-90.91955645610858
 11
380.12625209465398
 21
-90.91955645610858
  0
LINE
  8
_0-5_細線
  6
CONTINUOUS
 62
    6
 10
389.06357967667918
 20
-90.91955645610858
 11
394.26357967667821
 21
-90.91955645610858
  0
LINE
  8
_0-5_細線
  6
CONTINUOUS
 62
    6
 10
397.26295256584399
 20
-90.91955645610858
 11
402.45133754063784
 21
-90.91955645610858
  0
LINE
  8
_0-5_細線
  6
CONTINUOUS
 62
    6
 10
408.57861718717788
 20
-90.91955645610858
 11
412.97861718717752
 21
-90.91955645610858
  0
LINE
  8
_0-5_細線
  6
CONTINUOUS
 62
    6
 10
295.70977418296854
 20
-90.119556456109081
 11
300.90977418296922
 21
-90.119556456109081
  0
LINE
  8
_0-5_細線
  6
CONTINUOUS
 62
    6
 10
302.73053524236911
 20
-90.119556456109081
 11
307.93053524236802
 21
-90.119556456109081
  0
LINE
  8
_0-5_細線
  6
CONTINUOUS
 62
    6
 10
317.61172660459044
 20
-90.119556456109081
 11
322.81172660458935
 21
-90.119556456109081
  0
LINE
  8
_0-5_細線
  6
CONTINUOUS
 62
    6
 10
334.52675878333963
 20
-90.119556456109081
 11
339.67701078871602
 21
-90.119556456109081
  0
LINE
  8
_0-5_細線
  6
CONTINUOUS
 62
    6
 10
343.74218786982885
 20
-90.119556456109081
 11
348.94218786982958
 21
-90.119556456109081
  0
LINE
  8
_0-5_細線
  6
CONTINUOUS
 62
    6
 10
357.7505475958634
 20
-90.119556456109081
 11
362.95054759586219
 21
-90.119556456109081
  0
LINE
  8
_0-5_細線
  6
CONTINUOUS
 62
    6
 10
366.95054759586219
 20
-90.119556456109081
 11
372.15054759586121
 21
-90.119556456109081
  0
LINE
  8
_0-5_細線
  6
CONTINUOUS
 62
    6
 10
374.55320596812919
 20
-90.119556456109081
 11
379.75320596812992
 21
-90.119556456109081
  0
LINE
  8
_0-5_細線
  6
CONTINUOUS
 62
    6
 10
389.06357967667918
 20
-90.119556456109081
 11
394.26357967667821
 21
-90.119556456109081
  0
LINE
  8
_0-5_細線
  6
CONTINUOUS
 62
    6
 10
396.76305708431676
 20
-90.119556456109081
 11
401.95144205911049
 21
-90.119556456109081
  0
LINE
  8
_0-5_細線
  6
CONTINUOUS
 62
    6
 10
408.57861718717788
 20
-90.119556456109081
 11
412.97861718717752
 21
-90.119556456109081
  0
LINE
  8
_0-5_細線
  6
CONTINUOUS
 62
    6
 10
296.08282030949255
 20
-89.319556456108899
 11
301.28282030949333
 21
-89.319556456108899
  0
LINE
  8
_0-5_細線
  6
CONTINUOUS
 62
    6
 10
302.35748911584511
 20
-89.319556456108899
 11
307.55748911584584
 21
-89.319556456108899
  0
LINE
  8
_0-5_細線
  6
CONTINUOUS
 62
    6
 10
317.61172660459044
 20
-89.319556456108899
 11
322.81172660458935
 21
-89.319556456108899
  0
LINE
  8
_0-5_細線
  6
CONTINUOUS
 62
    6
 10
334.28649413482435
 20
-89.319556456108899
 11
339.51388681735364
 21
-89.319556456108899
  0
LINE
  8
_0-5_細線
  6
CONTINUOUS
 62
    6
 10
343.36914174330474
 20
-89.319556456108899
 11
348.56914174330541
 21
-89.319556456108899
  0
LINE
  8
_0-5_細線
  6
CONTINUOUS
 62
    6
 10
358.12359372238745
 20
-89.319556456108899
 11
363.32359372238636
 21
-89.319556456108899
  0
LINE
  8
_0-5_細線
  6
CONTINUOUS
 62
    6
 10
367.32359372238636
 20
-89.319556456108899
 11
372.52359372238709
 21
-89.319556456108899
  0
LINE
  8
_0-5_細線
  6
CONTINUOUS
 62
    6
 10
374.18015984160513
 20
-89.319556456108899
 11
379.38015984160575
 21
-89.319556456108899
  0
LINE
  8
_0-5_細線
  6
CONTINUOUS
 62
    6
 10
389.06357967667918
 20
-89.319556456108899
 11
394.26357967667821
 21
-89.319556456108899
  0
LINE
  8
_0-5_細線
  6
CONTINUOUS
 62
    6
 10
396.26316160278941
 20
-89.319556456108899
 11
401.45154657758314
 21
-89.319556456108899
  0
LINE
  8
_0-5_細線
  6
CONTINUOUS
 62
    6
 10
408.57861718717788
 20
-89.319556456108899
 11
412.97861718717752
 21
-89.319556456108899
  0
LINE
  8
_0-5_細線
  6
CONTINUOUS
 62
    6
 10
296.45586643601666
 20
-88.519556456108944
 11
301.65586643601551
 21
-88.519556456108944
  0
LINE
  8
_0-5_細線
  6
CONTINUOUS
 62
    6
 10
301.98444298932105
 20
-88.519556456108944
 11
307.18444298932184
 21
-88.519556456108944
  0
LINE
  8
_0-5_細線
  6
CONTINUOUS
 62
    6
 10
317.61172660459044
 20
-88.519556456108944
 11
322.81172660458935
 21
-88.519556456108944
  0
LINE
  8
_0-5_細線
  6
CONTINUOUS
 62
    6
 10
333.89517160558631
 20
-88.519556456108944
 11
339.32033111073827
 21
-88.519556456108944
  0
LINE
  8
_0-5_細線
  6
CONTINUOUS
 62
    6
 10
342.99609561678074
 20
-88.519556456108944
 11
348.19609561678146
 21
-88.519556456108944
  0
LINE
  8
_0-5_細線
  6
CONTINUOUS
 62
    6
 10
358.4966398489114
 20
-88.519556456108944
 11
363.69663984891031
 21
-88.519556456108944
  0
LINE
  8
_0-5_細線
  6
CONTINUOUS
 62
    6
 10
367.69663984891031
 20
-88.519556456108944
 11
372.89663984891115
 21
-88.519556456108944
  0
LINE
  8
_0-5_細線
  6
CONTINUOUS
 62
    6
 10
373.80711371508289
 20
-88.519556456108944
 11
379.00711371508169
 21
-88.519556456108944
  0
LINE
  8
_0-5_細線
  6
CONTINUOUS
 62
    6
 10
389.06357967667918
 20
-88.519556456108944
 11
394.26357967667821
 21
-88.519556456108944
  0
LINE
  8
_0-5_細線
  6
CONTINUOUS
 62
    6
 10
395.76326612126206
 20
-88.519556456108944
 11
400.95165109605398
 21
-88.519556456108944
  0
LINE
  8
_0-5_細線
  6
CONTINUOUS
 62
    6
 10
408.57861718717788
 20
-88.519556456108944
 11
412.97861718717752
 21
-88.519556456108944
  0
LINE
  8
_0-5_細線
  6
CONTINUOUS
 62
    6
 10
296.82891256254072
 20
-87.719556456109444
 11
306.81139686279772
 21
-87.719556456109444
  0
LINE
  8
_0-5_細線
  6
CONTINUOUS
 62
    6
 10
317.61172660459044
 20
-87.719556456109444
 11
322.81172660458935
 21
-87.719556456109444
  0
LINE
  8
_0-5_細線
  6
CONTINUOUS
 62
    6
 10
333.23065893676824
 20
-87.719556456109444
 11
339.09221494159755
 21
-87.719556456109444
  0
LINE
  8
_0-5_細線
  6
CONTINUOUS
 62
    6
 10
342.62304949025662
 20
-87.719556456109444
 11
347.82304949025729
 21
-87.719556456109444
  0
LINE
  8
_0-5_細線
  6
CONTINUOUS
 62
    6
 10
358.86968597543375
 20
-87.719556456109444
 11
364.06968597543448
 21
-87.719556456109444
  0
LINE
  8
_0-5_細線
  6
CONTINUOUS
 62
    6
 10
368.06968597543448
 20
-87.719556456109444
 11
373.2696859754351
 21
-87.719556456109444
  0
LINE
  8
_0-5_細線
  6
CONTINUOUS
 62
    6
 10
373.43406758855883
 20
-87.719556456109444
 11
378.63406758855774
 21
-87.719556456109444
  0
LINE
  8
_0-5_細線
  6
CONTINUOUS
 62
    6
 10
389.06357967667918
 20
-87.719556456109444
 11
394.26357967667821
 21
-87.719556456109444
  0
LINE
  8
_0-5_細線
  6
CONTINUOUS
 62
    6
 10
395.2633706397346
 20
-87.719556456109444
 11
400.45175561452663
 21
-87.719556456109444
  0
LINE
  8
_0-5_細線
  6
CONTINUOUS
 62
    6
 10
408.57861718717788
 20
-87.719556456109444
 11
412.97861718717752
 21
-87.719556456109444
  0
LINE
  8
_0-5_細線
  6
CONTINUOUS
 62
    6
 10
297.20195868906472
 20
-86.919556456108808
 11
306.43835073627366
 21
-86.919556456108808
  0
LINE
  8
_0-5_細線
  6
CONTINUOUS
 62
    6
 10
317.61172660459044
 20
-86.919556456108808
 11
322.81172660458935
 21
-86.919556456108808
  0
LINE
  8
_0-5_細線
  6
CONTINUOUS
 62
    6
 10
332.19313679958304
 20
-86.919556456108808
 11
338.81010900465395
 21
-86.919556456108808
  0
LINE
  8
_0-5_細線
  6
CONTINUOUS
 62
    6
 10
342.25000336373256
 20
-86.919556456108808
 11
347.45000336373334
 21
-86.919556456108808
  0
LINE
  8
_0-5_細線
  6
CONTINUOUS
 62
    6
 10
359.2427321019577
 20
-86.919556456108808
 11
364.44273210195854
 21
-86.919556456108808
  0
LINE
  8
_0-5_細線
  6
CONTINUOUS
 62
    6
 10
368.44273210195854
 20
-86.919556456108808
 11
378.26102146203368
 21
-86.919556456108808
  0
LINE
  8
_0-5_細線
  6
CONTINUOUS
 62
    6
 10
389.06357967667918
 20
-86.919556456108808
 11
394.26357967667821
 21
-86.919556456108808
  0
LINE
  8
_0-5_細線
  6
CONTINUOUS
 62
    6
 10
394.76347515820737
 20
-86.919556456108808
 11
399.95186013299929
 21
-86.919556456108808
  0
LINE
  8
_0-5_細線
  6
CONTINUOUS
 62
    6
 10
408.57861718717788
 20
-86.919556456108808
 11
412.97861718717752
 21
-86.919556456108808
  0
LINE
  8
_0-5_細線
  6
CONTINUOUS
 62
    6
 10
297.57500481558884
 20
-86.119556456109081
 11
306.06530460974966
 21
-86.119556456109081
  0
LINE
  8
_0-5_細線
  6
CONTINUOUS
 62
    6
 10
317.61172660459044
 20
-86.119556456109081
 11
322.81172660458935
 21
-86.119556456109081
  0
LINE
  8
_0-5_細線
  6
CONTINUOUS
 62
    6
 10
330.81172660458935
 20
-86.119556456109081
 11
338.41172660458966
 21
-86.119556456109081
  0
LINE
  8
_0-5_細線
  6
CONTINUOUS
 62
    6
 10
341.87695723721032
 20
-86.119556456109081
 11
347.07695723720929
 21
-86.119556456109081
  0
LINE
  8
_0-5_細線
  6
CONTINUOUS
 62
    6
 10
359.61577822848187
 20
-86.119556456109081
 11
364.81577822848249
 21
-86.119556456109081
  0
LINE
  8
_0-5_細線
  6
CONTINUOUS
 62
    6
 10
368.81577822848249
 20
-86.119556456109081
 11
377.88797533550962
 21
-86.119556456109081
  0
LINE
  8
_0-5_細線
  6
CONTINUOUS
 62
    6
 10
389.06357967667918
 20
-86.119556456109081
 11
394.26357967667821
 21
-86.119556456109081
  0
LINE
  8
_0-5_細線
  6
CONTINUOUS
 62
    6
 10
394.26357967667821
 20
-86.119556456109081
 11
399.45196465147194
 21
-86.119556456109081
  0
LINE
  8
_0-5_細線
  6
CONTINUOUS
 62
    6
 10
408.57861718717788
 20
-86.119556456109081
 11
412.97861718717752
 21
-86.119556456109081
  0
LINE
  8
_0-5_細線
  6
CONTINUOUS
 62
    6
 10
297.94805094211284
 20
-85.319556456108899
 11
305.69225848322554
 21
-85.319556456108899
  0
LINE
  8
_0-5_細線
  6
CONTINUOUS
 62
    6
 10
317.61172660459044
 20
-85.319556456108899
 11
337.77577992144796
 21
-85.319556456108899
  0
LINE
  8
_0-5_細線
  6
CONTINUOUS
 62
    6
 10
341.50391111068444
 20
-85.319556456108899
 11
346.70391111068523
 21
-85.319556456108899
  0
LINE
  8
_0-5_細線
  6
CONTINUOUS
 62
    6
 10
359.98882435500582
 20
-85.319556456108899
 11
365.18882435500666
 21
-85.319556456108899
  0
LINE
  8
_0-5_細線
  6
CONTINUOUS
 62
    6
 10
369.18882435500666
 20
-85.319556456108899
 11
377.51492920898545
 21
-85.319556456108899
  0
LINE
  8
_0-5_細線
  6
CONTINUOUS
 62
    6
 10
389.06357967667918
 20
-85.319556456108899
 11
398.95206916994459
 21
-85.319556456108899
  0
LINE
  8
_0-5_細線
  6
CONTINUOUS
 62
    6
 10
408.57861718717788
 20
-85.319556456108899
 11
412.97861718717752
 21
-85.319556456108899
  0
LINE
  8
_0-5_細線
  6
CONTINUOUS
 62
    6
 10
298.32109706863696
 20
-84.519556456109171
 11
305.31921235670154
 21
-84.519556456109171
  0
LINE
  8
_0-5_細線
  6
CONTINUOUS
 62
    6
 10
317.61172660459044
 20
-84.519556456109171
 11
336.87807317501495
 21
-84.519556456109171
  0
LINE
  8
_0-5_細線
  6
CONTINUOUS
 62
    6
 10
341.13086498416044
 20
-84.519556456109171
 11
346.33086498416117
 21
-84.519556456109171
  0
LINE
  8
_0-5_細線
  6
CONTINUOUS
 62
    6
 10
360.36187048152999
 20
-84.519556456109171
 11
365.5618704815306
 21
-84.519556456109171
  0
LINE
  8
_0-5_細線
  6
CONTINUOUS
 62
    6
 10
369.5618704815306
 20
-84.519556456109171
 11
377.14188308246139
 21
-84.519556456109171
  0
LINE
  8
_0-5_細線
  6
CONTINUOUS
 62
    6
 10
389.06357967667918
 20
-84.519556456109171
 11
398.45217368841713
 21
-84.519556456109171
  0
LINE
  8
_0-5_細線
  6
CONTINUOUS
 62
    6
 10
408.57861718717788
 20
-84.519556456109171
 11
412.97861718717752
 21
-84.519556456109171
  0
LINE
  8
_0-5_細線
  6
CONTINUOUS
 62
    6
 10
298.69414319516096
 20
-83.719556456109444
 11
304.94616623017743
 21
-83.719556456109444
  0
LINE
  8
_0-5_細線
  6
CONTINUOUS
 62
    6
 10
317.61172660459044
 20
-83.719556456109444
 11
335.54295382848352
 21
-83.719556456109444
  0
LINE
  8
_0-5_細線
  6
CONTINUOUS
 62
    6
 10
340.75781885763632
 20
-83.719556456109444
 11
345.95781885763699
 21
-83.719556456109444
  0
LINE
  8
_0-5_細線
  6
CONTINUOUS
 62
    6
 10
360.73491660805405
 20
-83.719556456109444
 11
365.93491660805478
 21
-83.719556456109444
  0
LINE
  8
_0-5_細線
  6
CONTINUOUS
 62
    6
 10
369.93491660805478
 20
-83.719556456109444
 11
376.76883695593926
 21
-83.719556456109444
  0
LINE
  8
_0-5_細線
  6
CONTINUOUS
 62
    6
 10
389.06357967667918
 20
-83.719556456109444
 11
397.95227820688979
 21
-83.719556456109444
  0
LINE
  8
_0-5_細線
  6
CONTINUOUS
 62
    6
 10
408.57861718717788
 20
-83.719556456109444
 11
412.97861718717752
 21
-83.719556456109444
  0
LINE
  8
_0-5_細線
  6
CONTINUOUS
 62
    6
 10
299.06718932168502
 20
-82.919556456109035
 11
304.57312010365337
 21
-82.919556456109035
  0
LINE
  8
_0-5_細線
  6
CONTINUOUS
 62
    6
 10
317.61172660459044
 20
-82.919556456109035
 11
333.61172660458863
 21
-82.919556456109035
  0
LINE
  8
_0-5_細線
  6
CONTINUOUS
 62
    6
 10
340.38477273111414
 20
-82.919556456109035
 11
345.58477273111305
 21
-82.919556456109035
  0
LINE
  8
_0-5_細線
  6
CONTINUOUS
 62
    6
 10
361.107962734578
 20
-82.919556456109035
 11
366.30796273457884
 21
-82.919556456109035
  0
LINE
  8
_0-5_細線
  6
CONTINUOUS
 62
    6
 10
370.30796273457884
 20
-82.919556456109035
 11
376.39579082941509
 21
-82.919556456109035
  0
LINE
  8
_0-5_細線
  6
CONTINUOUS
 62
    6
 10
389.06357967667918
 20
-82.919556456109035
 11
397.45238272536244
 21
-82.919556456109035
  0
LINE
  8
_0-5_細線
  6
CONTINUOUS
 62
    6
 10
408.57861718717788
 20
-82.919556456109035
 11
412.97861718717752
 21
-82.919556456109035
  0
LINE
  8
_0-5_細線
  6
CONTINUOUS
 62
    6
 10
299.44023544820914
 20
-82.119556456109081
 11
304.20007397712936
 21
-82.119556456109081
  0
LINE
  8
_0-5_細線
  6
CONTINUOUS
 62
    6
 10
317.61172660459044
 20
-82.119556456109081
 11
330.81172660458935
 21
-82.119556456109081
  0
LINE
  8
_0-5_細線
  6
CONTINUOUS
 62
    6
 10
340.01172660458826
 20
-82.119556456109081
 11
345.21172660458899
 21
-82.119556456109081
  0
LINE
  8
_0-5_細線
  6
CONTINUOUS
 62
    6
 10
361.48100886110217
 20
-82.119556456109081
 11
366.68100886110108
 21
-82.119556456109081
  0
LINE
  8
_0-5_細線
  6
CONTINUOUS
 62
    6
 10
370.68100886110278
 20
-82.119556456109081
 11
376.02274470288933
 21
-82.119556456109081
  0
LINE
  8
_0-5_細線
  6
CONTINUOUS
 62
    6
 10
389.06357967667918
 20
-82.119556456109081
 11
396.95248724383521
 21
-82.119556456109081
  0
LINE
  8
_0-5_細線
  6
CONTINUOUS
 62
    6
 10
408.57861718717788
 20
-82.119556456109081
 11
412.97861718717752
 21
-82.119556456109081
  0
LINE
  8
_0-5_細線
  6
CONTINUOUS
 62
    6
 10
288.80842084227436
 20
-104.91955645610881
 11
294.00842084227503
 21
-104.91955645610881
  0
LINE
  8
_0-5_細線
  6
CONTINUOUS
 62
    6
 10
309.63188858306336
 20
-104.91955645610881
 11
314.83188858306232
 21
-104.91955645610881
  0
LINE
  8
_0-5_細線
  6
CONTINUOUS
 62
    6
 10
317.61172660459044
 20
-104.91955645610881
 11
331.65463567450854
 21
-104.91955645610881
  0
LINE
  8
_0-5_細線
  6
CONTINUOUS
 62
    6
 10
350.64354121052304
 20
-104.91955645610881
 11
356.049194255168
 21
-104.91955645610881
  0
LINE
  8
_0-5_細線
  6
CONTINUOUS
 62
    6
 10
360.049194255168
 20
-104.91955645610881
 11
365.24919425516885
 21
-104.91955645610881
  0
LINE
  8
_0-5_細線
  6
CONTINUOUS
 62
    6
 10
381.45455930882508
 20
-104.91955645610881
 11
386.65455930882399
 21
-104.91955645610881
  0
LINE
  8
_0-5_細線
  6
CONTINUOUS
 62
    6
 10
389.06357967667918
 20
-104.91955645610881
 11
394.26357967667821
 21
-104.91955645610881
  0
LINE
  8
_0-5_細線
  6
CONTINUOUS
 62
    6
 10
406.01112349257448
 20
-104.91955645610881
 11
412.97861718717752
 21
-104.91955645610881
  0
LINE
  8
_0-5_細線
  6
CONTINUOUS
 62
    6
 10
289.18146696879836
 20
-104.11955645610908
 11
294.38146696879915
 21
-104.11955645610908
  0
LINE
  8
_0-5_細線
  6
CONTINUOUS
 62
    6
 10
309.25884245653936
 20
-104.11955645610908
 11
314.45884245654003
 21
-104.11955645610908
  0
LINE
  8
_0-5_細線
  6
CONTINUOUS
 62
    6
 10
317.61172660459044
 20
-104.11955645610908
 11
334.22197720425817
 21
-104.11955645610908
  0
LINE
  8
_0-5_細線
  6
CONTINUOUS
 62
    6
 10
350.27049508399898
 20
-104.11955645610908
 11
356.42224038169218
 21
-104.11955645610908
  0
LINE
  8
_0-5_細線
  6
CONTINUOUS
 62
    6
 10
360.42224038169218
 20
-104.11955645610908
 11
365.62224038169279
 21
-104.11955645610908
  0
LINE
  8
_0-5_細線
  6
CONTINUOUS
 62
    6
 10
381.08151318230102
 20
-104.11955645610908
 11
386.28151318230005
 21
-104.11955645610908
  0
LINE
  8
_0-5_細線
  6
CONTINUOUS
 62
    6
 10
389.06357967667918
 20
-104.11955645610908
 11
394.26357967667821
 21
-104.11955645610908
  0
LINE
  8
_0-5_細線
  6
CONTINUOUS
 62
    6
 10
405.51122801104702
 20
-104.11955645610908
 11
412.97861718717752
 21
-104.11955645610908
  0
LINE
  8
_0-5_細線
  6
CONTINUOUS
 62
    6
 10
289.55451309532242
 20
-103.31955645610913
 11
294.75451309532315
 21
-103.31955645610913
  0
LINE
  8
_0-5_細線
  6
CONTINUOUS
 62
    6
 10
308.88579633001535
 20
-103.31955645610913
 11
314.08579633001415
 21
-103.31955645610913
  0
LINE
  8
_0-5_細線
  6
CONTINUOUS
 62
    6
 10
317.61172660459044
 20
-103.31955645610913
 11
335.97721773066866
 21
-103.31955645610913
  0
LINE
  8
_0-5_細線
  6
CONTINUOUS
 62
    6
 10
349.89744895747481
 20
-103.31955645610913
 11
356.79528650821624
 21
-103.31955645610913
  0
LINE
  8
_0-5_細線
  6
CONTINUOUS
 62
    6
 10
360.79528650821624
 20
-103.31955645610913
 11
365.99528650821696
 21
-103.31955645610913
  0
LINE
  8
_0-5_細線
  6
CONTINUOUS
 62
    6
 10
380.70846705577526
 20
-103.31955645610913
 11
385.90846705577599
 21
-103.31955645610913
  0
LINE
  8
_0-5_細線
  6
CONTINUOUS
 62
    6
 10
389.06357967667918
 20
-103.31955645610913
 11
394.26357967667821
 21
-103.31955645610913
  0
LINE
  8
_0-5_細線
  6
CONTINUOUS
 62
    6
 10
405.01133252951979
 20
-103.31955645610913
 11
412.97861718717752
 21
-103.31955645610913
  0
LINE
  8
_0-5_細線
  6
CONTINUOUS
 62
    6
 10
289.92755922184654
 20
-102.51955645610917
 11
295.12755922184726
 21
-102.51955645610917
  0
LINE
  8
_0-5_細線
  6
CONTINUOUS
 62
    6
 10
308.51275020349112
 20
-102.51955645610917
 11
313.71275020349196
 21
-102.51955645610917
  0
LINE
  8
_0-5_細線
  6
CONTINUOUS
 62
    6
 10
317.61172660459044
 20
-102.51955645610917
 11
337.15439295853781
 21
-102.51955645610917
  0
LINE
  8
_0-5_細線
  6
CONTINUOUS
 62
    6
 10
349.52440283095086
 20
-102.51955645610917
 11
357.1683326347403
 21
-102.51955645610917
  0
LINE
  8
_0-5_細線
  6
CONTINUOUS
 62
    6
 10
361.1683326347403
 20
-102.51955645610917
 11
366.36833263474091
 21
-102.51955645610917
  0
LINE
  8
_0-5_細線
  6
CONTINUOUS
 62
    6
 10
380.33542092925109
 20
-102.51955645610917
 11
385.53542092925193
 21
-102.51955645610917
  0
LINE
  8
_0-5_細線
  6
CONTINUOUS
 62
    6
 10
389.06357967667918
 20
-102.51955645610917
 11
394.26357967667821
 21
-102.51955645610917
  0
LINE
  8
_0-5_細線
  6
CONTINUOUS
 62
    6
 10
404.51143704799244
 20
-102.51955645610917
 11
412.97861718717752
 21
-102.51955645610917
  0
LINE
  8
_0-5_細線
  6
CONTINUOUS
 62
    6
 10
290.30060534837054
 20
-101.71955645610899
 11
295.50060534836945
 21
-101.71955645610899
  0
LINE
  8
_0-5_細線
  6
CONTINUOUS
 62
    6
 10
308.13970407696712
 20
-101.71955645610899
 11
313.33970407696603
 21
-101.71955645610899
  0
LINE
  8
_0-5_細線
  6
CONTINUOUS
 62
    6
 10
317.61172660459044
 20
-101.71955645610899
 11
337.97933581843523
 21
-101.71955645610899
  0
LINE
  8
_0-5_細線
  6
CONTINUOUS
 62
    6
 10
349.15135670442669
 20
-101.71955645610899
 11
357.54137876126435
 21
-101.71955645610899
  0
LINE
  8
_0-5_細線
  6
CONTINUOUS
 62
    6
 10
361.54137876126435
 20
-101.71955645610899
 11
366.74137876126508
 21
-101.71955645610899
  0
LINE
  8
_0-5_細線
  6
CONTINUOUS
 62
    6
 10
379.96237480272896
 20
-101.71955645610899
 11
385.16237480272787
 21
-101.71955645610899
  0
LINE
  8
_0-5_細線
  6
CONTINUOUS
 62
    6
 10
389.06357967667918
 20
-101.71955645610899
 11
394.26357967667821
 21
-101.71955645610899
  0
LINE
  8
_0-5_細線
  6
CONTINUOUS
 62
    6
 10
404.01154156646498
 20
-101.71955645610899
 11
412.97861718717752
 21
-101.71955645610899
  0
LINE
  8
_0-5_細線
  6
CONTINUOUS
 62
    6
 10
290.67365147489465
 20
-100.91955645610904
 11
295.87365147489533
 21
-100.91955645610904
  0
LINE
  8
_0-5_細線
  6
CONTINUOUS
 62
    6
 10
307.76665795044306
 20
-100.91955645610904
 11
312.96665795044385
 21
-100.91955645610904
  0
LINE
  8
_0-5_細線
  6
CONTINUOUS
 62
    6
 10
317.61172660459044
 20
-100.91955645610904
 11
322.81172660458935
 21
-100.91955645610904
  0
LINE
  8
_0-5_細線
  6
CONTINUOUS
 62
    6
 10
331.21110587592472
 20
-100.91955645610904
 11
338.53644942602574
 21
-100.91955645610904
  0
LINE
  8
_0-5_細線
  6
CONTINUOUS
 62
    6
 10
348.77831057790274
 20
-100.91955645610904
 11
357.9144248877883
 21
-100.91955645610904
  0
LINE
  8
_0-5_細線
  6
CONTINUOUS
 62
    6
 10
361.9144248877883
 20
-100.91955645610904
 11
367.11442488778914
 21
-100.91955645610904
  0
LINE
  8
_0-5_細線
  6
CONTINUOUS
 62
    6
 10
379.58932867620479
 20
-100.91955645610904
 11
384.7893286762037
 21
-100.91955645610904
  0
LINE
  8
_0-5_細線
  6
CONTINUOUS
 62
    6
 10
389.06357967667918
 20
-100.91955645610904
 11
394.26357967667821
 21
-100.91955645610904
  0
LINE
  8
_0-5_細線
  6
CONTINUOUS
 62
    6
 10
403.51164608493775
 20
-100.91955645610904
 11
412.97861718717752
 21
-100.91955645610904
  0
LINE
  8
_0-5_細線
  6
CONTINUOUS
 62
    6
 10
291.04669760141866
 20
-100.11955645610885
 11
296.24669760141757
 21
-100.11955645610885
  0
LINE
  8
_0-5_細線
  6
CONTINUOUS
 62
    6
 10
307.39361182391906
 20
-100.11955645610885
 11
312.59361182391973
 21
-100.11955645610885
  0
LINE
  8
_0-5_細線
  6
CONTINUOUS
 62
    6
 10
317.61172660459044
 20
-100.11955645610885
 11
322.81172660458935
 21
-100.11955645610885
  0
LINE
  8
_0-5_細線
  6
CONTINUOUS
 62
    6
 10
332.52244105461347
 20
-100.11955645610885
 11
338.89475267215414
 21
-100.11955645610885
  0
LINE
  8
_0-5_細線
  6
CONTINUOUS
 62
    6
 10
348.40526445137868
 20
-100.11955645610885
 11
358.28747101431247
 21
-100.11955645610885
  0
LINE
  8
_0-5_細線
  6
CONTINUOUS
 62
    6
 10
362.28747101431247
 20
-100.11955645610885
 11
367.48747101431138
 21
-100.11955645610885
  0
LINE
  8
_0-5_細線
  6
CONTINUOUS
 62
    6
 10
379.21628254968073
 20
-100.11955645610885
 11
384.41628254968157
 21
-100.11955645610885
  0
LINE
  8
_0-5_細線
  6
CONTINUOUS
 62
    6
 10
389.06357967667918
 20
-100.11955645610885
 11
394.26357967667821
 21
-100.11955645610885
  0
LINE
  8
_0-5_細線
  6
CONTINUOUS
 62
    6
 10
403.01175060341029
 20
-100.11955645610885
 11
408.20013557820403
 21
-100.11955645610885
  0
LINE
  8
_0-5_細線
  6
CONTINUOUS
 62
    6
 10
408.57861718717788
 20
-100.11955645610885
 11
412.97861718717752
 21
-100.11955645610885
  0
LINE
  8
_0-5_細線
  6
CONTINUOUS
 62
    6
 10
291.41974372794272
 20
-99.319556456109126
 11
312.22056569739561
 21
-99.319556456109126
  0
LINE
  8
_0-5_細線
  6
CONTINUOUS
 62
    6
 10
317.61172660459044
 20
-99.319556456109126
 11
322.81172660458935
 21
-99.319556456109126
  0
LINE
  8
_0-5_細線
  6
CONTINUOUS
 62
    6
 10
333.45458735886223
 20
-99.319556456109126
 11
339.15978695521255
 21
-99.319556456109126
  0
LINE
  8
_0-5_細線
  6
CONTINUOUS
 62
    6
 10
348.03221832485451
 20
-99.319556456109126
 11
353.23221832485342
 21
-99.319556456109126
  0
LINE
  8
_0-5_細線
  6
CONTINUOUS
 62
    6
 10
353.46051714083569
 20
-99.319556456109126
 11
358.66051714083642
 21
-99.319556456109126
  0
LINE
  8
_0-5_細線
  6
CONTINUOUS
 62
    6
 10
362.66051714083653
 20
-99.319556456109126
 11
384.04323642315569
 21
-99.319556456109126
  0
LINE
  8
_0-5_細線
  6
CONTINUOUS
 62
    6
 10
389.06357967667918
 20
-99.319556456109126
 11
394.26357967667821
 21
-99.319556456109126
  0
LINE
  8
_0-5_細線
  6
CONTINUOUS
 62
    6
 10
402.51185512188306
 20
-99.319556456109126
 11
407.70024009667497
 21
-99.319556456109126
  0
LINE
  8
_0-5_細線
  6
CONTINUOUS
 62
    6
 10
408.57861718717788
 20
-99.319556456109126
 11
412.97861718717752
 21
-99.319556456109126
  0
LINE
  8
_0-5_細線
  6
CONTINUOUS
 62
    6
 10
291.79278985446683
 20
-98.519556456109171
 11
311.84751957087161
 21
-98.519556456109171
  0
LINE
  8
_0-5_細線
  6
CONTINUOUS
 62
    6
 10
317.61172660459044
 20
-98.519556456109171
 11
322.81172660458935
 21
-98.519556456109171
  0
LINE
  8
_0-5_細線
  6
CONTINUOUS
 62
    6
 10
334.00490489674763
 20
-98.519556456109171
 11
339.37649839277503
 21
-98.519556456109171
  0
LINE
  8
_0-5_細線
  6
CONTINUOUS
 62
    6
 10
347.65917219833057
 20
-98.519556456109171
 11
352.85917219833129
 21
-98.519556456109171
  0
LINE
  8
_0-5_細線
  6
CONTINUOUS
 62
    6
 10
353.83356326736168
 20
-98.519556456109171
 11
359.03356326736059
 21
-98.519556456109171
  0
LINE
  8
_0-5_細線
  6
CONTINUOUS
 62
    6
 10
363.03356326736059
 20
-98.519556456109171
 11
383.67019029663163
 21
-98.519556456109171
  0
LINE
  8
_0-5_細線
  6
CONTINUOUS
 62
    6
 10
389.06357967667918
 20
-98.519556456109171
 11
394.26357967667821
 21
-98.519556456109171
  0
LINE
  8
_0-5_細線
  6
CONTINUOUS
 62
    6
 10
402.01195964035389
 20
-98.519556456109171
 11
407.20034461514751
 21
-98.519556456109171
  0
LINE
  8
_0-5_細線
  6
CONTINUOUS
 62
    6
 10
408.57861718717788
 20
-98.519556456109171
 11
412.97861718717752
 21
-98.519556456109171
  0
LINE
  8
_0-5_細線
  6
CONTINUOUS
 62
    6
 10
292.16583598099083
 20
-97.71955645610899
 11
311.47447344434755
 21
-97.71955645610899
  0
LINE
  8
_0-5_細線
  6
CONTINUOUS
 62
    6
 10
317.61172660459044
 20
-97.71955645610899
 11
322.81172660458935
 21
-97.71955645610899
  0
LINE
  8
_0-5_細線
  6
CONTINUOUS
 62
    6
 10
334.35272073922454
 20
-97.71955645610899
 11
339.56531315238232
 21
-97.71955645610899
  0
LINE
  8
_0-5_細線
  6
CONTINUOUS
 62
    6
 10
347.28612607180639
 20
-97.71955645610899
 11
352.48612607180723
 21
-97.71955645610899
  0
LINE
  8
_0-5_細線
  6
CONTINUOUS
 62
    6
 10
354.20660939388381
 20
-97.71955645610899
 11
359.40660939388465
 21
-97.71955645610899
  0
LINE
  8
_0-5_細線
  6
CONTINUOUS
 62
    6
 10
363.40660939388465
 20
-97.71955645610899
 11
383.29714417010757
 21
-97.71955645610899
  0
LINE
  8
_0-5_細線
  6
CONTINUOUS
 62
    6
 10
389.06357967667918
 20
-97.71955645610899
 11
394.26357967667821
 21
-97.71955645610899
  0
LINE
  8
_0-5_細線
  6
CONTINUOUS
 62
    6
 10
401.51206415882837
 20
-97.71955645610899
 11
406.70044913362028
 21
-97.71955645610899
  0
LINE
  8
_0-5_細線
  6
CONTINUOUS
 62
    6
 10
408.57861718717788
 20
-97.71955645610899
 11
412.97861718717752
 21
-97.71955645610899
  0
LINE
  8
_0-5_細線
  6
CONTINUOUS
 62
    6
 10
292.53888210751495
 20
-96.919556456108808
 11
311.10142731782355
 21
-96.919556456108808
  0
LINE
  8
_0-5_細線
  6
CONTINUOUS
 62
    6
 10
317.61172660459044
 20
-96.919556456108808
 11
322.81172660458935
 21
-96.919556456108808
  0
LINE
  8
_0-5_細線
  6
CONTINUOUS
 62
    6
 10
334.56979590675394
 20
-96.919556456108808
 11
339.71951503088621
 21
-96.919556456108808
  0
LINE
  8
_0-5_細線
  6
CONTINUOUS
 62
    6
 10
346.91307994528245
 20
-96.919556456108808
 11
352.11307994528318
 21
-96.919556456108808
  0
LINE
  8
_0-5_細線
  6
CONTINUOUS
 62
    6
 10
354.57965552040798
 20
-96.919556456108808
 11
359.7796555204086
 21
-96.919556456108808
  0
LINE
  8
_0-5_細線
  6
CONTINUOUS
 62
    6
 10
363.7796555204086
 20
-96.919556456108808
 11
382.92409804358533
 21
-96.919556456108808
  0
LINE
  8
_0-5_細線
  6
CONTINUOUS
 62
    6
 10
389.06357967667918
 20
-96.919556456108808
 11
394.26357967667821
 21
-96.919556456108808
  0
LINE
  8
_0-5_細線
  6
CONTINUOUS
 62
    6
 10
401.01216867729909
 20
-96.919556456108808
 11
406.20055365209282
 21
-96.919556456108808
  0
LINE
  8
_0-5_細線
  6
CONTINUOUS
 62
    6
 10
408.57861718717788
 20
-96.919556456108808
 11
412.97861718717752
 21
-96.919556456108808
  0
LINE
  8
_0-5_細線
  6
CONTINUOUS
 62
    6
 10
292.91192823403895
 20
-96.119556456108853
 11
310.72838119129943
 21
-96.119556456108853
  0
LINE
  8
_0-5_細線
  6
CONTINUOUS
 62
    6
 10
317.61172660459044
 20
-96.119556456108853
 11
322.81172660458935
 21
-96.119556456108853
  0
LINE
  8
_0-5_細線
  6
CONTINUOUS
 62
    6
 10
334.70170041077216
 20
-96.119556456108853
 11
339.84076429560912
 21
-96.119556456108853
  0
LINE
  8
_0-5_細線
  6
CONTINUOUS
 62
    6
 10
346.54003381875839
 20
-96.119556456108853
 11
351.740033818759
 21
-96.119556456108853
  0
LINE
  8
_0-5_細線
  6
CONTINUOUS
 62
    6
 10
354.95270164693204
 20
-96.119556456108853
 11
360.15270164693277
 21
-96.119556456108853
  0
LINE
  8
_0-5_細線
  6
CONTINUOUS
 62
    6
 10
364.15270164693277
 20
-96.119556456108853
 11
382.55105191705945
 21
-96.119556456108853
  0
LINE
  8
_0-5_細線
  6
CONTINUOUS
 62
    6
 10
389.06357967667918
 20
-96.119556456108853
 11
394.26357967667821
 21
-96.119556456108853
  0
LINE
  8
_0-5_細線
  6
CONTINUOUS
 62
    6
 10
400.51227319577185
 20
-96.119556456108853
 11
405.70065817056559
 21
-96.119556456108853
  0
LINE
  8
_0-5_細線
  6
CONTINUOUS
 62
    6
 10
408.57861718717788
 20
-96.119556456108853
 11
412.97861718717752
 21
-96.119556456108853
  0
LINE
  8
_0-5_細線
  6
CONTINUOUS
 62
    6
 10
293.28497436056301
 20
-95.319556456108899
 11
298.48497436056192
 21
-95.319556456108899
  0
LINE
  8
_0-5_細線
  6
CONTINUOUS
 62
    6
 10
305.15533506477476
 20
-95.319556456108899
 11
310.35533506477532
 21
-95.319556456108899
  0
LINE
  8
_0-5_細線
  6
CONTINUOUS
 62
    6
 10
317.61172660459044
 20
-95.319556456108899
 11
322.81172660458935
 21
-95.319556456108899
  0
LINE
  8
_0-5_細線
  6
CONTINUOUS
 62
    6
 10
334.76933120602644
 20
-95.319556456108899
 11
339.92936376222235
 21
-95.319556456108899
  0
LINE
  8
_0-5_細線
  6
CONTINUOUS
 62
    6
 10
346.16698769223422
 20
-95.319556456108899
 11
351.36698769223506
 21
-95.319556456108899
  0
LINE
  8
_0-5_細線
  6
CONTINUOUS
 62
    6
 10
355.32574777345781
 20
-95.319556456108899
 11
360.52574777345671
 21
-95.319556456108899
  0
LINE
  8
_0-5_細線
  6
CONTINUOUS
 62
    6
 10
364.52574777345501
 20
-95.319556456108899
 11
369.72574777345562
 21
-95.319556456108899
  0
LINE
  8
_0-5_細線
  6
CONTINUOUS
 62
    6
 10
376.97800579053649
 20
-95.319556456108899
 11
382.17800579053539
 21
-95.319556456108899
  0
LINE
  8
_0-5_細線
  6
CONTINUOUS
 62
    6
 10
389.06357967667918
 20
-95.319556456108899
 11
394.26357967667821
 21
-95.319556456108899
  0
LINE
  8
_0-5_細線
  6
CONTINUOUS
 62
    6
 10
400.01237771424439
 20
-95.319556456108899
 11
405.20076268903824
 21
-95.319556456108899
  0
LINE
  8
_0-5_細線
  6
CONTINUOUS
 62
    6
 10
408.57861718717788
 20
-95.319556456108899
 11
412.97861718717752
 21
-95.319556456108899
  0
LINE
  8
_0-5_細線
  6
CONTINUOUS
 62
    6
 10
293.65802048708713
 20
-94.519556456108944
 11
298.85802048708604
 21
-94.519556456108944
  0
LINE
  8
_0-5_細線
  6
CONTINUOUS
 62
    6
 10
304.78228893825053
 20
-94.519556456108944
 11
309.98228893825132
 21
-94.519556456108944
  0
LINE
  8
_0-5_細線
  6
CONTINUOUS
 62
    6
 10
317.61172660459044
 20
-94.519556456108944
 11
322.81172660458935
 21
-94.519556456108944
  0
LINE
  8
_0-5_細線
  6
CONTINUOUS
 62
    6
 10
334.79940625688971
 20
-94.519556456108944
 11
339.98465958738706
 21
-94.519556456108944
  0
LINE
  8
_0-5_細線
  6
CONTINUOUS
 62
    6
 10
345.79394156571027
 20
-94.519556456108944
 11
350.99394156571088
 21
-94.519556456108944
  0
LINE
  8
_0-5_細線
  6
CONTINUOUS
 62
    6
 10
355.69879389998016
 20
-94.519556456108944
 11
360.89879389998089
 21
-94.519556456108944
  0
LINE
  8
_0-5_細線
  6
CONTINUOUS
 62
    6
 10
364.89879389998089
 20
-94.519556456108944
 11
370.0987938999815
 21
-94.519556456108944
  0
LINE
  8
_0-5_細線
  6
CONTINUOUS
 62
    6
 10
376.60495966401243
 20
-94.519556456108944
 11
381.80495966401134
 21
-94.519556456108944
  0
LINE
  8
_0-5_細線
  6
CONTINUOUS
 62
    6
 10
389.06357967667918
 20
-94.519556456108944
 11
394.26357967667821
 21
-94.519556456108944
  0
LINE
  8
_0-5_細線
  6
CONTINUOUS
 62
    6
 10
399.51248223271716
 20
-94.519556456108944
 11
404.70086720751078
 21
-94.519556456108944
  0
LINE
  8
_0-5_細線
  6
CONTINUOUS
 62
    6
 10
408.57861718717788
 20
-94.519556456108944
 11
412.97861718717752
 21
-94.519556456108944
  0
LINE
  8
_0-5_細線
  6
CONTINUOUS
 62
    6
 10
294.03106661361113
 20
-93.719556456109444
 11
299.23106661361004
 21
-93.719556456109444
  0
LINE
  8
_0-5_細線
  6
CONTINUOUS
 62
    6
 10
304.40924281172653
 20
-93.719556456109444
 11
309.60924281172726
 21
-93.719556456109444
  0
LINE
  8
_0-5_細線
  6
CONTINUOUS
 62
    6
 10
317.61172660459044
 20
-93.719556456109444
 11
322.81172660458935
 21
-93.719556456109444
  0
LINE
  8
_0-5_細線
  6
CONTINUOUS
 62
    6
 10
334.81124878058392
 20
-93.719556456109444
 11
340.01043104350816
 21
-93.719556456109444
  0
LINE
  8
_0-5_細線
  6
CONTINUOUS
 62
    6
 10
345.4208954391861
 20
-93.719556456109444
 11
350.62089543918694
 21
-93.719556456109444
  0
LINE
  8
_0-5_細線
  6
CONTINUOUS
 62
    6
 10
356.07184002650411
 20
-93.719556456109444
 11
361.27184002650495
 21
-93.719556456109444
  0
LINE
  8
_0-5_細線
  6
CONTINUOUS
 62
    6
 10
365.27184002650495
 20
-93.719556456109444
 11
370.47184002650386
 21
-93.719556456109444
  0
LINE
  8
_0-5_細線
  6
CONTINUOUS
 62
    6
 10
376.23191353748837
 20
-93.719556456109444
 11
381.43191353748909
 21
-93.719556456109444
  0
LINE
  8
_0-5_細線
  6
CONTINUOUS
 62
    6
 10
389.06357967667918
 20
-93.719556456109444
 11
394.26357967667821
 21
-93.719556456109444
  0
LINE
  8
_0-5_細線
  6
CONTINUOUS
 62
    6
 10
399.0125867511897
 20
-93.719556456109444
 11
404.20097172598355
 21
-93.719556456109444
  0
LINE
  8
_0-5_細線
  6
CONTINUOUS
 62
    6
 10
408.57861718717788
 20
-93.719556456109444
 11
412.97861718717752
 21
-93.719556456109444
  0
LINE
  8
_0-5_細線
  6
CONTINUOUS
 62
    6
 10
294.40411274013525
 20
-92.91955645610858
 11
299.60411274013416
 21
-92.91955645610858
  0
LINE
  8
_0-5_細線
  6
CONTINUOUS
 62
    6
 10
304.03619668520241
 20
-92.91955645610858
 11
309.23619668520325
 21
-92.91955645610858
  0
LINE
  8
_0-5_細線
  6
CONTINUOUS
 62
    6
 10
317.61172660459044
 20
-92.91955645610858
 11
322.81172660458935
 21
-92.91955645610858
  0
LINE
  8
_0-5_細線
  6
CONTINUOUS
 62
    6
 10
334.80480653267205
 20
-92.91955645610858
 11
339.99419651382334
 21
-92.91955645610858
  0
LINE
  8
_0-5_細線
  6
CONTINUOUS
 62
    6
 10
345.04784931266397
 20
-92.91955645610858
 11
350.24784931266288
 21
-92.91955645610858
  0
LINE
  8
_0-5_細線
  6
CONTINUOUS
 62
    6
 10
356.44488615302828
 20
-92.91955645610858
 11
361.64488615302889
 21
-92.91955645610858
  0
LINE
  8
_0-5_細線
  6
CONTINUOUS
 62
    6
 10
365.64488615302889
 20
-92.91955645610858
 11
370.8448861530278
 21
-92.91955645610858
  0
LINE
  8
_0-5_細線
  6
CONTINUOUS
 62
    6
 10
375.85886741096419
 20
-92.91955645610858
 11
381.05886741096504
 21
-92.91955645610858
  0
LINE
  8
_0-5_細線
  6
CONTINUOUS
 62
    6
 10
389.06357967667918
 20
-92.91955645610858
 11
394.26357967667821
 21
-92.91955645610858
  0
LINE
  8
_0-5_細線
  6
CONTINUOUS
 62
    6
 10
398.51269126966247
 20
-92.91955645610858
 11
403.70107624445438
 21
-92.91955645610858
  0
LINE
  8
_0-5_細線
  6
CONTINUOUS
 62
    6
 10
408.57861718717788
 20
-92.91955645610858
 11
412.97861718717752
 21
-92.91955645610858
  0
LINE
  8
_0-5_細線
  6
CONTINUOUS
 62
    6
 10
294.77715886665925
 20
-92.119556456109081
 11
299.97715886665816
 21
-92.119556456109081
  0
LINE
  8
_0-5_細線
  6
CONTINUOUS
 62
    6
 10
303.66315055868023
 20
-92.119556456109081
 11
308.86315055867914
 21
-92.119556456109081
  0
LINE
  8
_0-5_細線
  6
CONTINUOUS
 62
    6
 10
317.61172660459044
 20
-92.119556456109081
 11
322.81172660458935
 21
-92.119556456109081
  0
LINE
  8
_0-5_細線
  6
CONTINUOUS
 62
    6
 10
334.78073681676057
 20
-92.119556456109081
 11
339.94747574122363
 21
-92.119556456109081
  0
LINE
  8
_0-5_細線
  6
CONTINUOUS
 62
    6
 10
344.67480318613809
 20
-92.119556456109081
 11
349.87480318613871
 21
-92.119556456109081
  0
LINE
  8
_0-5_細線
  6
CONTINUOUS
 62
    6
 10
356.81793227955234
 20
-92.119556456109081
 11
362.01793227955125
 21
-92.119556456109081
  0
LINE
  8
_0-5_細線
  6
CONTINUOUS
 62
    6
 10
366.01793227955307
 20
-92.119556456109081
 11
371.21793227955197
 21
-92.119556456109081
  0
LINE
  8
_0-5_細線
  6
CONTINUOUS
 62
    6
 10
375.48582128444014
 20
-92.119556456109081
 11
380.68582128444098
 21
-92.119556456109081
  0
LINE
  8
_0-5_細線
  6
CONTINUOUS
 62
    6
 10
389.06357967667918
 20
-92.119556456109081
 11
394.26357967667821
 21
-92.119556456109081
  0
LINE
  8
_0-5_細線
  6
CONTINUOUS
 62
    6
 10
398.01279578813512
 20
-92.119556456109081
 11
403.20118076292886
 21
-92.119556456109081
  0
LINE
  8
_0-5_細線
  6
CONTINUOUS
 62
    6
 10
408.57861718717788
 20
-92.119556456109081
 11
412.97861718717752
 21
-92.119556456109081
  0
LINE
  8
_0-5_細線
  6
CONTINUOUS
 62
    6
 10
295.15020499318337
 20
-91.319556456108899
 11
300.35020499318222
 21
-91.319556456108899
  0
LINE
  8
_0-5_細線
  6
CONTINUOUS
 62
    6
 10
303.29010443215446
 20
-91.319556456108899
 11
308.49010443215502
 21
-91.319556456108899
  0
LINE
  8
_0-5_細線
  6
CONTINUOUS
 62
    6
 10
317.61172660459044
 20
-91.319556456108899
 11
322.81172660458935
 21
-91.319556456108899
  0
LINE
  8
_0-5_細線
  6
CONTINUOUS
 62
    6
 10
334.71687404004035
 20
-91.319556456108899
 11
339.86674834754473
 21
-91.319556456108899
  0
LINE
  8
_0-5_細線
  6
CONTINUOUS
 62
    6
 10
344.30175705961585
 20
-91.319556456108899
 11
349.50175705961476
 21
-91.319556456108899
  0
LINE
  8
_0-5_細線
  6
CONTINUOUS
 62
    6
 10
357.19097840607628
 20
-91.319556456108899
 11
362.39097840607701
 21
-91.319556456108899
  0
LINE
  8
_0-5_細線
  6
CONTINUOUS
 62
    6
 10
366.39097840607701
 20
-91.319556456108899
 11
371.59097840607592
 21
-91.319556456108899
  0
LINE
  8
_0-5_細線
  6
CONTINUOUS
 62
    6
 10
375.11277515791619
 20
-91.319556456108899
 11
380.31277515791498
 21
-91.319556456108899
  0
LINE
  8
_0-5_細線
  6
CONTINUOUS
 62
    6
 10
389.06357967667918
 20
-91.319556456108899
 11
394.26357967667821
 21
-91.319556456108899
  0
LINE
  8
_0-5_細線
  6
CONTINUOUS
 62
    6
 10
397.51290030660778
 20
-91.319556456108899
 11
402.70128528139969
 21
-91.319556456108899
  0
LINE
  8
_0-5_細線
  6
CONTINUOUS
 62
    6
 10
408.57861718717788
 20
-91.319556456108899
 11
412.97861718717752
 21
-91.319556456108899
  0
LINE
  8
_0-5_細線
  6
CONTINUOUS
 62
    6
 10
295.52325111970555
 20
-90.519556456108944
 11
300.72325111970633
 21
-90.519556456108944
  0
LINE
  8
_0-5_細線
  6
CONTINUOUS
 62
    6
 10
302.91705830563211
 20
-90.519556456108944
 11
308.11705830563102
 21
-90.519556456108944
  0
LINE
  8
_0-5_細線
  6
CONTINUOUS
 62
    6
 10
317.61172660459044
 20
-90.519556456108944
 11
322.81172660458935
 21
-90.519556456108944
  0
LINE
  8
_0-5_細線
  6
CONTINUOUS
 62
    6
 10
334.60050747192065
 20
-90.519556456108944
 11
339.74929864641956
 21
-90.519556456108944
  0
LINE
  8
_0-5_細線
  6
CONTINUOUS
 62
    6
 10
343.92871093308992
 20
-90.519556456108944
 11
349.12871093309059
 21
-90.519556456108944
  0
LINE
  8
_0-5_細線
  6
CONTINUOUS
 62
    6
 10
357.56402453260046
 20
-90.519556456108944
 11
362.76402453260118
 21
-90.519556456108944
  0
LINE
  8
_0-5_細線
  6
CONTINUOUS
 62
    6
 10
366.76402453260118
 20
-90.519556456108944
 11
371.96402453260009
 21
-90.519556456108944
  0
LINE
  8
_0-5_細線
  6
CONTINUOUS
 62
    6
 10
374.73972903139213
 20
-90.519556456108944
 11
379.93972903139286
 21
-90.519556456108944
  0
LINE
  8
_0-5_細線
  6
CONTINUOUS
 62
    6
 10
389.06357967667918
 20
-90.519556456108944
 11
394.26357967667821
 21
-90.519556456108944
  0
LINE
  8
_0-5_細線
  6
CONTINUOUS
 62
    6
 10
397.01300482508043
 20
-90.519556456108944
 11
402.20138979987416
 21
-90.519556456108944
  0
LINE
  8
_0-5_細線
  6
CONTINUOUS
 62
    6
 10
408.57861718717788
 20
-90.519556456108944
 11
412.97861718717752
 21
-90.519556456108944
  0
LINE
  8
_0-5_細線
  6
CONTINUOUS
 62
    6
 10
295.89629724622966
 20
-89.71955645610899
 11
301.09629724623034
 21
-89.71955645610899
  0
LINE
  8
_0-5_細線
  6
CONTINUOUS
 62
    6
 10
302.54401217910623
 20
-89.71955645610899
 11
307.74401217910696
 21
-89.71955645610899
  0
LINE
  8
_0-5_細線
  6
CONTINUOUS
 62
    6
 10
317.61172660459044
 20
-89.71955645610899
 11
322.81172660458935
 21
-89.71955645610899
  0
LINE
  8
_0-5_細線
  6
CONTINUOUS
 62
    6
 10
334.40662645908117
 20
-89.71955645610899
 11
339.59990984946404
 21
-89.71955645610899
  0
LINE
  8
_0-5_細線
  6
CONTINUOUS
 62
    6
 10
343.55566480656773
 20
-89.71955645610899
 11
348.75566480656664
 21
-89.71955645610899
  0
LINE
  8
_0-5_細線
  6
CONTINUOUS
 62
    6
 10
357.9370706591244
 20
-89.71955645610899
 11
363.13707065912524
 21
-89.71955645610899
  0
LINE
  8
_0-5_細線
  6
CONTINUOUS
 62
    6
 10
367.13707065912524
 20
-89.71955645610899
 11
372.33707065912415
 21
-89.71955645610899
  0
LINE
  8
_0-5_細線
  6
CONTINUOUS
 62
    6
 10
374.36668290486807
 20
-89.71955645610899
 11
379.56668290486869
 21
-89.71955645610899
  0
LINE
  8
_0-5_細線
  6
CONTINUOUS
 62
    6
 10
389.06357967667918
 20
-89.71955645610899
 11
394.26357967667821
 21
-89.71955645610899
  0
LINE
  8
_0-5_細線
  6
CONTINUOUS
 62
    6
 10
396.51310934355308
 20
-89.71955645610899
 11
401.70149431834488
 21
-89.71955645610899
  0
LINE
  8
_0-5_細線
  6
CONTINUOUS
 62
    6
 10
408.57861718717788
 20
-89.71955645610899
 11
412.97861718717752
 21
-89.71955645610899
  0
LINE
  8
_0-5_細線
  6
CONTINUOUS
 62
    6
 10
296.26934337275367
 20
-88.91955645610858
 11
301.46934337275445
 21
-88.91955645610858
  0
LINE
  8
_0-5_細線
  6
CONTINUOUS
 62
    6
 10
302.17096605258405
 20
-88.91955645610858
 11
307.37096605258296
 21
-88.91955645610858
  0
LINE
  8
_0-5_細線
  6
CONTINUOUS
 62
    6
 10
317.61172660459044
 20
-88.91955645610858
 11
322.81172660458935
 21
-88.91955645610858
  0
LINE
  8
_0-5_細線
  6
CONTINUOUS
 62
    6
 10
334.09313897024094
 20
-88.91955645610858
 11
339.41905243298521
 21
-88.91955645610858
  0
LINE
  8
_0-5_細線
  6
CONTINUOUS
 62
    6
 10
343.18261868004362
 20
-88.91955645610858
 11
348.38261868004258
 21
-88.91955645610858
  0
LINE
  8
_0-5_細線
  6
CONTINUOUS
 62
    6
 10
358.31011678564857
 20
-88.91955645610858
 11
363.51011678564748
 21
-88.91955645610858
  0
LINE
  8
_0-5_細線
  6
CONTINUOUS
 62
    6
 10
367.51011678564748
 20
-88.91955645610858
 11
372.7101167856481
 21
-88.91955645610858
  0
LINE
  8
_0-5_細線
  6
CONTINUOUS
 62
    6
 10
373.9936367783439
 20
-88.91955645610858
 11
379.19363677834474
 21
-88.91955645610858
  0
LINE
  8
_0-5_細線
  6
CONTINUOUS
 62
    6
 10
389.06357967667918
 20
-88.91955645610858
 11
394.26357967667821
 21
-88.91955645610858
  0
LINE
  8
_0-5_細線
  6
CONTINUOUS
 62
    6
 10
396.01321386202392
 20
-88.91955645610858
 11
401.20159883681765
 21
-88.91955645610858
  0
LINE
  8
_0-5_細線
  6
CONTINUOUS
 62
    6
 10
408.57861718717788
 20
-88.91955645610858
 11
412.97861718717752
 21
-88.91955645610858
  0
LINE
  8
_0-5_細線
  6
CONTINUOUS
 62
    6
 10
296.64238949927773
 20
-88.119556456109081
 11
306.99791992605896
 21
-88.119556456109081
  0
LINE
  8
_0-5_細線
  6
CONTINUOUS
 62
    6
 10
317.61172660459044
 20
-88.119556456109081
 11
322.81172660458935
 21
-88.119556456109081
  0
LINE
  8
_0-5_細線
  6
CONTINUOUS
 62
    6
 10
333.61172660458863
 20
-88.119556456109081
 11
339.21172660458893
 21
-88.119556456109081
  0
LINE
  8
_0-5_細線
  6
CONTINUOUS
 62
    6
 10
342.80957255351956
 20
-88.119556456109081
 11
348.00957255352034
 21
-88.119556456109081
  0
LINE
  8
_0-5_細線
  6
CONTINUOUS
 62
    6
 10
358.68316291217263
 20
-88.119556456109081
 11
363.88316291217336
 21
-88.119556456109081
  0
LINE
  8
_0-5_細線
  6
CONTINUOUS
 62
    6
 10
367.88316291217336
 20
-88.119556456109081
 11
373.08316291217227
 21
-88.119556456109081
  0
LINE
  8
_0-5_細線
  6
CONTINUOUS
 62
    6
 10
373.62059065181984
 20
-88.119556456109081
 11
378.82059065182068
 21
-88.119556456109081
  0
LINE
  8
_0-5_細線
  6
CONTINUOUS
 62
    6
 10
389.06357967667918
 20
-88.119556456109081
 11
394.26357967667821
 21
-88.119556456109081
  0
LINE
  8
_0-5_細線
  6
CONTINUOUS
 62
    6
 10
395.51331838049839
 20
-88.119556456109081
 11
400.70170335529019
 21
-88.119556456109081
  0
LINE
  8
_0-5_細線
  6
CONTINUOUS
 62
    6
 10
408.57861718717788
 20
-88.119556456109081
 11
412.97861718717752
 21
-88.119556456109081
  0
LINE
  8
_0-5_細線
  6
CONTINUOUS
 62
    6
 10
297.01543562580184
 20
-87.319556456108899
 11
306.62487379953473
 21
-87.319556456108899
  0
LINE
  8
_0-5_細線
  6
CONTINUOUS
 62
    6
 10
317.61172660459044
 20
-87.319556456108899
 11
322.81172660458935
 21
-87.319556456108899
  0
LINE
  8
_0-5_細線
  6
CONTINUOUS
 62
    6
 10
332.76192649618952
 20
-87.319556456108899
 11
338.96052109707955
 21
-87.319556456108899
  0
LINE
  8
_0-5_細線
  6
CONTINUOUS
 62
    6
 10
342.43652642699374
 20
-87.319556456108899
 11
347.63652642699446
 21
-87.319556456108899
  0
LINE
  8
_0-5_細線
  6
CONTINUOUS
 62
    6
 10
359.05620903869669
 20
-87.319556456108899
 11
364.25620903869731
 21
-87.319556456108899
  0
LINE
  8
_0-5_細線
  6
CONTINUOUS
 62
    6
 10
368.25620903869731
 20
-87.319556456108899
 11
378.44754452529662
 21
-87.319556456108899
  0
LINE
  8
_0-5_細線
  6
CONTINUOUS
 62
    6
 10
389.06357967667918
 20
-87.319556456108899
 11
394.26357967667821
 21
-87.319556456108899
  0
LINE
  8
_0-5_細線
  6
CONTINUOUS
 62
    6
 10
395.01342289896911
 20
-87.319556456108899
 11
400.20180787376296
 21
-87.319556456108899
  0
LINE
  8
_0-5_細線
  6
CONTINUOUS
 62
    6
 10
408.57861718717788
 20
-87.319556456108899
 11
412.97861718717752
 21
-87.319556456108899
  0
LINE
  8
_0-5_細線
  6
CONTINUOUS
 62
    6
 10
297.38848175232772
 20
-86.519556456109171
 11
306.25182767301072
 21
-86.519556456109171
  0
LINE
  8
_0-5_細線
  6
CONTINUOUS
 62
    6
 10
317.61172660459044
 20
-86.519556456109171
 11
322.81172660458935
 21
-86.519556456109171
  0
LINE
  8
_0-5_細線
  6
CONTINUOUS
 62
    6
 10
331.53038870352344
 20
-86.519556456109171
 11
338.62827462100631
 21
-86.519556456109171
  0
LINE
  8
_0-5_細線
  6
CONTINUOUS
 62
    6
 10
342.06348030047144
 20
-86.519556456109171
 11
347.26348030047029
 21
-86.519556456109171
  0
LINE
  8
_0-5_細線
  6
CONTINUOUS
 62
    6
 10
359.42925516522075
 20
-86.519556456109171
 11
364.62925516522148
 21
-86.519556456109171
  0
LINE
  8
_0-5_細線
  6
CONTINUOUS
 62
    6
 10
368.62925516522148
 20
-86.519556456109171
 11
378.07449839877256
 21
-86.519556456109171
  0
LINE
  8
_0-5_細線
  6
CONTINUOUS
 62
    6
 10
389.06357967667918
 20
-86.519556456109171
 11
394.26357967667821
 21
-86.519556456109171
  0
LINE
  8
_0-5_細線
  6
CONTINUOUS
 62
    6
 10
394.5135274174437
 20
-86.519556456109171
 11
399.7019123922355
 21
-86.519556456109171
  0
LINE
  8
_0-5_細線
  6
CONTINUOUS
 62
    6
 10
408.57861718717788
 20
-86.519556456109171
 11
412.97861718717752
 21
-86.519556456109171
  0
LINE
  8
_0-5_細線
  6
CONTINUOUS
 62
    6
 10
297.76152787884996
 20
-85.71955645610899
 11
305.87878154648666
 21
-85.71955645610899
  0
LINE
  8
_0-5_細線
  6
CONTINUOUS
 62
    6
 10
317.61172660459044
 20
-85.71955645610899
 11
338.13595038728005
 21
-85.71955645610899
  0
LINE
  8
_0-5_細線
  6
CONTINUOUS
 62
    6
 10
341.69043417394744
 20
-85.71955645610899
 11
346.89043417394635
 21
-85.71955645610899
  0
LINE
  8
_0-5_細線
  6
CONTINUOUS
 62
    6
 10
359.8023012917447
 20
-85.71955645610899
 11
365.00230129174361
 21
-85.71955645610899
  0
LINE
  8
_0-5_細線
  6
CONTINUOUS
 62
    6
 10
369.00230129174361
 20
-85.71955645610899
 11
377.70145227224839
 21
-85.71955645610899
  0
LINE
  8
_0-5_細線
  6
CONTINUOUS
 62
    6
 10
389.06357967667918
 20
-85.71955645610899
 11
399.20201691070827
 21
-85.71955645610899
  0
LINE
  8
_0-5_細線
  6
CONTINUOUS
 62
    6
 10
408.57861718717788
 20
-85.71955645610899
 11
412.97861718717752
 21
-85.71955645610899
  0
LINE
  8
_0-5_細線
  6
CONTINUOUS
 62
    6
 10
298.13457400537396
 20
-84.919556456108808
 11
305.50573541996266
 21
-84.919556456108808
  0
LINE
  8
_0-5_細線
  6
CONTINUOUS
 62
    6
 10
317.61172660459044
 20
-84.919556456108808
 11
337.37930584629714
 21
-84.919556456108808
  0
LINE
  8
_0-5_細線
  6
CONTINUOUS
 62
    6
 10
341.31738804742332
 20
-84.919556456108808
 11
346.51738804742399
 21
-84.919556456108808
  0
LINE
  8
_0-5_細線
  6
CONTINUOUS
 62
    6
 10
360.17534741826887
 20
-84.919556456108808
 11
365.37534741826778
 21
-84.919556456108808
  0
LINE
  8
_0-5_細線
  6
CONTINUOUS
 62
    6
 10
369.37534741826778
 20
-84.919556456108808
 11
377.32840614572251
 21
-84.919556456108808
  0
LINE
  8
_0-5_細線
  6
CONTINUOUS
 62
    6
 10
389.06357967667918
 20
-84.919556456108808
 11
398.70212142918092
 21
-84.919556456108808
  0
LINE
  8
_0-5_細線
  6
CONTINUOUS
 62
    6
 10
408.57861718717788
 20
-84.919556456108808
 11
412.97861718717752
 21
-84.919556456108808
  0
LINE
  8
_0-5_細線
  6
CONTINUOUS
 62
    6
 10
298.50762013189802
 20
-84.119556456109081
 11
305.13268929343866
 21
-84.119556456109081
  0
LINE
  8
_0-5_細線
  6
CONTINUOUS
 62
    6
 10
317.61172660459044
 20
-84.119556456109081
 11
336.26824240014605
 21
-84.119556456109081
  0
LINE
  8
_0-5_細線
  6
CONTINUOUS
 62
    6
 10
340.94434192089926
 20
-84.119556456109081
 11
346.14434192089811
 21
-84.119556456109081
  0
LINE
  8
_0-5_細線
  6
CONTINUOUS
 62
    6
 10
360.54839354479111
 20
-84.119556456109081
 11
365.74839354479172
 21
-84.119556456109081
  0
LINE
  8
_0-5_細線
  6
CONTINUOUS
 62
    6
 10
369.74839354479172
 20
-84.119556456109081
 11
376.95536001920038
 21
-84.119556456109081
  0
LINE
  8
_0-5_細線
  6
CONTINUOUS
 62
    6
 10
389.06357967667918
 20
-84.119556456109081
 11
398.20222594765357
 21
-84.119556456109081
  0
LINE
  8
_0-5_細線
  6
CONTINUOUS
 62
    6
 10
408.57861718717788
 20
-84.119556456109081
 11
412.97861718717752
 21
-84.119556456109081
  0
LINE
  8
_0-5_細線
  6
CONTINUOUS
 62
    6
 10
298.88066625842214
 20
-83.319556456109353
 11
304.75964316691443
 21
-83.319556456109353
  0
LINE
  8
_0-5_細線
  6
CONTINUOUS
 62
    6
 10
317.61172660459044
 20
-83.319556456109353
 11
334.66397860767313
 21
-83.319556456109353
  0
LINE
  8
_0-5_細線
  6
CONTINUOUS
 62
    6
 10
340.57129579437526
 20
-83.319556456109353
 11
345.77129579437599
 21
-83.319556456109353
  0
LINE
  8
_0-5_細線
  6
CONTINUOUS
 62
    6
 10
360.92143967131699
 20
-83.319556456109353
 11
366.1214396713159
 21
-83.319556456109353
  0
LINE
  8
_0-5_細線
  6
CONTINUOUS
 62
    6
 10
370.1214396713176
 20
-83.319556456109353
 11
376.58231389267632
 21
-83.319556456109353
  0
LINE
  8
_0-5_細線
  6
CONTINUOUS
 62
    6
 10
389.06357967667918
 20
-83.319556456109353
 11
397.70233046612623
 21
-83.319556456109353
  0
LINE
  8
_0-5_細線
  6
CONTINUOUS
 62
    6
 10
408.57861718717788
 20
-83.319556456109353
 11
412.97861718717752
 21
-83.319556456109353
  0
LINE
  8
_0-5_細線
  6
CONTINUOUS
 62
    6
 10
299.25371238494614
 20
-82.519556456109171
 11
304.38659704039225
 21
-82.519556456109171
  0
LINE
  8
_0-5_細線
  6
CONTINUOUS
 62
    6
 10
317.61172660459044
 20
-82.519556456109171
 11
332.31039592913572
 21
-82.519556456109171
  0
LINE
  8
_0-5_細線
  6
CONTINUOUS
 62
    6
 10
340.19824966785114
 20
-82.519556456109171
 11
345.39824966785
 21
-82.519556456109171
  0
LINE
  8
_0-5_細線
  6
CONTINUOUS
 62
    6
 10
361.29448579784105
 20
-82.519556456109171
 11
366.49448579783996
 21
-82.519556456109171
  0
LINE
  8
_0-5_細線
  6
CONTINUOUS
 62
    6
 10
370.49448579783996
 20
-82.519556456109171
 11
376.20926776615227
 21
-82.519556456109171
  0
LINE
  8
_0-5_細線
  6
CONTINUOUS
 62
    6
 10
389.06357967667918
 20
-82.519556456109171
 11
397.20243498459888
 21
-82.519556456109171
  0
LINE
  8
_0-5_細線
  6
CONTINUOUS
 62
    6
 10
408.57861718717788
 20
-82.519556456109171
 11
412.97861718717752
 21
-82.519556456109171
  0
LINE
  8
_0-5_細線
  6
CONTINUOUS
 62
    6
 10
245.47667548587026
 20
-104.64381758361048
 11
262.29207469466212
 21
-104.64381758361048
  0
LINE
  8
_0-5_細線
  6
CONTINUOUS
 62
    6
 10
245.47667548587026
 20
-104.24381758361039
 11
262.29207469466212
 21
-104.24381758361039
  0
LINE
  8
_0-5_細線
  6
CONTINUOUS
 62
    6
 10
245.47667548587026
 20
-103.84381758361076
 11
262.29207469466212
 21
-103.84381758361076
  0
LINE
  8
_0-5_細線
  6
CONTINUOUS
 62
    6
 10
245.47667548587026
 20
-103.44381758361089
 11
262.29207469466212
 21
-103.44381758361089
  0
LINE
  8
_0-5_細線
  6
CONTINUOUS
 62
    6
 10
245.47667548587026
 20
-103.0438175836108
 11
262.29207469466212
 21
-103.0438175836108
  0
LINE
  8
_0-5_細線
  6
CONTINUOUS
 62
    6
 10
245.47667548587026
 20
-102.64381758361071
 11
262.29207469466212
 21
-102.64381758361071
  0
LINE
  8
_0-5_細線
  6
CONTINUOUS
 62
    6
 10
245.47667548587026
 20
-102.24381758361039
 11
262.29207469466212
 21
-102.24381758361039
  0
LINE
  8
_0-5_細線
  6
CONTINUOUS
 62
    6
 10
245.47667548587026
 20
-101.84381758361076
 11
262.29207469466212
 21
-101.84381758361076
  0
LINE
  8
_0-5_細線
  6
CONTINUOUS
 62
    6
 10
245.47667548587026
 20
-101.44381758361089
 11
262.29207469466212
 21
-101.44381758361089
  0
LINE
  8
_0-5_細線
  6
CONTINUOUS
 62
    6
 10
245.47667548587026
 20
-101.04381758361126
 11
262.29207469466212
 21
-101.04381758361126
  0
LINE
  8
_0-5_細線
  6
CONTINUOUS
 62
    6
 10
245.47667548587026
 20
-100.64381758361071
 11
262.29207469466212
 21
-100.64381758361071
  0
LINE
  8
_0-5_細線
  6
CONTINUOUS
 62
    6
 10
245.47667548587026
 20
-100.24381758361108
 11
262.29207469466212
 21
-100.24381758361108
  0
LINE
  8
_0-5_細線
  6
CONTINUOUS
 62
    6
 10
245.47667548587026
 20
-99.843817583610758
 11
262.29207469466212
 21
-99.843817583610758
  0
LINE
  8
_0-5_細線
  6
CONTINUOUS
 62
    6
 10
245.47667548587026
 20
-99.443817583610894
 11
262.29207469466212
 21
-99.443817583610894
  0
LINE
  8
_0-5_細線
  6
CONTINUOUS
 62
    6
 10
245.47667548587026
 20
-99.043817583611258
 11
262.29207469466212
 21
-99.043817583611258
  0
LINE
  8
_0-5_細線
  6
CONTINUOUS
 62
    6
 10
245.47667548587026
 20
-98.643817583610712
 11
262.29207469466212
 21
-98.643817583610712
  0
LINE
  8
_0-5_細線
  6
CONTINUOUS
 62
    6
 10
245.47667548587026
 20
-98.243817583611076
 11
262.29207469466212
 21
-98.243817583611076
  0
LINE
  8
_0-5_細線
  6
CONTINUOUS
 62
    6
 10
245.47667548587026
 20
-97.843817583610985
 11
262.29207469466212
 21
-97.843817583610985
  0
LINE
  8
_0-5_細線
  6
CONTINUOUS
 62
    6
 10
245.47667548587026
 20
-97.443817583611349
 11
262.29207469466212
 21
-97.443817583611349
  0
LINE
  8
_0-5_細線
  6
CONTINUOUS
 62
    6
 10
245.47667548587026
 20
-97.043817583611258
 11
262.29207469466212
 21
-97.043817583611258
  0
LINE
  8
_0-5_細線
  6
CONTINUOUS
 62
    6
 10
245.47667548587026
 20
-96.643817583611167
 11
262.29207469466212
 21
-96.643817583611167
  0
LINE
  8
_0-5_細線
  6
CONTINUOUS
 62
    6
 10
245.47667548587026
 20
-96.243817583611076
 11
262.29207469466212
 21
-96.243817583611076
  0
LINE
  8
_0-5_細線
  6
CONTINUOUS
 62
    6
 10
245.47667548587026
 20
-95.843817583610985
 11
262.29207469466212
 21
-95.843817583610985
  0
LINE
  8
_0-5_細線
  6
CONTINUOUS
 62
    6
 10
245.47667548587026
 20
-95.443817583611349
 11
262.29207469466212
 21
-95.443817583611349
  0
LINE
  8
_0-5_細線
  6
CONTINUOUS
 62
    6
 10
245.47667548587026
 20
-95.043817583611258
 11
262.29207469466212
 21
-95.043817583611258
  0
LINE
  8
_0-5_細線
  6
CONTINUOUS
 62
    6
 10
245.47667548587026
 20
-94.643817583611622
 11
262.29207469466212
 21
-94.643817583611622
  0
LINE
  8
_0-5_細線
  6
CONTINUOUS
 62
    6
 10
245.47667548587026
 20
-94.243817583611076
 11
262.29207469466212
 21
-94.243817583611076
  0
LINE
  8
_0-5_細線
  6
CONTINUOUS
 62
    6
 10
245.47667548587026
 20
-93.84381758361144
 11
262.29207469466212
 21
-93.84381758361144
  0
LINE
  8
_0-5_細線
  6
CONTINUOUS
 62
    6
 10
245.47667548587026
 20
-93.443817583611576
 11
262.29207469466212
 21
-93.443817583611576
  0
LINE
  8
_0-5_細線
  6
CONTINUOUS
 62
    6
 10
245.47667548587026
 20
-93.043817583611258
 11
262.29207469466212
 21
-93.043817583611258
  0
LINE
  8
_0-5_細線
  6
CONTINUOUS
 62
    6
 10
245.47667548587026
 20
-92.643817583611167
 11
262.29207469466212
 21
-92.643817583611167
  0
LINE
  8
_0-5_細線
  6
CONTINUOUS
 62
    6
 10
245.47667548587026
 20
-92.243817583611531
 11
262.29207469466212
 21
-92.243817583611531
  0
LINE
  8
_0-5_細線
  6
CONTINUOUS
 62
    6
 10
245.47667548587026
 20
-91.84381758361144
 11
262.29207469466212
 21
-91.84381758361144
  0
LINE
  8
_0-5_細線
  6
CONTINUOUS
 62
    6
 10
245.47667548587026
 20
-91.443817583611576
 11
262.29207469466212
 21
-91.443817583611576
  0
LINE
  8
_0-5_細線
  6
CONTINUOUS
 62
    6
 10
245.47667548587026
 20
-91.043817583611258
 11
262.29207469466212
 21
-91.043817583611258
  0
LINE
  8
_0-5_細線
  6
CONTINUOUS
 62
    6
 10
245.47667548587026
 20
-90.643817583611167
 11
262.29207469466212
 21
-90.643817583611167
  0
LINE
  8
_0-5_細線
  6
CONTINUOUS
 62
    6
 10
245.47667548587026
 20
-90.243817583611531
 11
262.29207469466212
 21
-90.243817583611531
  0
LINE
  8
_0-5_細線
  6
CONTINUOUS
 62
    6
 10
245.47667548587026
 20
-89.84381758361144
 11
262.29207469466212
 21
-89.84381758361144
  0
LINE
  8
_0-5_細線
  6
CONTINUOUS
 62
    6
 10
245.47667548587026
 20
-89.443817583611576
 11
262.29207469466212
 21
-89.443817583611576
  0
LINE
  8
_0-5_細線
  6
CONTINUOUS
 62
    6
 10
245.47667548587026
 20
-89.043817583611258
 11
262.29207469466212
 21
-89.043817583611258
  0
LINE
  8
_0-5_細線
  6
CONTINUOUS
 62
    6
 10
245.47667548587026
 20
-88.643817583611622
 11
262.29207469466212
 21
-88.643817583611622
  0
LINE
  8
_0-5_細線
  6
CONTINUOUS
 62
    6
 10
245.47667548587026
 20
-88.243817583611531
 11
262.29207469466212
 21
-88.243817583611531
  0
LINE
  8
_0-5_細線
  6
CONTINUOUS
 62
    6
 10
283.40132566153363
 20
-69.443817583611008
 11
289.25555670881755
 21
-69.443817583611008
  0
LINE
  8
_0-5_細線
  6
CONTINUOUS
 62
    6
 10
282.31213196439523
 20
-68.643817583611394
 11
290.34475040595595
 21
-68.643817583611394
  0
LINE
  8
_0-5_細線
  6
CONTINUOUS
 62
    6
 10
281.59415409785743
 20
-67.843817583611099
 11
291.06272827249364
 21
-67.843817583611099
  0
LINE
  8
_0-5_細線
  6
CONTINUOUS
 62
    6
 10
281.09239222691133
 20
-67.043817583611485
 11
291.56449014343991
 21
-67.043817583611485
  0
LINE
  8
_0-5_細線
  6
CONTINUOUS
 62
    6
 10
280.74821330796573
 20
-66.243817583610848
 11
291.90866906238546
 21
-66.243817583610848
  0
LINE
  8
_0-5_細線
  6
CONTINUOUS
 62
    6
 10
280.53347115680396
 20
-65.443817583611462
 11
292.12341121354723
 21
-65.443817583611462
  0
LINE
  8
_0-5_細線
  6
CONTINUOUS
 62
    6
 10
280.43400210261922
 20
-64.643817583611394
 11
292.22288026773197
 21
-64.643817583611394
  0
LINE
  8
_0-5_細線
  6
CONTINUOUS
 62
    6
 10
280.44395764231473
 20
-63.84381758361144
 11
292.21292472803646
 21
-63.84381758361144
  0
LINE
  8
_0-5_細線
  6
CONTINUOUS
 62
    6
 10
280.56390468738124
 20
-63.043817583611371
 11
292.09297768296983
 21
-63.043817583611371
  0
LINE
  8
_0-5_細線
  6
CONTINUOUS
 62
    6
 10
280.80099914544286
 20
-62.243817583611644
 11
291.85588322490821
 21
-62.243817583611644
  0
LINE
  8
_0-5_細線
  6
CONTINUOUS
 62
    6
 10
281.17137322258816
 20
-61.443817583611349
 11
291.48550914776303
 21
-61.443817583611349
  0
LINE
  8
_0-5_細線
  6
CONTINUOUS
 62
    6
 10
281.70696042258811
 20
-60.64381758361128
 11
290.94992194776302
 21
-60.64381758361128
  0
LINE
  8
_0-5_細線
  6
CONTINUOUS
 62
    6
 10
282.47606284093223
 20
-59.84381758361144
 11
290.18081952941895
 21
-59.84381758361144
  0
LINE
  8
_0-5_細線
  6
CONTINUOUS
 62
    6
 10
283.67447182299395
 20
-59.04381758361194
 11
288.98241054735723
 21
-59.04381758361194
  0
LINE
  8
_0-5_細線
  6
CONTINUOUS
 62
    6
 10
291.92128953787602
 20
-66.20686995454048
 11
291.92128953787602
 21
-62.427347127427083
  0
LINE
  8
_0-5_細線
  6
CONTINUOUS
 62
    6
 10
291.12128953787686
 20
-67.763810669762051
 11
291.12128953787686
 21
-60.870406412205398
  0
LINE
  8
_0-5_細線
  6
CONTINUOUS
 62
    6
 10
290.32128953787753
 20
-68.665477537381207
 11
290.32128953787753
 21
-59.968739544586128
  0
LINE
  8
_0-5_細線
  6
CONTINUOUS
 62
    6
 10
289.52128953787644
 20
-69.28267701731852
 11
289.52128953787644
 21
-59.351540064649043
  0
LINE
  8
_0-5_細線
  6
CONTINUOUS
 62
    6
 10
288.72128953787711
 20
-69.713906448769876
 11
288.72128953787711
 21
-58.920310633197687
  0
LINE
  8
_0-5_細線
  6
CONTINUOUS
 62
    6
 10
287.92128953787602
 20
-70.001647662304435
 11
287.92128953787602
 21
-58.6325694196629
  0
LINE
  8
_0-5_細線
  6
CONTINUOUS
 62
    6
 10
287.12128953787675
 20
-70.167112163725051
 11
287.12128953787675
 21
-58.467104918242285
  0
LINE
  8
_0-5_細線
  6
CONTINUOUS
 62
    6
 10
286.32128953787753
 20
-70.220590543197318
 11
286.32128953787753
 21
-58.413626538770018
  0
LINE
  8
_0-5_細線
  6
CONTINUOUS
 62
    6
 10
261.92128953787602
 20
-104.72606929355982
 11
261.92128953787602
 21
-87.886992450592174
  0
LINE
  8
_0-5_細線
  6
CONTINUOUS
 62
    6
 10
261.52128953787644
 20
-104.72606929355982
 11
261.52128953787644
 21
-87.886992450592174
  0
LINE
  8
_0-5_細線
  6
CONTINUOUS
 62
    6
 10
261.12128953787686
 20
-104.72606929355982
 11
261.12128953787686
 21
-87.886992450592174
  0
LINE
  8
_0-5_細線
  6
CONTINUOUS
 62
    6
 10
260.72128953787711
 20
-104.72606929355982
 11
260.72128953787711
 21
-87.886992450592174
  0
LINE
  8
_0-5_細線
  6
CONTINUOUS
 62
    6
 10
260.32128953787657
 20
-104.72606929355982
 11
260.32128953787657
 21
-87.886992450592174
  0
LINE
  8
_0-5_細線
  6
CONTINUOUS
 62
    6
 10
259.92128953787602
 20
-104.72606929355982
 11
259.92128953787602
 21
-87.886992450592174
  0
LINE
  8
_0-5_細線
  6
CONTINUOUS
 62
    6
 10
259.52128953787633
 20
-104.72606929355982
 11
259.52128953787633
 21
-87.886992450592174
  0
LINE
  8
_0-5_細線
  6
CONTINUOUS
 62
    6
 10
259.12128953787675
 20
-104.72606929355982
 11
259.12128953787675
 21
-87.886992450592174
  0
LINE
  8
_0-5_細線
  6
CONTINUOUS
 62
    6
 10
258.72128953787711
 20
-104.72606929355982
 11
258.72128953787711
 21
-87.886992450592174
  0
LINE
  8
_0-5_細線
  6
CONTINUOUS
 62
    6
 10
258.32128953787657
 20
-104.72606929355982
 11
258.32128953787657
 21
-87.886992450592174
  0
LINE
  8
_0-5_細線
  6
CONTINUOUS
 62
    6
 10
257.92128953787602
 20
-104.72606929355982
 11
257.92128953787602
 21
-87.886992450592174
  0
LINE
  8
_0-5_細線
  6
CONTINUOUS
 62
    6
 10
257.52128953787644
 20
-104.72606929355982
 11
257.52128953787644
 21
-87.886992450592174
  0
LINE
  8
_0-5_細線
  6
CONTINUOUS
 62
    6
 10
257.12128953787686
 20
-104.72606929355982
 11
257.12128953787686
 21
-87.886992450592174
  0
LINE
  8
_0-5_細線
  6
CONTINUOUS
 62
    6
 10
256.72128953787711
 20
-104.72606929355982
 11
256.72128953787711
 21
-87.886992450592174
  0
LINE
  8
_0-5_細線
  6
CONTINUOUS
 62
    6
 10
256.32128953787657
 20
-104.72606929355982
 11
256.32128953787657
 21
-87.886992450592174
  0
LINE
  8
_0-5_細線
  6
CONTINUOUS
 62
    6
 10
255.92128953787602
 20
-104.72606929355982
 11
255.92128953787602
 21
-87.886992450592174
  0
LINE
  8
_0-5_細線
  6
CONTINUOUS
 62
    6
 10
255.52128953787633
 20
-104.72606929355982
 11
255.52128953787633
 21
-87.886992450592174
  0
LINE
  8
_0-5_細線
  6
CONTINUOUS
 62
    6
 10
255.12128953787675
 20
-104.72606929355982
 11
255.12128953787675
 21
-87.886992450592174
  0
LINE
  8
_0-5_細線
  6
CONTINUOUS
 62
    6
 10
254.72128953787711
 20
-104.72606929355982
 11
254.72128953787711
 21
-87.886992450592174
  0
LINE
  8
_0-5_細線
  6
CONTINUOUS
 62
    6
 10
254.32128953787657
 20
-104.72606929355982
 11
254.32128953787657
 21
-87.886992450592174
  0
LINE
  8
_0-5_細線
  6
CONTINUOUS
 62
    6
 10
253.92128953787602
 20
-104.72606929355982
 11
253.92128953787602
 21
-87.886992450592174
  0
LINE
  8
_0-5_細線
  6
CONTINUOUS
 62
    6
 10
253.52128953787644
 20
-104.72606929355982
 11
253.52128953787644
 21
-87.886992450592174
  0
LINE
  8
_0-5_細線
  6
CONTINUOUS
 62
    6
 10
253.12128953787686
 20
-104.72606929355982
 11
253.12128953787686
 21
-87.886992450592174
  0
LINE
  8
_0-5_細線
  6
CONTINUOUS
 62
    6
 10
252.72128953787711
 20
-104.72606929355982
 11
252.72128953787711
 21
-87.886992450592174
  0
LINE
  8
_0-5_細線
  6
CONTINUOUS
 62
    6
 10
252.32128953787662
 20
-104.72606929355982
 11
252.32128953787662
 21
-87.886992450592174
  0
LINE
  8
_0-5_細線
  6
CONTINUOUS
 62
    6
 10
251.92128953787602
 20
-104.72606929355982
 11
251.92128953787602
 21
-87.886992450592174
  0
LINE
  8
_0-5_細線
  6
CONTINUOUS
 62
    6
 10
251.52128953787633
 20
-104.72606929355982
 11
251.52128953787633
 21
-87.886992450592174
  0
LINE
  8
_0-5_細線
  6
CONTINUOUS
 62
    6
 10
251.12128953787675
 20
-104.72606929355982
 11
251.12128953787675
 21
-87.886992450592174
  0
LINE
  8
_0-5_細線
  6
CONTINUOUS
 62
    6
 10
250.72128953787711
 20
-104.72606929355982
 11
250.72128953787711
 21
-87.886992450592174
  0
LINE
  8
_0-5_細線
  6
CONTINUOUS
 62
    6
 10
250.32128953787657
 20
-104.72606929355982
 11
250.32128953787657
 21
-87.886992450592174
  0
LINE
  8
_0-5_細線
  6
CONTINUOUS
 62
    6
 10
249.92128953787602
 20
-104.72606929355982
 11
249.92128953787602
 21
-87.886992450592174
  0
LINE
  8
_0-5_細線
  6
CONTINUOUS
 62
    6
 10
249.52128953787644
 20
-104.72606929355982
 11
249.52128953787644
 21
-87.886992450592174
  0
LINE
  8
_0-5_細線
  6
CONTINUOUS
 62
    6
 10
249.12128953787686
 20
-104.72606929355982
 11
249.12128953787686
 21
-87.886992450592174
  0
LINE
  8
_0-5_細線
  6
CONTINUOUS
 62
    6
 10
248.72128953787711
 20
-104.72606929355982
 11
248.72128953787711
 21
-87.886992450592174
  0
LINE
  8
_0-5_細線
  6
CONTINUOUS
 62
    6
 10
248.32128953787662
 20
-104.72606929355982
 11
248.32128953787662
 21
-87.886992450592174
  0
LINE
  8
_0-5_細線
  6
CONTINUOUS
 62
    6
 10
247.92128953787693
 20
-104.72606929355982
 11
247.92128953787693
 21
-87.886992450592174
  0
LINE
  8
_0-5_細線
  6
CONTINUOUS
 62
    6
 10
247.52128953787644
 20
-104.72606929355982
 11
247.52128953787644
 21
-87.886992450592174
  0
LINE
  8
_0-5_細線
  6
CONTINUOUS
 62
    6
 10
247.12128953787675
 20
-104.72606929355982
 11
247.12128953787675
 21
-87.886992450592174
  0
LINE
  8
_0-5_細線
  6
CONTINUOUS
 62
    6
 10
246.72128953787711
 20
-104.72606929355982
 11
246.72128953787711
 21
-87.886992450592174
  0
LINE
  8
_0-5_細線
  6
CONTINUOUS
 62
    6
 10
246.32128953787657
 20
-104.72606929355982
 11
246.32128953787657
 21
-87.886992450592174
  0
LINE
  8
_0-5_細線
  6
CONTINUOUS
 62
    6
 10
245.92128953787602
 20
-104.72606929355982
 11
245.92128953787602
 21
-87.886992450592174
  0
LINE
  8
_0-5_細線
  6
CONTINUOUS
 62
    6
 10
245.52128953787644
 20
-104.72606929355982
 11
245.52128953787644
 21
-87.886992450592174
  0
LINE
  8
_0-5_細線
  6
CONTINUOUS
 62
    6
 10
254.72027972781422
 20
-75.578458918828119
 11
231.95964616724734
 21
-105.21373282013758
  0
LINE
  8
_0-5_細線
  6
CONTINUOUS
 62
    6
 10
231.95964616724734
 20
-105.21373282013758
 11
229.73003308376354
 21
-106.14273827158979
  0
LINE
  8
_0-5_細線
  6
CONTINUOUS
 62
    6
 10
229.73003308376354
 20
-106.14273827158979
 11
227.68622109057026
 21
-106.8859426327507
  0
LINE
  8
_0-5_細線
  6
CONTINUOUS
 62
    6
 10
227.68622109057026
 20
-106.8859426327507
 11
226.57141454882833
 21
-105.86403663615431
  0
LINE
  8
_0-5_細線
  6
CONTINUOUS
 62
    6
 10
226.57141454882833
 20
-105.86403663615431
 11
225.64240909737612
 21
-104.56342900412176
  0
LINE
  8
_0-5_細線
  6
CONTINUOUS
 62
    6
 10
225.64240909737612
 20
-104.56342900412176
 11
224.89920473621453
 21
-102.05511428520219
  0
LINE
  8
_0-5_細線
  6
CONTINUOUS
 62
    6
 10
224.89920473621453
 20
-102.05511428520219
 11
225.64240909737612
 21
-99.732600656572572
  0
LINE
  8
_0-5_細線
  6
CONTINUOUS
 62
    6
 10
225.64240909737612
 20
-99.732600656572572
 11
228.42942545173094
 21
-95.737877215330286
  0
LINE
  8
_0-5_細線
  6
CONTINUOUS
 62
    6
 10
228.42942545173094
 20
-95.737877215330286
 11
249.42494865454051
 21
-67.310310400907724
  0
LINE
  8
_0-5_細線
  6
CONTINUOUS
 62
    6
 10
249.42494865454051
 20
-67.310310400907724
 11
249.42494865454051
 21
-65.26649840771438
  0
LINE
  8
_0-5_細線
  6
CONTINUOUS
 62
    6
 10
249.42494865454051
 20
-65.26649840771438
 11
249.98235192541063
 21
-63.965890775681828
  0
LINE
  8
_0-5_細線
  6
CONTINUOUS
 62
    6
 10
249.98235192541063
 20
-63.965890775681828
 11
251.46876064773375
 21
-62.293680963068596
  0
LINE
  8
_0-5_細線
  6
CONTINUOUS
 62
    6
 10
251.46876064773375
 20
-62.293680963068596
 11
251.93326337345945
 21
-61.829178237343399
  0
LINE
  8
_0-5_細線
  6
CONTINUOUS
 62
    6
 10
251.93326337345945
 20
-61.829178237343399
 11
252.76936827976635
 21
-60.621471150455591
  0
LINE
  8
_0-5_細線
  6
CONTINUOUS
 62
    6
 10
252.76936827976635
 20
-60.621471150455591
 11
254.16287645694325
 21
-60.435670060165421
  0
LINE
  8
_0-5_細線
  6
CONTINUOUS
 62
    6
 10
254.16287645694325
 20
-60.435670060165421
 11
256.57829063071864
 21
-59.971167334439428
  0
LINE
  8
_0-5_細線
  6
CONTINUOUS
 62
    6
 10
256.57829063071864
 20
-59.971167334439428
 11
257.50729608216994
 21
-60.064067879584741
  0
LINE
  8
_0-5_細線
  6
CONTINUOUS
 62
    6
 10
257.50729608216994
 20
-60.064067879584741
 11
259.45820753021792
 21
-60.714371695600903
  0
LINE
  8
_0-5_細線
  6
CONTINUOUS
 62
    6
 10
259.45820753021792
 20
-60.714371695600903
 11
260.20141189138042
 21
-61.64337714705232
  0
LINE
  8
_0-5_細線
  6
CONTINUOUS
 62
    6
 10
260.20141189138042
 20
-61.64337714705232
 11
262.24522388457365
 21
-64.337492956262622
  0
LINE
  8
_0-5_細線
  6
CONTINUOUS
 62
    6
 10
262.24522388457365
 20
-64.337492956262622
 11
268.56246095444573
 21
-74.835254557666985
  0
LINE
  8
_0-5_細線
  6
CONTINUOUS
 62
    6
 10
273.03791215758702
 20
-82.395825398096463
 11
282.02939888170391
 21
-97.917242859503062
  0
LINE
  8
_0-5_細線
  6
CONTINUOUS
 62
    6
 10
282.02939888170391
 20
-97.917242859503062
 11
282.89161581133806
 21
-100.13437210713357
  0
LINE
  8
_0-5_細線
  6
CONTINUOUS
 62
    6
 10
282.89161581133806
 20
-100.13437210713357
 11
282.52209427006625
 21
-101.24293673094837
  0
LINE
  8
_0-5_細線
  6
CONTINUOUS
 62
    6
 10
282.52209427006625
 20
-101.24293673094837
 11
281.41352964625105
 21
-102.78260981958067
  0
LINE
  8
_0-5_細線
  6
CONTINUOUS
 62
    6
 10
281.41352964625105
 20
-102.78260981958067
 11
277.10244499808243
 21
-104.0759352140318
  0
LINE
  8
_0-5_細線
  6
CONTINUOUS
 62
    6
 10
277.10244499808243
 20
-104.0759352140318
 11
274.51579420917926
 21
-104.99973906721118
  0
LINE
  8
_0-5_細線
  6
CONTINUOUS
 62
    6
 10
274.51579420917926
 20
-104.99973906721118
 11
272.23707803800346
 21
-104.0759352140318
  0
LINE
  8
_0-5_細線
  6
CONTINUOUS
 62
    6
 10
272.23707803800346
 20
-104.0759352140318
 11
268.72662339592262
 21
-100.31913287776922
  0
LINE
  8
_0-5_細線
  6
CONTINUOUS
 62
    6
 10
268.72662339592262
 20
-100.31913287776922
 11
268.60344954883215
 21
-98.286764400774814
  0
LINE
  8
_0-5_細線
  6
CONTINUOUS
 62
    6
 10
268.60344954883215
 20
-98.286764400774814
 11
254.72027972781422
 21
-75.578458918828119
  0
LINE
  8
_0-5_細線
  6
CONTINUOUS
 62
    6
 10
280.98131778942582
 20
-102.91227337662633
 11
282.19151098854223
 21
-101.7020801775094
  0
LINE
  8
_0-5_細線
  6
CONTINUOUS
 62
    6
 10
279.36507371814793
 20
-103.39714659801177
 11
282.81776088269095
 21
-99.944459433468296
  0
LINE
  8
_0-5_細線
  6
CONTINUOUS
 62
    6
 10
277.74882964686105
 20
-103.88201981939767
 11
282.50097704471875
 21
-99.129872421540654
  0
LINE
  8
_0-5_細線
  6
CONTINUOUS
 62
    6
 10
276.04637584913246
 20
-104.45310276722728
 11
282.18419320674644
 21
-98.315285409612784
  0
LINE
  8
_0-5_細線
  6
CONTINUOUS
 62
    6
 10
274.41089528865092
 20
-104.95721247780773
 11
281.81718899771573
 21
-97.550918768742463
  0
LINE
  8
_0-5_細線
  6
CONTINUOUS
 62
    6
 10
273.60588141468821
 20
-104.63085550187691
 11
281.40219508676006
 21
-96.834541829806199
  0
LINE
  8
_0-5_細線
  6
CONTINUOUS
 62
    6
 10
272.80086754072283
 20
-104.30449852594381
 11
280.98720117580075
 21
-96.118164890865614
  0
LINE
  8
_0-5_細線
  6
CONTINUOUS
 62
    6
 10
272.07331508876376
 20
-103.90068012800214
 11
280.57220726483962
 21
-95.40178795192503
  0
LINE
  8
_0-5_細線
  6
CONTINUOUS
 62
    6
 10
271.52680544092982
 20
-103.31581892593533
 11
280.15721335388025
 21
-94.6854110129849
  0
LINE
  8
_0-5_細線
  6
CONTINUOUS
 62
    6
 10
270.98029579309701
 20
-102.73095772386876
 11
279.74221944292105
 21
-93.969034074044089
  0
LINE
  8
_0-5_細線
  6
CONTINUOUS
 62
    6
 10
270.43378614526785
 20
-102.14609652180491
 11
279.32722553196356
 21
-93.252657135108507
  0
LINE
  8
_0-5_細線
  6
CONTINUOUS
 62
    6
 10
269.88727649743402
 20
-101.5612353197381
 11
278.91223162100425
 21
-92.536280196167922
  0
LINE
  8
_0-5_細線
  6
CONTINUOUS
 62
    6
 10
269.34076684960115
 20
-100.97637411767084
 11
278.49723771004483
 21
-91.819903257227566
  0
LINE
  8
_0-5_細線
  6
CONTINUOUS
 62
    6
 10
268.79425720176835
 20
-100.39151291560449
 11
278.08224379908563
 21
-91.103526318286981
  0
LINE
  8
_0-5_細線
  6
CONTINUOUS
 62
    6
 10
268.66997442413964
 20
-99.384424843339843
 11
277.66724988812814
 21
-90.387149379350944
  0
LINE
  8
_0-5_細線
  6
CONTINUOUS
 62
    6
 10
268.60532466128836
 20
-98.31770375629128
 11
277.25225597716872
 21
-89.670772440410587
  0
LINE
  8
_0-5_細線
  6
CONTINUOUS
 62
    6
 10
268.18664632671522
 20
-97.605011240963563
 11
276.83726206620946
 21
-88.954395501470231
  0
LINE
  8
_0-5_細線
  6
CONTINUOUS
 62
    6
 10
267.75739296894164
 20
-96.902893748837755
 11
276.42226815524833
 21
-88.238018562529874
  0
LINE
  8
_0-5_細線
  6
CONTINUOUS
 62
    6
 10
267.32813961116801
 20
-96.200776256711492
 11
276.00727424428902
 21
-87.521641623589517
  0
LINE
  8
_0-5_細線
  6
CONTINUOUS
 62
    6
 10
266.89888625339614
 20
-95.498658764590459
 11
275.59228033333335
 21
-86.805264684653253
  0
LINE
  8
_0-5_細線
  6
CONTINUOUS
 62
    6
 10
266.46963289562154
 20
-94.796541272464424
 11
275.17728642237404
 21
-86.088887745712896
  0
LINE
  8
_0-5_細線
  6
CONTINUOUS
 62
    6
 10
266.04037953784706
 20
-94.094423780338843
 11
274.76229251141297
 21
-85.372510806772311
  0
LINE
  8
_0-5_細線
  6
CONTINUOUS
 62
    6
 10
265.61112618007155
 20
-93.392306288213035
 11
274.34729860045366
 21
-84.656133867832182
  0
LINE
  8
_0-5_細線
  6
CONTINUOUS
 62
    6
 10
265.18187282230161
 20
-92.690188796091547
 11
273.93230468949616
 21
-83.939756928896145
  0
LINE
  8
_0-5_細線
  6
CONTINUOUS
 62
    6
 10
264.75261946452713
 20
-91.988071303965057
 11
273.51731077853685
 21
-83.223379989954879
  0
LINE
  8
_0-5_細線
  6
CONTINUOUS
 62
    6
 10
264.32336610675253
 20
-91.285953811839704
 11
273.10231686757743
 21
-82.507003051014976
  0
LINE
  8
_0-5_細線
  6
CONTINUOUS
 62
    6
 10
263.89411274897896
 20
-90.583836319714123
 11
272.08212367059525
 21
-82.39582539809669
  0
LINE
  8
_0-5_細線
  6
CONTINUOUS
 62
    6
 10
263.46485939120714
 20
-89.88171882759309
 11
270.95075282070417
 21
-82.395825398095553
  0
LINE
  8
_0-5_細線
  6
CONTINUOUS
 62
    6
 10
263.03560603343254
 20
-89.1796013354666
 11
269.81938197080223
 21
-82.395825398096463
  0
LINE
  8
_0-5_細線
  6
CONTINUOUS
 62
    6
 10
262.60635267565806
 20
-88.47748384334102
 11
268.68801112090392
 21
-82.395825398095553
  0
LINE
  8
_0-5_細線
  6
CONTINUOUS
 62
    6
 10
262.17709931788443
 20
-87.775366351215439
 11
267.55664027100386
 21
-82.395825398094644
  0
LINE
  8
_0-5_細線
  6
CONTINUOUS
 62
    6
 10
261.74784596010983
 20
-87.073248859089176
 11
266.42526942110374
 21
-82.395825398096008
  0
LINE
  8
_0-5_細線
  6
CONTINUOUS
 62
    6
 10
261.31859260233892
 20
-86.371131366967916
 11
265.29389857121083
 21
-82.395825398094644
  0
LINE
  8
_0-5_細線
  6
CONTINUOUS
 62
    6
 10
260.88933924456342
 20
-85.66901387484188
 11
264.24494969072396
 21
-82.313403428682818
  0
LINE
  8
_0-5_細線
  6
CONTINUOUS
 62
    6
 10
260.46008588678984
 20
-84.9668963827163
 11
265.79043101278432
 21
-79.636551256721987
  0
LINE
  8
_0-5_細線
  6
CONTINUOUS
 62
    6
 10
260.03083252901536
 20
-84.264778890590947
 11
267.33591233485106
 21
-76.959699084754789
  0
LINE
  8
_0-5_細線
  6
CONTINUOUS
 62
    6
 10
259.60157917124354
 20
-83.562661398469231
 11
268.47474661144503
 21
-74.689493958268258
  0
LINE
  8
_0-5_細線
  6
CONTINUOUS
 62
    6
 10
259.17232581346991
 20
-82.860543906342969
 11
268.04970120927294
 21
-73.983168510540736
  0
LINE
  8
_0-5_細線
  6
CONTINUOUS
 62
    6
 10
258.74307245569531
 20
-82.158426414217615
 11
267.62465580709983
 21
-73.276843062812873
  0
LINE
  8
_0-5_細線
  6
CONTINUOUS
 62
    6
 10
258.31381909792083
 20
-81.456308922091807
 11
267.19961040492774
 21
-72.570517615085691
  0
LINE
  8
_0-5_細線
  6
CONTINUOUS
 62
    6
 10
257.88456574014623
 20
-80.754191429965772
 11
266.77456500275463
 21
-71.864192167358169
  0
LINE
  8
_0-5_細線
  6
CONTINUOUS
 62
    6
 10
257.45531238237623
 20
-80.052073937844284
 11
266.34951960058521
 21
-71.15786671963474
  0
LINE
  8
_0-5_細線
  6
CONTINUOUS
 62
    6
 10
230.59273728084656
 20
-105.7832781894723
 11
234.59956591970615
 21
-101.77644955061317
  0
LINE
  8
_0-5_細線
  6
CONTINUOUS
 62
    6
 10
257.02605902460084
 20
-79.349956445718931
 11
265.92447419841307
 21
-70.451541271906763
  0
LINE
  8
_0-5_細線
  6
CONTINUOUS
 62
    6
 10
228.74297678601135
 20
-106.5016678344092
 11
238.34532076058633
 21
-96.899323859832862
  0
LINE
  8
_0-5_細線
  6
CONTINUOUS
 62
    6
 10
256.59680566682727
 20
-78.647838953593009
 11
265.49942879624092
 21
-69.74521582417924
  0
LINE
  8
_0-5_細線
  6
CONTINUOUS
 62
    6
 10
227.44680024562973
 20
-106.66647352488974
 11
242.09107560147555
 21
-92.022198169043918
  0
LINE
  8
_0-5_細線
  6
CONTINUOUS
 62
    6
 10
256.16755230905176
 20
-77.945721461467087
 11
265.07438339406792
 21
-69.038890376451832
  0
LINE
  8
_0-5_細線
  6
CONTINUOUS
 62
    6
 10
226.85651980220712
 20
-106.12538311841865
 11
245.83683044233396
 21
-87.145072478292263
  0
LINE
  8
_0-5_細線
  6
CONTINUOUS
 62
    6
 10
255.73829895128176
 20
-77.243603969345486
 11
264.64933799189845
 21
-68.332564928728402
  0
LINE
  8
_0-5_細線
  6
CONTINUOUS
 62
    6
 10
226.32769825122085
 20
-105.52283381950531
 11
249.58258528322682
 21
-82.267946787499909
  0
LINE
  8
_0-5_細線
  6
CONTINUOUS
 62
    6
 10
255.30904559350716
 20
-76.541486477219451
 11
264.22429258972545
 21
-67.626239481000766
  0
LINE
  8
_0-5_細線
  6
CONTINUOUS
 62
    6
 10
225.85629373042963
 20
-104.86286749039721
 11
253.32834012411064
 21
-77.390821096716309
  0
LINE
  8
_0-5_細線
  6
CONTINUOUS
 62
    6
 10
254.87979223573262
 20
-75.839368985094325
 11
263.79924718755416
 21
-66.91991403327313
  0
LINE
  8
_0-5_細線
  6
CONTINUOUS
 62
    6
 10
225.50114104467247
 20
-104.08664932625345
 11
263.37420178538116
 21
-66.213588585545494
  0
LINE
  8
_0-5_細線
  6
CONTINUOUS
 62
    6
 10
225.24254199326896
 20
-103.21387752775775
 11
262.94915638320805
 21
-65.5072631378182
  0
LINE
  8
_0-5_細線
  6
CONTINUOUS
 62
    6
 10
224.98394294186352
 20
-102.34110572926932
 11
262.52411098103875
 21
-64.800937690094315
  0
LINE
  8
_0-5_細線
  6
CONTINUOUS
 62
    6
 10
225.25715353630142
 20
-100.93652428493181
 11
262.07740313102022
 21
-64.116274690213459
  0
LINE
  8
_0-5_細線
  6
CONTINUOUS
 62
    6
 10
226.36403090340451
 20
-98.698276067928532
 11
261.58936080361133
 21
-63.472946167721943
  0
LINE
  8
_0-5_細線
  6
CONTINUOUS
 62
    6
 10
229.09716094314183
 20
-94.833775178290921
 11
261.10131847620335
 21
-62.82961764522986
  0
LINE
  8
_0-5_細線
  6
CONTINUOUS
 62
    6
 10
232.29328359407754
 20
-90.506281677461971
 11
260.61327614879804
 21
-62.1862891227413
  0
LINE
  8
_0-5_細線
  6
CONTINUOUS
 62
    6
 10
235.48940624504763
 20
-86.178788176592548
 11
260.12292539502693
 21
-61.545269026612345
  0
LINE
  8
_0-5_細線
  6
CONTINUOUS
 62
    6
 10
238.68552889601244
 20
-81.851294675727672
 11
259.62009390618283
 21
-60.916729665557114
  0
LINE
  8
_0-5_細線
  6
CONTINUOUS
 62
    6
 10
241.88165154698714
 20
-77.523801174853133
 11
258.88286265223462
 21
-60.522590069606167
  0
LINE
  8
_0-5_細線
  6
CONTINUOUS
 62
    6
 10
245.07777419794735
 20
-73.196307673992351
 11
258.03433451480942
 21
-60.239747357130227
  0
LINE
  8
_0-5_細線
  6
CONTINUOUS
 62
    6
 10
248.27389684889664
 20
-68.868814173150781
 11
257.11761159152695
 21
-60.025099430519958
  0
LINE
  8
_0-5_細線
  6
CONTINUOUS
 62
    6
 10
249.42494865454051
 20
-66.586391517605421
 11
255.91204955365635
 21
-60.099290618490841
  0
LINE
  8
_0-5_細線
  6
CONTINUOUS
 62
    6
 10
249.42494865454051
 20
-65.455020667706208
 11
254.51130469187683
 21
-60.368664630370176
  0
LINE
  8
_0-5_細線
  6
CONTINUOUS
 62
    6
 10
251.96441043498004
 20
-61.784188037366448
 11
253.18216717452663
 21
-60.566431297819577
  0
LINE
  8
_0-5_細線
  6
CONTINUOUS
 62
    6
 10
225.61038022280366
 20
-104.45533155244732
 11
227.94638591309752
 21
-106.79133724274118
  0
LINE
  8
_0-5_細線
  6
CONTINUOUS
 62
    6
 10
225.13401354916374
 20
-102.84759402890711
 11
228.77605786968996
 21
-106.48963834943436
  0
LINE
  8
_0-5_細線
  6
CONTINUOUS
 62
    6
 10
225.03828350449214
 20
-101.62049313433556
 11
229.60572982628327
 21
-106.18793945612708
  0
LINE
  8
_0-5_細線
  6
CONTINUOUS
 62
    6
 10
225.31255522567983
 20
-100.76339400562358
 11
230.40899760697465
 21
-105.85983638691789
  0
LINE
  8
_0-5_細線
  6
CONTINUOUS
 62
    6
 10
225.58682694686576
 20
-99.906294876916149
 11
231.20761232454527
 21
-105.52708025459663
  0
LINE
  8
_0-5_細線
  6
CONTINUOUS
 62
    6
 10
226.01313285588742
 20
-99.201229936038203
 11
231.98831185044133
 21
-105.17640893059172
  0
LINE
  8
_0-5_細線
  6
CONTINUOUS
 62
    6
 10
226.47807978050434
 20
-98.534806010754551
 11
232.47977613807524
 21
-104.53650236832539
  0
LINE
  8
_0-5_細線
  6
CONTINUOUS
 62
    6
 10
226.94302670512036
 20
-97.868382085471126
 11
232.97124042570891
 21
-103.89659580605905
  0
LINE
  8
_0-5_細線
  6
CONTINUOUS
 62
    6
 10
227.40797362973456
 20
-97.201958160191793
 11
233.46270471334003
 21
-103.2566892437975
  0
LINE
  8
_0-5_細線
  6
CONTINUOUS
 62
    6
 10
227.87292055435051
 20
-96.535534234908141
 11
233.95416900097285
 21
-102.61678268153094
  0
LINE
  8
_0-5_細線
  6
CONTINUOUS
 62
    6
 10
228.33786747896653
 20
-95.869110309624034
 11
234.44563328860755
 21
-101.9768761192646
  0
LINE
  8
_0-5_細線
  6
CONTINUOUS
 62
    6
 10
228.81540107376452
 20
-95.215273054521845
 11
234.93709757624146
 21
-101.33696955699804
  0
LINE
  8
_0-5_細線
  6
CONTINUOUS
 62
    6
 10
229.29602102127603
 20
-94.564522152140512
 11
235.42856186387235
 21
-100.69706299473648
  0
LINE
  8
_0-5_細線
  6
CONTINUOUS
 62
    6
 10
229.77664096879033
 20
-93.913771249754404
 11
235.92002615150625
 21
-100.05715643247015
  0
LINE
  8
_0-5_細線
  6
CONTINUOUS
 62
    6
 10
230.25726091630452
 20
-93.263020347367842
 11
236.41149043914004
 21
-99.417249870204273
  0
LINE
  8
_0-5_細線
  6
CONTINUOUS
 62
    6
 10
230.73788086381785
 20
-92.612269444981962
 11
236.90295472677371
 21
-98.77734330793794
  0
LINE
  8
_0-5_細線
  6
CONTINUOUS
 62
    6
 10
231.21850081133215
 20
-91.961518542595627
 11
237.39441901440756
 21
-98.137436745671607
  0
LINE
  8
_0-5_細線
  6
CONTINUOUS
 62
    6
 10
231.69912075884275
 20
-91.31076764021384
 11
237.88588330203953
 21
-97.49753018340914
  0
LINE
  8
_0-5_細線
  6
CONTINUOUS
 62
    6
 10
232.17974070635694
 20
-90.660016737827505
 11
238.37734758967241
 21
-96.857623621142807
  0
LINE
  8
_0-5_細線
  6
CONTINUOUS
 62
    6
 10
232.66036065387112
 20
-90.00926583544117
 11
238.86881187730717
 21
-96.217717058877156
  0
LINE
  8
_0-5_細線
  6
CONTINUOUS
 62
    6
 10
233.14098060138446
 20
-89.358514933055289
 11
239.36027616494096
 21
-95.577810496610823
  0
LINE
  8
_0-5_細線
  6
CONTINUOUS
 62
    6
 10
233.62160054889603
 20
-88.707764030673502
 11
239.85174045257105
 21
-94.937903934349038
  0
LINE
  8
_0-5_細線
  6
CONTINUOUS
 62
    6
 10
234.10222049640936
 20
-88.057013128287167
 11
240.34320474020484
 21
-94.297997372082705
  0
LINE
  8
_0-5_細線
  6
CONTINUOUS
 62
    6
 10
234.58284044392354
 20
-87.406262225900832
 11
240.83466902783863
 21
-93.658090809816372
  0
LINE
  8
_0-5_細線
  6
CONTINUOUS
 62
    6
 10
235.06346039143784
 20
-86.755511323514497
 11
241.32613331547242
 21
-93.018184247550039
  0
LINE
  8
_0-5_細線
  6
CONTINUOUS
 62
    6
 10
235.54408033895112
 20
-86.104760421128617
 11
241.81759760310626
 21
-92.378277685283706
  0
LINE
  8
_0-5_細線
  6
CONTINUOUS
 62
    6
 10
236.02470028646263
 20
-85.45400951874683
 11
242.30906189073823
 21
-91.738371123021921
  0
LINE
  8
_0-5_細線
  6
CONTINUOUS
 62
    6
 10
236.50532023397602
 20
-84.803258616360495
 11
242.80052617837106
 21
-91.098464560755588
  0
LINE
  8
_0-5_細線
  6
CONTINUOUS
 62
    6
 10
236.98594018149112
 20
-84.15250771397416
 11
243.29199046600576
 21
-90.458557998489255
  0
LINE
  8
_0-5_細線
  6
CONTINUOUS
 62
    6
 10
237.46656012900445
 20
-83.501756811588734
 11
243.78345475363955
 21
-89.818651436223377
  0
LINE
  8
_0-5_細線
  6
CONTINUOUS
 62
    6
 10
237.94718007651602
 20
-82.85100590920581
 11
244.27491904126964
 21
-89.178744873961136
  0
LINE
  8
_0-5_細線
  6
CONTINUOUS
 62
    6
 10
238.42780002402924
 20
-82.200255006820612
 11
244.76638332890354
 21
-88.538838311694803
  0
LINE
  8
_0-5_細線
  6
CONTINUOUS
 62
    6
 10
238.90841997154263
 20
-81.549504104433822
 11
245.25784761653733
 21
-87.898931749428471
  0
LINE
  8
_0-5_細線
  6
CONTINUOUS
 62
    6
 10
239.38903991905772
 20
-80.898753202047487
 11
245.74931190417192
 21
-87.259025187162592
  0
LINE
  8
_0-5_細線
  6
CONTINUOUS
 62
    6
 10
239.86965986657111
 20
-80.248002299662289
 11
246.24077619180576
 21
-86.619118624896487
  0
LINE
  8
_0-5_細線
  6
CONTINUOUS
 62
    6
 10
240.35027981408263
 20
-79.597251397280047
 11
246.73224047943683
 21
-85.979212062634019
  0
LINE
  8
_0-5_細線
  6
CONTINUOUS
 62
    6
 10
240.83089976159602
 20
-78.94650049489394
 11
247.22370476707061
 21
-85.339305500368141
  0
LINE
  8
_0-5_細線
  6
CONTINUOUS
 62
    6
 10
241.31151970910923
 20
-78.295749592507718
 11
247.71516905470446
 21
-84.699398938101808
  0
LINE
  8
_0-5_細線
  6
CONTINUOUS
 62
    6
 10
241.79213965662456
 20
-77.644998690121383
 11
248.20663334233825
 21
-84.05949237583593
  0
LINE
  8
_0-5_細線
  6
CONTINUOUS
 62
    6
 10
242.27275960413516
 20
-76.994247787739369
 11
248.69809762996834
 21
-83.419585813573235
  0
LINE
  8
_0-5_細線
  6
CONTINUOUS
 62
    6
 10
242.75337955164923
 20
-76.343496885353261
 11
249.18956191760213
 21
-82.779679251306902
  0
LINE
  8
_0-5_細線
  6
CONTINUOUS
 62
    6
 10
243.23399949916262
 20
-75.69274598296704
 11
249.68102620523683
 21
-82.139772689041251
  0
LINE
  8
_0-5_細線
  6
CONTINUOUS
 62
    6
 10
243.71461944667595
 20
-75.041995080581046
 11
250.17249049287153
 21
-81.499866126775601
  0
LINE
  8
_0-5_細線
  6
CONTINUOUS
 62
    6
 10
268.70951798638015
 20
-100.03689362028365
 11
273.09729699521006
 21
-104.42467262911498
  0
LINE
  8
_0-5_細線
  6
CONTINUOUS
 62
    6
 10
244.19523939419116
 20
-74.391244178194825
 11
250.66395478050532
 21
-80.859959564509381
  0
LINE
  8
_0-5_細線
  6
CONTINUOUS
 62
    6
 10
268.63652631864085
 20
-98.832531102645248
 11
274.72796057951473
 21
-104.92396536351941
  0
LINE
  8
_0-5_細線
  6
CONTINUOUS
 62
    6
 10
244.67585934170177
 20
-73.740493275812469
 11
251.15541906813553
 21
-80.220053002246686
  0
LINE
  8
_0-5_細線
  6
CONTINUOUS
 62
    6
 10
267.63017813666471
 20
-96.694812070775129
 11
275.56160225838454
 21
-104.62623619249473
  0
LINE
  8
_0-5_細線
  6
CONTINUOUS
 62
    6
 10
245.15647928921595
 20
-73.089742373427157
 11
251.64688335576926
 21
-79.580146439980695
  0
LINE
  8
_0-5_細線
  6
CONTINUOUS
 62
    6
 10
265.85037392252264
 20
-93.783637006734011
 11
276.39524393725793
 21
-104.32850702146845
  0
LINE
  8
_0-5_細線
  6
CONTINUOUS
 62
    6
 10
245.63709923672934
 20
-72.438991471040708
 11
252.13834764340305
 21
-78.940239877714589
  0
LINE
  8
_0-5_細線
  6
CONTINUOUS
 62
    6
 10
264.07056970838227
 20
-90.872461942693121
 11
277.23444344549631
 21
-104.03633567980694
  0
LINE
  8
_0-5_細線
  6
CONTINUOUS
 62
    6
 10
246.11771918424353
 20
-71.788240568654714
 11
252.62981193103684
 21
-78.300333315448142
  0
LINE
  8
_0-5_細線
  6
CONTINUOUS
 62
    6
 10
262.29076549422734
 20
-87.961286878638589
 11
278.10472871464941
 21
-103.7752500990606
  0
LINE
  8
_0-5_細線
  6
CONTINUOUS
 62
    6
 10
246.59833913175413
 20
-71.137489666272586
 11
253.12127621866796
 21
-77.660426753185902
  0
LINE
  8
_0-5_細線
  6
CONTINUOUS
 62
    6
 10
260.51096128009624
 20
-85.050111814614525
 11
278.97501398379893
 21
-103.51416451831722
  0
LINE
  8
_0-5_細線
  6
CONTINUOUS
 62
    6
 10
247.07895907926832
 20
-70.486738763886365
 11
253.61274050630254
 21
-77.020520190919569
  0
LINE
  8
_0-5_細線
  6
CONTINUOUS
 62
    6
 10
258.73115706595581
 20
-82.138936750574089
 11
279.84529925295192
 21
-103.25307893757065
  0
LINE
  8
_0-5_細線
  6
CONTINUOUS
 62
    6
 10
247.55957902678261
 20
-69.835987861500371
 11
254.10420479393554
 21
-76.380613628653691
  0
LINE
  8
_0-5_細線
  6
CONTINUOUS
 62
    6
 10
256.95135285181465
 20
-79.227761686532517
 11
280.71558452210502
 21
-102.99199335682385
  0
LINE
  8
_0-5_細線
  6
CONTINUOUS
 62
    6
 10
248.04019897429595
 20
-69.18523695911415
 11
254.59566908157024
 21
-75.740707066387358
  0
LINE
  8
_0-5_細線
  6
CONTINUOUS
 62
    6
 10
255.17154863767342
 20
-76.316586622491627
 11
281.50731474841916
 21
-102.65235273323708
  0
LINE
  8
_0-5_細線
  6
CONTINUOUS
 62
    6
 10
248.52081892181025
 20
-68.534486056728156
 11
281.98091184837813
 21
-101.9945789832949
  0
LINE
  8
_0-5_細線
  6
CONTINUOUS
 62
    6
 10
249.00143886932085
 20
-67.883735154345914
 11
282.45450894833186
 21
-101.33680523335681
  0
LINE
  8
_0-5_細線
  6
CONTINUOUS
 62
    6
 10
249.42494865454233
 20
-67.175874089666991
 11
264.36117311598082
 21
-82.11209855110576
  0
LINE
  8
_0-5_細線
  6
CONTINUOUS
 62
    6
 10
264.64489996297306
 20
-82.395825398097827
 11
282.76457352650601
 21
-100.51549896162999
  0
LINE
  8
_0-5_細線
  6
CONTINUOUS
 62
    6
 10
249.42494865454051
 20
-66.04450323976539
 11
264.77528358814664
 21
-81.394838173370431
  0
LINE
  8
_0-5_細線
  6
CONTINUOUS
 62
    6
 10
265.77627081287312
 20
-82.395825398097372
 11
282.49503290461246
 21
-99.114587489836254
  0
LINE
  8
_0-5_細線
  6
CONTINUOUS
 62
    6
 10
249.53095845989543
 20
-65.019142195219843
 11
265.18939406031046
 21
-80.677577795635329
  0
LINE
  8
_0-5_細線
  6
CONTINUOUS
 62
    6
 10
266.90764166277131
 20
-82.395825398096463
 11
281.47908067635501
 21
-96.967264411679594
  0
LINE
  8
_0-5_細線
  6
CONTINUOUS
 62
    6
 10
249.87036971486214
 20
-64.22718260029319
 11
265.60350453247253
 21
-79.960317417904434
  0
LINE
  8
_0-5_細線
  6
CONTINUOUS
 62
    6
 10
268.03901251266603
 20
-82.395825398097372
 11
279.92122250203386
 21
-94.278035387464683
  0
LINE
  8
_0-5_細線
  6
CONTINUOUS
 62
    6
 10
250.33910336764086
 20
-63.564545403172701
 11
266.01761500463732
 21
-79.243057040168651
  0
LINE
  8
_0-5_細線
  6
CONTINUOUS
 62
    6
 10
269.17038336256707
 20
-82.395825398098282
 11
278.36336432769991
 21
-91.588806363230674
  0
LINE
  8
_0-5_細線
  6
CONTINUOUS
 62
    6
 10
250.87151317935883
 20
-62.965584364990036
 11
266.43172547680211
 21
-78.525796662433322
  0
LINE
  8
_0-5_細線
  6
CONTINUOUS
 62
    6
 10
270.30175421246634
 20
-82.3958253980976
 11
276.80550615336603
 21
-88.899577338997574
  0
LINE
  8
_0-5_細線
  6
CONTINUOUS
 62
    6
 10
251.40392299107685
 20
-62.366623326807712
 11
266.84583594896606
 21
-77.808536284698107
  0
LINE
  8
_0-5_細線
  6
CONTINUOUS
 62
    6
 10
271.43312506236555
 20
-82.39582539809669
 11
275.24764797903032
 21
-86.210348314761745
  0
LINE
  8
_0-5_細線
  6
CONTINUOUS
 62
    6
 10
251.95968466447727
 20
-61.791014150316414
 11
267.25994642112903
 21
-77.091275906967439
  0
LINE
  8
_0-5_細線
  6
CONTINUOUS
 62
    6
 10
272.56449591225925
 20
-82.395825398097372
 11
273.68978980469643
 21
-83.521119290533875
  0
LINE
  8
_0-5_細線
  6
CONTINUOUS
 62
    6
 10
252.42251819398285
 20
-61.12247682992097
 11
267.67405689329382
 21
-76.374015529231428
  0
LINE
  8
_0-5_細線
  6
CONTINUOUS
 62
    6
 10
253.01952864857606
 20
-60.588116434613994
 11
268.08816736545765
 21
-75.6567551514961
  0
LINE
  8
_0-5_細線
  6
CONTINUOUS
 62
    6
 10
254.01779704554525
 20
-60.455013981684033
 11
268.50227783762347
 21
-74.939494773761226
  0
LINE
  8
_0-5_細線
  6
CONTINUOUS
 62
    6
 10
254.97386469699467
 20
-60.279710783232304
 11
267.10129581767524
 21
-72.407141903913612
  0
LINE
  8
_0-5_細線
  6
CONTINUOUS
 62
    6
 10
255.92275637755046
 20
-60.097231613894792
 11
265.39166875560215
 21
-69.566143991947456
  0
LINE
  8
_0-5_細線
  6
CONTINUOUS
 62
    6
 10
256.96692653880297
 20
-60.010030925247747
 11
263.68204169353265
 21
-66.725146079976867
  0
LINE
  8
_0-5_細線
  6
CONTINUOUS
 62
    6
 10
258.47485347347452
 20
-60.386587010019184
 11
261.67782648840245
 21
-63.589560024947104
  0
LINE
  8
_0-5_細線
  6
CONTINUOUS
 62
    6
 10
285.52128953787644
 20
-70.165155831723268
 11
285.52128953787644
 21
-58.469061250244181
  0
LINE
  8
_0-5_細線
  6
CONTINUOUS
 62
    6
 10
284.72128953787711
 20
-69.997620355867866
 11
284.72128953787711
 21
-58.63659672609981
  0
LINE
  8
_0-5_細線
  6
CONTINUOUS
 62
    6
 10
283.92128953787602
 20
-69.707541904214622
 11
283.92128953787602
 21
-58.926675177753054
  0
LINE
  8
_0-5_細線
  6
CONTINUOUS
 62
    6
 10
283.12128953787675
 20
-69.273450862469645
 11
283.12128953787675
 21
-59.360766219497805
  0
LINE
  8
_0-5_細線
  6
CONTINUOUS
 62
    6
 10
282.32128953787753
 20
-68.652300182888894
 11
282.32128953787753
 21
-59.981916899078556
  0
LINE
  8
_0-5_細線
  6
CONTINUOUS
 62
    6
 10
281.52128953787644
 20
-67.743833498780759
 11
281.52128953787644
 21
-60.890383583186804
  0
LINE
  8
_0-5_細線
  6
CONTINUOUS
 62
    6
 10
280.72128953787711
 20
-66.163998169706588
 11
280.72128953787711
 21
-62.470218912260748
  0
LINE
  8
_0-5_細線
  6
CONTINUOUS
 62
    6
 10
264.28512509710816
 20
-82.243817583610962
 11
281.30960159188464
 21
-82.243817583610962
  0
LINE
  8
_0-5_細線
  6
CONTINUOUS
 62
    6
 10
264.74700531245895
 20
-81.443817583611008
 11
280.84772137653187
 21
-81.443817583611008
  0
LINE
  8
_0-5_細線
  6
CONTINUOUS
 62
    6
 10
265.20888552781173
 20
-80.643817583611053
 11
280.38584116118102
 21
-80.643817583611053
  0
LINE
  8
_0-5_細線
  6
CONTINUOUS
 62
    6
 10
265.67076574316263
 20
-79.843817583610985
 11
279.92396094582824
 21
-79.843817583610985
  0
LINE
  8
_0-5_細線
  6
CONTINUOUS
 62
    6
 10
266.13264595851535
 20
-79.04381758361103
 11
279.46208073047734
 21
-79.04381758361103
  0
LINE
  8
_0-5_細線
  6
CONTINUOUS
 62
    6
 10
266.59452617386626
 20
-78.243817583610962
 11
279.00020051512462
 21
-78.243817583610962
  0
LINE
  8
_0-5_細線
  6
CONTINUOUS
 62
    6
 10
267.05640638921801
 20
-77.443817583611121
 11
278.53832029977372
 21
-77.443817583611121
  0
LINE
  8
_0-5_細線
  6
CONTINUOUS
 62
    6
 10
267.51828660456982
 20
-76.643817583611053
 11
278.07644008442105
 21
-76.643817583611053
  0
LINE
  8
_0-5_細線
  6
CONTINUOUS
 62
    6
 10
267.98016681992164
 20
-75.843817583611099
 11
277.61455986907015
 21
-75.843817583611099
  0
LINE
  8
_0-5_細線
  6
CONTINUOUS
 62
    6
 10
268.44204703527345
 20
-75.04381758361103
 11
277.15267965371743
 21
-75.04381758361103
  0
LINE
  8
_0-5_細線
  6
CONTINUOUS
 62
    6
 10
268.90392725062446
 20
-74.243817583611076
 11
276.69079943836641
 21
-74.243817583611076
  0
LINE
  8
_0-5_細線
  6
CONTINUOUS
 62
    6
 10
269.36580746597701
 20
-73.443817583611008
 11
276.22891922301557
 21
-73.443817583611008
  0
LINE
  8
_0-5_細線
  6
CONTINUOUS
 62
    6
 10
269.82768768132803
 20
-72.643817583611053
 11
275.76703900766285
 21
-72.643817583611053
  0
LINE
  8
_0-5_細線
  6
CONTINUOUS
 62
    6
 10
270.28956789668075
 20
-71.843817583611099
 11
275.30515879231194
 21
-71.843817583611099
  0
LINE
  8
_0-5_細線
  6
CONTINUOUS
 62
    6
 10
270.75144811203165
 20
-71.04381758361103
 11
274.84327857695922
 21
-71.04381758361103
  0
LINE
  8
_0-5_細線
  6
CONTINUOUS
 62
    6
 10
271.21332832738335
 20
-70.243817583611076
 11
274.38139836160832
 21
-70.243817583611076
  0
LINE
  8
_0-5_細線
  6
CONTINUOUS
 62
    6
 10
271.67520854273522
 20
-69.443817583611008
 11
273.91951814625565
 21
-69.443817583611008
  0
LINE
  8
_0-5_細線
  6
CONTINUOUS
 62
    6
 10
272.13708875808703
 20
-68.643817583611053
 11
273.45763793090475
 21
-68.643817583611053
  0
LINE
  8
_0-5_細線
  6
CONTINUOUS
 62
    6
 10
272.59896897343884
 20
-67.843817583610985
 11
272.99575771555283
 21
-67.843817583610985
  0
LINE
  8
_0-5_細線
  6
CONTINUOUS
 62
    6
 10
280.72128953787711
 20
-82.395825398096463
 11
280.72128953787711
 21
-81.224831215365725
  0
LINE
  8
_0-5_細線
  6
CONTINUOUS
 62
    6
 10
279.92128953787602
 20
-82.395825398096463
 11
279.92128953787602
 21
-79.839190569310631
  0
LINE
  8
_0-5_細線
  6
CONTINUOUS
 62
    6
 10
279.12128953787675
 20
-82.395825398096463
 11
279.12128953787675
 21
-78.453549923255537
  0
LINE
  8
_0-5_細線
  6
CONTINUOUS
 62
    6
 10
278.32128953787753
 20
-82.395825398096463
 11
278.32128953787753
 21
-77.06790927720067
  0
LINE
  8
_0-5_細線
  6
CONTINUOUS
 62
    6
 10
277.52128953787644
 20
-82.395825398096463
 11
277.52128953787644
 21
-75.682268631145575
  0
LINE
  8
_0-5_細線
  6
CONTINUOUS
 62
    6
 10
276.72128953787711
 20
-82.395825398096463
 11
276.72128953787711
 21
-74.296627985090481
  0
LINE
  8
_0-5_細線
  6
CONTINUOUS
 62
    6
 10
275.92128953787602
 20
-82.395825398096463
 11
275.92128953787602
 21
-72.910987339035501
  0
LINE
  8
_0-5_細線
  6
CONTINUOUS
 62
    6
 10
275.12128953787675
 20
-82.395825398096463
 11
275.12128953787675
 21
-71.525346692980406
  0
LINE
  8
_0-5_細線
  6
CONTINUOUS
 62
    6
 10
274.32128953787662
 20
-82.395825398096463
 11
274.32128953787662
 21
-70.139706046925426
  0
LINE
  8
_0-5_細線
  6
CONTINUOUS
 62
    6
 10
273.52128953787644
 20
-82.395825398096463
 11
273.52128953787644
 21
-68.754065400870331
  0
LINE
  8
_0-5_細線
  6
CONTINUOUS
 62
    6
 10
272.72128953787711
 20
-82.395825398096463
 11
272.72128953787711
 21
-67.631952151193786
  0
LINE
  8
_0-5_細線
  6
CONTINUOUS
 62
    6
 10
271.92128953787602
 20
-82.395825398096463
 11
271.92128953787602
 21
-69.017592797248881
  0
LINE
  8
_0-5_細線
  6
CONTINUOUS
 62
    6
 10
271.12128953787675
 20
-82.395825398096463
 11
271.12128953787675
 21
-70.403233443304089
  0
LINE
  8
_0-5_細線
  6
CONTINUOUS
 62
    6
 10
270.32128953787662
 20
-82.395825398096463
 11
270.32128953787662
 21
-71.788874089358956
  0
LINE
  8
_0-5_細線
  6
CONTINUOUS
 62
    6
 10
269.52128953787644
 20
-82.395825398096463
 11
269.52128953787644
 21
-73.174514735414164
  0
LINE
  8
_0-5_細線
  6
CONTINUOUS
 62
    6
 10
268.72128953787711
 20
-82.395825398096463
 11
268.72128953787711
 21
-74.560155381469258
  0
LINE
  8
_0-5_細線
  6
CONTINUOUS
 62
    6
 10
267.92128953787602
 20
-82.395825398096463
 11
267.92128953787602
 21
-75.945796027524239
  0
LINE
  8
_0-5_細線
  6
CONTINUOUS
 62
    6
 10
267.12128953787675
 20
-82.395825398096463
 11
267.12128953787675
 21
-77.331436673579333
  0
LINE
  8
_0-5_細線
  6
CONTINUOUS
 62
    6
 10
266.32128953787662
 20
-82.395825398096463
 11
266.32128953787662
 21
-78.717077319634313
  0
LINE
  8
_0-5_細線
  6
CONTINUOUS
 62
    6
 10
265.52128953787644
 20
-82.395825398096463
 11
265.52128953787644
 21
-80.102717965689408
  0
LINE
  8
_0-5_細線
  6
CONTINUOUS
 62
    6
 10
264.72128953787711
 20
-82.395825398096463
 11
264.72128953787711
 21
-81.488358611744502
  0
LINE
  8
_0-4_図面枠
  6
CONTINUOUS
 62
    4
 10
788.72513876546066
 20
-73.649784586660644
 11
788.72513876546066
 21
-118.64978458216024
  0
LINE
  8
_0-4_図面枠
  6
CONTINUOUS
 62
    4
 10
848.72513876546077
 20
-73.649784586660644
 11
848.72513876546077
 21
-118.64978458216024
  0
LINE
  8
_0-4_図面枠
  6
CONTINUOUS
 62
    4
 10
968.72513876546066
 20
-85.64978458666053
 11
708.72513876546066
 21
-85.64978458666053
  0
LINE
  8
_0-4_図面枠
  6
CONTINUOUS
 62
    4
 10
888.72513876546066
 20
-46.649784589360593
 11
888.72513876546066
 21
-118.64978458216024
  0
LINE
  8
_0-4_図面枠
  6
CONTINUOUS
 62
    4
 10
928.72513876546066
 20
-46.649784589360593
 11
928.72513876546066
 21
-118.64978458216024
  0
LINE
  8
_0-4_図面枠
  6
CONTINUOUS
 62
    4
 10
968.72513876546066
 20
-60.149784588010561
 11
928.72513876546066
 21
-60.149784588010561
  0
LINE
  8
_0-4_図面枠
  6
CONTINUOUS
 62
    4
 10
968.72513876546066
 20
-73.649784586660644
 11
708.72513876546066
 21
-73.649784586660644
  0
CIRCLE
  8
_0-6__0-0_
  6
CONTINUOUS
 62
    2
 10
898.72513876546066
 20
-60.149784588010561
 40
8
  0
CIRCLE
  8
_0-6__0-0_
  6
CONTINUOUS
 62
    2
 10
898.72513876546066
 20
-60.149784588010561
 40
4
  0
LINE
  8
ADD_LINE
  6
DOT
 62
    4
 10
898.72513876546066
 20
-50.149784588010561
 11
898.72513876546066
 21
-70.149784588010561
  0
LINE
  8
_0-6__0-0_
  6
CONTINUOUS
 62
    2
 10
910.72513876546066
 20
-56.149784588010675
 11
924.72513876546066
 21
-52.149784588010675
  0
LINE
  8
_0-6__0-0_
  6
CONTINUOUS
 62
    2
 10
924.72513876546066
 20
-52.149784588010675
 11
924.72513876546066
 21
-68.149784588010561
  0
LINE
  8
_0-6__0-0_
  6
CONTINUOUS
 62
    2
 10
910.72513876546066
 20
-64.149784588010561
 11
924.72513876546066
 21
-68.149784588010561
  0
LINE
  8
_0-6__0-0_
  6
CONTINUOUS
 62
    2
 10
910.72513876546066
 20
-56.149784588010675
 11
910.72513876546066
 21
-64.149784588010561
  0
LINE
  8
ADD_LINE
  6
DOT
 62
    4
 10
888.72513876546066
 20
-60.149784588010561
 11
926.72513876546066
 21
-60.149784588010561
  0
LINE
  8
_0-4_図面枠
  6
CONTINUOUS
 62
    4
 10
708.72513876546066
 20
-82.649784585760472
 11
438.93891096169602
 21
-82.649784585760472
  0
LINE
  8
_0-4_図面枠
  6
CONTINUOUS
 62
    4
 10
438.93891096169602
 20
-118.64978458216024
 11
438.93891096169602
 21
-46.649784589360593
  0
TEXT
  8
_0-8_文字
 62
    7
 10
442.93891096169602
 20
-56.30519910150872
 40
8
 41
1
 50
0
  1
品番
  0
TEXT
  8
_0-8_文字
 62
    7
 10
442.93891096169602
 20
-92.289762972268704
 40
8
 41
1
 50
0
  1
名称
  0
TEXT
  8
_0-8_文字
 62
    7
 10
900.08808836343167
 20
-83.858812619479068
 40
8
 41
1
 50
0
  1
検図
  0
LINE
  8
_0-4_図面枠
  6
CONTINUOUS
 62
    4
 10
198.93891096169602
 20
-46.649784589360593
 11
198.93891096169602
 21
-118.64978458216024
  0
TEXT
  8
_0-8_文字
 62
    7
 10
940.19180543212667
 20
-57.399784588685634
 40
8
 41
1
 50
0
  1
単位
  0
TEXT
  8
_0-8_文字
 62
    7
 10
937.29656733688864
 20
-69.566451254002288
 40
8
 41
1
 50
0
  1
mm
  0
TEXT
  8
_0-8_文字
 62
    7
 10
797.35371019403203
 20
-106.14978458441044
 40
8
 41
1
 50
0
  1
S=1：4
  0
TEXT
  8
_0-8_文字
 62
    7
 10
722.05847209879403
 20
-106.14978458441044
 40
8
 41
1
 50
0
  1
08.02.15
  0
TEXT
  8
_0-8_文字
 62
    7
 10
860.45847209879378
 20
-106.14978458441044
 40
8
 41
1
 50
0
  1
竹内
  0
TEXT
  8
_0-8_文字
 62
    7
 10
739.65847209879394
 20
-83.649784586660644
 40
8
 41
1
 50
0
  1
日付
  0
TEXT
  8
_0-8_文字
 62
    7
 10
800.43942447974621
 20
-83.649784586660644
 40
8
 41
1
 50
0
  1
SCALE
  0
TEXT
  8
_0-8_文字
 62
    7
 10
860.45847209879378
 20
-83.649784586660644
 40
8
 41
1
 50
0
  1
製図
  0
TEXT
  8
_0-8_文字
 62
    7
 10
510.21297724453075
 20
-72.649784587560475
 40
16
 41
1
 50
0
  1
GS-33297
  0
TEXT
  8
_0-8_文字
 62
    7
 10
503.05107248262595
 20
-108.64978458396035
 40
16
 41
1
 50
0
  1
タオルバー340
  0
LINE
  8
_0-4_図面枠
  6
CONTINUOUS
 62
    4
 10
968.72513876546066
 20
-118.64978458216024
 11
968.72513876546066
 21
651.13644322160496
  0
LINE
  8
_0-2_寸法線
  6
CONTINUOUS
 62
    1
 10
79.73217578429751
 20
369.10059744920278
 11
79.73217578429751
 21
521.4359774040588
  0
LINE
  8
_0-2_寸法線
  6
CONTINUOUS
 62
    1
 10
419.69817578429729
 20
369.10059744920278
 11
419.69817578429729
 21
521.4359774040588
  0
LINE
  8
_0-2_寸法線
  6
CONTINUOUS
 62
    1
 10
87.73217578429751
 20
521.4359774040588
 11
411.69817578429729
 21
521.4359774040588
  0
LINE
  8
_0-1_0
  6
CONTINUOUS
 62
    7
 10
411.69817578429729
 20
523.57957092405866
 11
419.69817578429729
 21
521.4359774040588
  0
LINE
  8
_0-1_0
  6
CONTINUOUS
 62
    7
 10
419.69817578429729
 20
521.4359774040588
 11
411.69817578429729
 21
519.29238388405884
  0
LINE
  8
_0-1_0
  6
CONTINUOUS
 62
    7
 10
419.69817578429729
 20
521.4359774040588
 11
411.69817578429729
 21
521.4359774040588
  0
LINE
  8
_0-1_0
  6
CONTINUOUS
 62
    7
 10
87.73217578429751
 20
519.29238388405884
 11
79.73217578429751
 21
521.4359774040588
  0
LINE
  8
_0-1_0
  6
CONTINUOUS
 62
    7
 10
79.73217578429751
 20
521.4359774040588
 11
87.73217578429751
 21
523.57957092405866
  0
LINE
  8
_0-1_0
  6
CONTINUOUS
 62
    7
 10
79.73217578429751
 20
521.4359774040588
 11
87.73217578429751
 21
521.4359774040588
  0
LINE
  8
_0-1_0
  6
CONTINUOUS
 62
    7
 10
47.829691981274948
 20
423.5785974492029
 11
49.973285501274972
 21
431.5785974492029
  0
LINE
  8
_0-1_0
  6
CONTINUOUS
 62
    7
 10
49.973285501274972
 20
431.5785974492029
 11
52.11687902127494
 21
423.5785974492029
  0
LINE
  8
_0-1_0
  6
CONTINUOUS
 62
    7
 10
49.973285501274972
 20
431.5785974492029
 11
49.973285501274972
 21
423.5785974492029
  0
LINE
  8
_0-1_0
  6
CONTINUOUS
 62
    7
 10
22.630309359038449
 20
431.57779744920288
 11
24.773902879038474
 21
439.57779744920276
  0
LINE
  8
_0-1_0
  6
CONTINUOUS
 62
    7
 10
24.773902879038474
 20
439.57779744920276
 11
26.917496399038441
 21
431.57779744920288
  0
LINE
  8
_0-1_0
  6
CONTINUOUS
 62
    7
 10
24.773902879038474
 20
439.57779744920276
 11
24.773902879038474
 21
431.57779744920288
  0
LINE
  8
_0-2_寸法線
  6
CONTINUOUS
 62
    1
 10
49.973285501274972
 20
357.58679744920266
 11
49.973285501274972
 21
423.5785974492029
  0
LINE
  8
_0-2_寸法線
  6
CONTINUOUS
 62
    1
 10
24.773902879038474
 20
349.5875974492028
 11
24.773902879038474
 21
431.57779744920288
  0
LINE
  8
_0-2_寸法線
  6
CONTINUOUS
 62
    1
 10
103.67538943892453
 20
431.57859744920268
 11
49.973285501274972
 21
431.5785974492029
  0
LINE
  8
_0-2_寸法線
  6
CONTINUOUS
 62
    1
 10
103.67538943892453
 20
439.57779744920265
 11
24.773902879038474
 21
439.57779744920276
  0
LINE
  8
_0-1_0
  6
CONTINUOUS
 62
    7
 10
52.11687902127494
 20
357.58679744920266
 11
49.973285501274972
 21
349.58679744920278
  0
LINE
  8
_0-1_0
  6
CONTINUOUS
 62
    7
 10
49.973285501274972
 20
349.58679744920278
 11
47.829691981274948
 21
357.58679744920266
  0
LINE
  8
_0-1_0
  6
CONTINUOUS
 62
    7
 10
49.973285501274972
 20
349.58679744920278
 11
49.973285501274972
 21
357.58679744920266
  0
LINE
  8
_0-1_0
  6
CONTINUOUS
 62
    7
 10
26.917496399038441
 20
349.5875974492028
 11
24.773902879038474
 21
341.5875974492028
  0
LINE
  8
_0-1_0
  6
CONTINUOUS
 62
    7
 10
24.773902879038474
 20
341.5875974492028
 11
22.630309359038449
 21
349.5875974492028
  0
LINE
  8
_0-1_0
  6
CONTINUOUS
 62
    7
 10
24.773902879038474
 20
341.5875974492028
 11
24.773902879038474
 21
349.5875974492028
  0
LINE
  8
_0-2_寸法線
  6
CONTINUOUS
 62
    1
 10
92.215175784297458
 20
341.5875974492028
 11
24.773902879038474
 21
341.5875974492028
  0
LINE
  8
_0-2_寸法線
  6
CONTINUOUS
 62
    1
 10
92.215175784297458
 20
349.58679744920278
 11
49.973285501274972
 21
349.58679744920278
  0
LINE
  8
_0-2_寸法線
  6
CONTINUOUS
 62
    1
 10
235.46580078429753
 20
252.34241992422091
 11
227.46580078429764
 21
252.34241992422091
  0
LINE
  8
_0-2_寸法線
  6
CONTINUOUS
 62
    1
 10
266.46430078444894
 20
252.34241992422091
 11
274.46430078444894
 21
252.34241992422091
  0
LINE
  8
_0-2_寸法線
  6
CONTINUOUS
 62
    1
 10
243.46580078429753
 20
252.34241992422091
 11
258.46430078444882
 21
252.34241992422091
  0
LINE
  8
_0-2_寸法線
  6
CONTINUOUS
 62
    1
 10
232.71767578429746
 20
279.04251320388209
 11
266.71267578429763
 21
279.04251320388209
  0
LINE
  8
_0-1_0
  6
CONTINUOUS
 62
    7
 10
266.46430078444894
 20
250.19882640422077
 11
258.46430078444882
 21
252.34241992422091
  0
LINE
  8
_0-1_0
  6
CONTINUOUS
 62
    7
 10
258.46430078444882
 20
252.34241992422091
 11
266.46430078444894
 21
254.48601344422087
  0
LINE
  8
_0-1_0
  6
CONTINUOUS
 62
    7
 10
258.46430078444882
 20
252.34241992422091
 11
266.46430078444894
 21
252.34241992422091
  0
LINE
  8
_0-1_0
  6
CONTINUOUS
 62
    7
 10
235.46580078429753
 20
254.48601344422087
 11
243.46580078429753
 21
252.34241992422091
  0
LINE
  8
_0-1_0
  6
CONTINUOUS
 62
    7
 10
243.46580078429753
 20
252.34241992422091
 11
235.46580078429753
 21
250.19882640422077
  0
LINE
  8
_0-1_0
  6
CONTINUOUS
 62
    7
 10
243.46580078429753
 20
252.34241992422091
 11
235.46580078429753
 21
252.34241992422091
  0
LINE
  8
_0-1_0
  6
CONTINUOUS
 62
    7
 10
266.71267578429763
 20
281.18610672388218
 11
274.71267578429763
 21
279.04251320388209
  0
LINE
  8
_0-1_0
  6
CONTINUOUS
 62
    7
 10
274.71267578429763
 20
279.04251320388209
 11
266.71267578429763
 21
276.89891968388218
  0
LINE
  8
_0-1_0
  6
CONTINUOUS
 62
    7
 10
274.71267578429763
 20
279.04251320388209
 11
266.71267578429763
 21
279.04251320388209
  0
LINE
  8
_0-1_0
  6
CONTINUOUS
 62
    7
 10
232.71767578429746
 20
276.89891968388218
 11
224.71767578429751
 21
279.04251320388209
  0
LINE
  8
_0-1_0
  6
CONTINUOUS
 62
    7
 10
224.71767578429751
 20
279.04251320388209
 11
232.71767578429746
 21
281.18610672388218
  0
LINE
  8
_0-1_0
  6
CONTINUOUS
 62
    7
 10
224.71767578429751
 20
279.04251320388209
 11
232.71767578429746
 21
279.04251320388209
  0
LINE
  8
_0-2_寸法線
  6
CONTINUOUS
 62
    1
 10
274.71267578429763
 20
186.07211331535689
 11
274.71267578429763
 21
279.04251320388209
  0
LINE
  8
_0-2_寸法線
  6
CONTINUOUS
 62
    1
 10
243.46580078429753
 20
232.25234331535688
 11
243.46580078429753
 21
252.34241992422091
  0
LINE
  8
_0-2_寸法線
  6
CONTINUOUS
 62
    1
 10
258.46430078444882
 20
232.25234331535688
 11
258.46430078444882
 21
252.34241992422091
  0
LINE
  8
_0-2_寸法線
  6
CONTINUOUS
 62
    1
 10
224.71767578429751
 20
185.07221331535686
 11
224.71767578429751
 21
279.04251320388209
  0
LINE
  8
_0-2_寸法線
  6
CONTINUOUS
 62
    1
 10
454.64743616601993
 20
102.06396331535689
 11
454.64743616601993
 21
94.063963315356887
  0
LINE
  8
_0-2_寸法線
  6
CONTINUOUS
 62
    1
 10
454.64743616602004
 20
126.06316331535686
 11
454.64743616602004
 21
162.0631633153568
  0
LINE
  8
_0-2_寸法線
  6
CONTINUOUS
 62
    1
 10
454.64743616601993
 20
110.06396331535689
 11
454.64743616602004
 21
118.06316331535686
  0
LINE
  8
_0-2_寸法線
  6
CONTINUOUS
 62
    1
 10
451.63296647493371
 20
145.41133588407018
 11
451.63296647493371
 21
151.72383323332519
  0
LINE
  8
_0-2_寸法線
  6
CONTINUOUS
 62
    1
 10
451.63296647493371
 20
151.72383323332519
 11
445.32046912567887
 21
151.72383323332519
  0
LINE
  8
_0-2_寸法線
  6
CONTINUOUS
 62
    1
 10
445.32046912567887
 20
151.72383323332519
 11
445.32046912567887
 21
145.41133588407018
  0
LINE
  8
_0-2_寸法線
  6
CONTINUOUS
 62
    1
 10
445.32046912567887
 20
145.41133588407018
 11
451.63296647493371
 21
145.41133588407018
  0
LINE
  8
_0-1_0
  6
CONTINUOUS
 62
    7
 10
456.7910296860199
 20
126.06316331535686
 11
454.64743616602004
 21
118.06316331535686
  0
LINE
  8
_0-1_0
  6
CONTINUOUS
 62
    7
 10
454.64743616602004
 20
118.06316331535686
 11
452.50384264602008
 21
126.06316331535686
  0
LINE
  8
_0-1_0
  6
CONTINUOUS
 62
    7
 10
454.64743616602004
 20
118.06316331535686
 11
454.64743616602004
 21
126.06316331535686
  0
LINE
  8
_0-1_0
  6
CONTINUOUS
 62
    7
 10
452.50384264601996
 20
102.06396331535689
 11
454.64743616601993
 21
110.06396331535689
  0
LINE
  8
_0-1_0
  6
CONTINUOUS
 62
    7
 10
454.64743616601993
 20
110.06396331535689
 11
456.79102968601978
 21
102.06396331535689
  0
LINE
  8
_0-1_0
  6
CONTINUOUS
 62
    7
 10
454.64743616601993
 20
110.06396331535689
 11
454.64743616601993
 21
102.06396331535689
  0
LINE
  8
_0-2_寸法線
  6
CONTINUOUS
 62
    1
 10
425.69817578429729
 20
110.06396331535689
 11
454.64743616601993
 21
110.06396331535689
  0
LINE
  8
_0-2_寸法線
  6
CONTINUOUS
 62
    1
 10
425.6513728241523
 20
118.06316331535686
 11
454.64743616602004
 21
118.06316331535686
  0
LINE
  8
_0-2_寸法線
  6
CONTINUOUS
 62
    1
 10
723.34320819096979
 20
469.45071517229974
 11
723.34320819096979
 21
349.5875974492028
  0
LINE
  8
_0-1_0
  6
CONTINUOUS
 62
    7
 10
725.48680171096976
 20
349.5875974492028
 11
723.34320819096979
 21
341.5875974492028
  0
LINE
  8
_0-1_0
  6
CONTINUOUS
 62
    7
 10
723.34320819096979
 20
341.5875974492028
 11
721.19961467096982
 21
349.5875974492028
  0
LINE
  8
_0-1_0
  6
CONTINUOUS
 62
    7
 10
723.34320819096979
 20
341.5875974492028
 11
723.34320819096979
 21
349.5875974492028
  0
LINE
  8
_0-1_0
  6
CONTINUOUS
 62
    7
 10
721.19961467096982
 20
469.45071517229974
 11
723.34320819096979
 21
477.45071517229974
  0
LINE
  8
_0-1_0
  6
CONTINUOUS
 62
    7
 10
723.34320819096979
 20
477.45071517229974
 11
725.48680171096976
 21
469.45071517229974
  0
LINE
  8
_0-1_0
  6
CONTINUOUS
 62
    7
 10
723.34320819096979
 20
477.45071517229974
 11
723.34320819096979
 21
469.45071517229974
  0
LINE
  8
_0-2_寸法線
  6
CONTINUOUS
 62
    1
 10
614.15014059583518
 20
477.45071517229974
 11
723.34320819096979
 21
477.45071517229974
  0
LINE
  8
_0-2_寸法線
  6
CONTINUOUS
 62
    1
 10
681.64339059583574
 20
341.5875974492028
 11
723.34320819096979
 21
341.5875974492028
  0
LINE
  8
_0-2_寸法線
  6
CONTINUOUS
 62
    1
 10
675.12829059583555
 20
448.89261744920282
 11
675.12829059583555
 21
521.4359774040588
  0
LINE
  8
_0-2_寸法線
  6
CONTINUOUS
 62
    1
 10
667.12829059583555
 20
521.4359774040588
 11
613.13529059583573
 21
521.4359774040588
  0
LINE
  8
_0-2_寸法線
  6
CONTINUOUS
 62
    1
 10
605.13529059583573
 20
484.46576517229983
 11
605.13529059583573
 21
521.4359774040588
  0
LINE
  8
_0-2_寸法線
  6
CONTINUOUS
 62
    1
 10
599.12014059583555
 20
477.45071517229985
 11
514.89853873984259
 21
477.45071517229985
  0
LINE
  8
_0-2_寸法線
  6
CONTINUOUS
 62
    1
 10
598.12024059583564
 20
453.45311517230004
 11
514.89853873984259
 21
453.45311517230004
  0
LINE
  8
_0-2_寸法線
  6
CONTINUOUS
 62
    1
 10
514.89853873984259
 20
469.45071517229985
 11
514.89853873984259
 21
461.45311517230004
  0
ENDSEC
  0
EOF
