  0
SECTION
  2
HEADER
  9
$ACADVER
  1
AC1009
  9
$INSBASE
 10
0
 20
0
 30
0
  9
$EXTMIN
 10
0
 20
0
  9
$EXTMAX
 10
420
 20
297
  9
$LIMMIN
 10
0
 20
0
  9
$LIMMAX
 10
420
 20
297
  9
$LTSCALE
 40
1
  0
ENDSEC
  0
SECTION
  2
TABLES
  0
TABLE
  2
LTYPE
 70
     9
  0
LTYPE
  2
CONTINUOUS
 70
    64
  3
実線
 72
    65
 73
     0
 40
0.0
  0
LTYPE
  2
DASHED1
 70
    64
  3
--  --  --  --  --  --  --  --  
 72
    65
 73
     2
 40
2.5
 49
1.25
 49
-1.25
  0
LTYPE
  2
DASHED2
 70
    64
  3
----    ----    ----    ----    
 72
    65
 73
     2
 40
5.0
 49
2.5
 49
-2.5
  0
LTYPE
  2
DASHED3
 70
    64
  3
------  ------  ------  ------  
 72
    65
 73
     2
 40
5.0
 49
3.75
 49
-1.25
  0
LTYPE
  2
CENTER1
 70
    64
  3
----- - ----- - ----- - ----- - 
 72
    65
 73
     4
 40
10.0
 49
6.25
 49
-1.25
 49
1.25
 49
-1.25
  0
LTYPE
  2
CENTER2
 70
    64
  3
----------  --  ----------  --  
 72
    65
 73
     4
 40
20.0
 49
12.5
 49
-2.5
 49
2.5
 49
-2.5
  0
LTYPE
  2
PHANTOM1
 70
    64
  3
--- - - --- - - --- - - --- - - 
 72
    65
 73
     6
 40
10.0
 49
3.25
 49
-1.25
 49
1.25
 49
-1.25
 49
1.25
 49
-1.25
  0
LTYPE
  2
PHANTOM2
 70
    64
  3
--------  -  -  --------  -  -  
 72
    65
 73
     6
 40
20.0
 49
10.0
 49
-2.5
 49
1.25
 49
-2.5
 49
1.25
 49
-2.5
  0
LTYPE
  2
DOT
 70
    64
  3
-   -   -   -   -   -   -   -   
 72
    65
 73
     2
 40
2.5
 49
0.625
 49
-1.875
  0
LTYPE
  2
DUMMY
 70
    64
  3
ダミー
 72
    65
 73
     0
 40
0.0
  0
LTYPE
  2
RAND1
 70
    64
  3
ランダム線1
 72
    65
 73
     4
 40
10.0
 49
1.0
 49
-2.0
 49
3.0
 49
-4.0
  0
LTYPE
  2
RAND2
 70
    64
  3
ランダム線2
 72
    65
 73
     4
 40
14.0
 49
2.0
 49
-3.0
 49
4.0
 49
-5.0
  0
LTYPE
  2
RAND3
 70
    64
  3
ランダム線3
 72
    65
 73
     4
 40
18.0
 49
3.0
 49
-4.0
 49
5.0
 49
-6.0
  0
LTYPE
  2
RAND4
 70
    64
  3
ランダム線4
 72
    65
 73
     4
 40
22.0
 49
4.0
 49
-5.0
 49
6.0
 49
-7.0
  0
LTYPE
  2
RAND5
 70
    64
  3
ランダム線5
 72
    65
 73
     4
 40
26.0
 49
5.0
 49
-6.0
 49
7.0
 49
-8.0
  0
LTYPE
  2
LONG1
 70
    64
  3
----------  --  ----------  --  
 72
    65
 73
     4
 40
40.0
 49
32.5
 49
-2.5
 49
2.5
 49
-2.5
  0
LTYPE
  2
LONG2
 70
    64
  3
--------  -  -  --------  -  -  
 72
    65
 73
     6
 40
40.0
 49
30.0
 49
-2.5
 49
1.25
 49
-2.5
 49
1.25
 49
-2.5
  0
LTYPE
  2
LONG3
 70
    64
  3
+++++++++++++++..+++++++++++++++
 72
    65
 73
     2
 40
40.0
 49
37.5
 49
-2.5
  0
LTYPE
  2
LONG4
 70
    64
  3
+++++++++++++++..+++++++++++++++
 72
    65
 73
     2
 40
80.0
 49
75.0
 49
-5.0
  0
LTYPE
  2
LONG5
 70
    64
  3
----------  --  ----------  --  
 72
    65
 73
     4
 40
60.0
 49
37.5
 49
-7.5
 49
7.5
 49
-7.5
  0
LTYPE
  2
dashed
 70
   64
  3
-------   -------------   ------
 72
   65
 73
    2
 40
7.5
 49
6
 49
-1.5
  0
LTYPE
  2
dashed_spaced
 70
   64
  3
----        --------        ----
 72
   65
 73
    2
 40
12
 49
6
 49
-6
  0
LTYPE
  2
long_dashed_dotted
 70
   64
  3
------------- --- --------------
 72
   65
 73
    4
 40
15.25
 49
12
 49
-1.5
 49
0.25
 49
-1.5
  0
LTYPE
  2
long_dashed_double-dotted
 70
   64
  3
----------- --- --- ------------
 72
   65
 73
    6
 40
17
 49
12
 49
-1.5
 49
0.25
 49
-1.5
 49
0.25
 49
-1.5
  0
LTYPE
  2
long_dashed_triplicate-dotted
 70
   64
  3
--------- --- --- --- ----------
 72
   65
 73
    8
 40
18.75
 49
12
 49
-1.5
 49
0.25
 49
-1.5
 49
0.25
 49
-1.5
 49
0.25
 49
-1.5
  0
LTYPE
  2
dotted
 70
   64
  3
   -       -       -       -    
 72
   65
 73
    2
 40
1.75
 49
0.25
 49
-1.5
  0
LTYPE
  2
chain
 70
   64
  3
-------------- -- --------------
 72
   65
 73
    4
 40
18.5
 49
12
 49
-1.5
 49
3.5
 49
-1.5
  0
LTYPE
  2
chain_double_dash
 70
   64
  3
------------ -- -- -------------
 72
   65
 73
    6
 40
23.5
 49
12
 49
-1.5
 49
3.5
 49
-1.5
 49
3.5
 49
-1.5
  0
LTYPE
  2
dashed_dotted
 70
   64
  3
-----------     -     ----------
 72
   65
 73
    4
 40
9.25
 49
6
 49
-1.5
 49
0.25
 49
-1.5
  0
LTYPE
  2
double-dashed_dotted
 70
   64
  3
------   -----------   -   -----
 72
   65
 73
    6
 40
16.75
 49
6
 49
-1.5
 49
6
 49
-1.5
 49
0.25
 49
-1.5
  0
LTYPE
  2
dashed_double-dotted
 70
   64
  3
---------    -    -    ---------
 72
   65
 73
    6
 40
11
 49
6
 49
-1.5
 49
0.25
 49
-1.5
 49
0.25
 49
-1.5
  0
LTYPE
  2
double-dashed_double-dotted
 70
   64
  3
-----   ---------   -   -   ----
 72
   65
 73
    8
 40
18.5
 49
6
 49
-1.5
 49
6
 49
-1.5
 49
0.25
 49
-1.5
 49
0.25
 49
-1.5
  0
LTYPE
  2
dashed_triplicate-dotted
 70
   64
  3
-------    -    -    -    ------
 72
   65
 73
    8
 40
12.75
 49
6
 49
-1.5
 49
0.25
 49
-1.5
 49
0.25
 49
-1.5
 49
0.25
 49
-1.5
  0
LTYPE
  2
double-dashed_triplicate-dotted
 70
   64
  3
-----  ---------  -  -  -  -----
 72
   65
 73
   10
 40
20.25
 49
6
 49
-1.5
 49
6
 49
-1.5
 49
0.25
 49
-1.5
 49
0.25
 49
-1.5
 49
0.25
 49
-1.5
  0
LTYPE
  2
undefined
 70
   64
  3
--------------------------------
 72
   65
 73
    0
 40
0
  0
ENDTAB
  0
TABLE
  2
STYLE
  5
3
100
AcDbSymbolTable
 70
     1
  0
STYLE
  5
10
100
AcDbSymbolTableRecord
100
AcDbTextStyleTableRecord
  2
STANDARD
 70
     0
 40
0.0
 41
1.0
 50
0.0
 71
     0
 42
0.2
  3
txt
  4
bigfont.shx
  0
STYLE
  5
26
100
AcDbSymbolTableRecord
100
AcDbTextStyleTableRecord
  2
TATEGAKI
 70
    68
 40
0.0
 41
1.0
 50
0.0
 71
     0
 42
1.0
  3
txt
  4
bigfont.shx
  0
ENDTAB
  0
TABLE
  2
LAYER
 70
    4
  0
LAYER
  2
_0-0_
 70
   64
 62
    7
  6
CONTINUOUS
  0
LAYER
  2
_0-1_
 70
   64
 62
    7
  6
CONTINUOUS
  0
LAYER
  2
_0-9_
 70
   64
 62
    7
  6
CONTINUOUS
  0
LAYER
  2
ADD_LINE
 70
   64
 62
    7
  6
CONTINUOUS
  0
ENDTAB
  0
ENDSEC
  0
SECTION
  2
BLOCKS
  0
BLOCK
  2
-000-_D0
 70
   64
 10
0
 20
0
 30
0
  0
TEXT
  8
_0-0_
 62
    7
 10
87.281362744299983
 20
155.0864133883
 40
2
 41
1
 50
90
  1
35
  0
LINE
  8
_0-0_
  6
CONTINUOUS
 62
    2
 10
110.5575434826
 20
175.1673844346
 11
86.781362744299997
 21
175.1673844346
  0
LINE
  8
_0-0_
  6
CONTINUOUS
 62
    2
 10
110.5575434826
 20
140.16738443459991
 11
86.781362744299997
 21
140.16738443459991
  0
LINE
  8
_0-0_
  6
CONTINUOUS
 62
    2
 10
87.781362744299997
 20
175.1673844346
 11
87.781362744299997
 21
157.66738443459991
  0
LINE
  8
_0-0_
  6
CONTINUOUS
 62
    2
 10
87.781362744299997
 20
140.16738443459991
 11
87.781362744299997
 21
157.66738443459991
  0
SOLID
  8
_0-0_
  6
CONTINUOUS
 62
    2
 10
88.131362744300006
 20
173.1673844346
 11
87.781362744299997
 21
175.1673844346
 12
87.431362744300003
 22
173.1673844346
 13
87.431362744300003
 23
173.1673844346
  0
SOLID
  8
_0-0_
  6
CONTINUOUS
 62
    2
 10
87.431362744300003
 20
142.16738443459991
 11
87.781362744299997
 21
140.16738443459991
 12
88.131362744300006
 22
142.16738443459991
 13
88.131362744300006
 23
142.16738443459991
  0
ENDBLK
  0
BLOCK
  2
-001-_D1
 70
   64
 10
0
 20
0
 30
0
  0
TEXT
  8
_0-0_
 62
    7
 10
137.86777613250001
 20
194.63260148609999
 40
2
 41
1
 50
0
  1
60
  0
LINE
  8
_0-0_
  6
CONTINUOUS
 62
    2
 10
111.0575434825999
 20
175.66738443459991
 11
111.0575434825999
 21
195.1326014860999
  0
LINE
  8
_0-0_
  6
CONTINUOUS
 62
    2
 10
171.05754348260001
 20
175.66738443459991
 11
171.05754348260001
 21
195.1326014860999
  0
LINE
  8
_0-0_
  6
CONTINUOUS
 62
    2
 10
111.0575434825999
 20
194.1326014860999
 11
141.05754348260001
 21
194.1326014860999
  0
LINE
  8
_0-0_
  6
CONTINUOUS
 62
    2
 10
171.05754348260001
 20
194.1326014860999
 11
141.05754348260001
 21
194.1326014860999
  0
SOLID
  8
_0-0_
  6
CONTINUOUS
 62
    2
 10
113.0575434825999
 20
194.48260148610001
 11
111.0575434825999
 21
194.1326014860999
 12
113.0575434825999
 22
193.78260148609991
 13
113.0575434825999
 23
193.78260148609991
  0
SOLID
  8
_0-0_
  6
CONTINUOUS
 62
    2
 10
169.05754348260001
 20
193.78260148609991
 11
171.05754348260001
 21
194.1326014860999
 12
169.05754348260001
 22
194.48260148610001
 13
169.05754348260001
 23
194.48260148610001
  0
ENDBLK
  0
BLOCK
  2
-002-_D2
 70
   64
 10
0
 20
0
 30
0
  0
TEXT
  8
_0-0_
 62
    7
 10
87.281362744299983
 20
64.539008703999997
 40
2
 41
1
 50
90
  1
15
  0
LINE
  8
_0-0_
  6
CONTINUOUS
 62
    2
 10
110.5575434826
 20
73.794339555299999
 11
86.781362744299997
 21
73.794339555299999
  0
LINE
  8
_0-0_
  6
CONTINUOUS
 62
    2
 10
110.5575434826
 20
58.794339555299999
 11
86.781362744299997
 21
58.794339555299999
  0
LINE
  8
_0-0_
  6
CONTINUOUS
 62
    2
 10
87.781362744299997
 20
73.794339555299999
 11
87.781362744299997
 21
66.294339555299999
  0
LINE
  8
_0-0_
  6
CONTINUOUS
 62
    2
 10
87.781362744299997
 20
58.794339555299999
 11
87.781362744299997
 21
66.294339555299999
  0
SOLID
  8
_0-0_
  6
CONTINUOUS
 62
    2
 10
88.131362744300006
 20
71.794339555299999
 11
87.781362744299997
 21
73.794339555299999
 12
87.431362744300003
 22
71.794339555299999
 13
87.431362744300003
 23
71.794339555299999
  0
SOLID
  8
_0-0_
  6
CONTINUOUS
 62
    2
 10
87.431362744300003
 20
60.794339555299992
 11
87.781362744299997
 21
58.794339555299999
 12
88.131362744300006
 22
60.794339555299992
 13
88.131362744300006
 23
60.794339555299992
  0
ENDBLK
  0
ENDSEC
  0
SECTION
  2
ENTITIES
  0
LINE
  8
ADD_LINE
  6
DOT
 62
    7
 10
241.75121158683709
 20
14.463966596244745
 11
306.75121158683709
 21
14.463966596244745
  0
LINE
  8
ADD_LINE
  6
DOT
 62
    7
 10
310
 20
291.49999997140014
 11
110.00000001999992
 21
291.49999997140014
  0
LINE
  8
ADD_LINE
  6
DOT
 62
    7
 10
110.00000001999992
 20
291.49999997140014
 11
110.00000001999992
 21
5.5
  0
LINE
  8
ADD_LINE
  6
DOT
 62
    7
 10
110.00000001999992
 20
5.5
 11
310
 21
5.5
  0
LINE
  8
ADD_LINE
  6
DOT
 62
    7
 10
310
 20
5.5
 11
310
 21
291.49999997140014
  0
LINE
  8
_0-0_
  6
CONTINUOUS
 62
    1
 10
241.75121158683709
 20
28.338966595007278
 11
241.75121158683709
 21
10.338966596807296
  0
LINE
  8
_0-0_
  6
CONTINUOUS
 62
    1
 10
306.75121158683709
 20
287.5038448141957
 11
306.75121158683709
 21
10.338966596807296
  0
LINE
  8
_0-0_
  6
CONTINUOUS
 62
    1
 10
114.30465463589576
 20
10.338966596807296
 11
114.30465463589576
 21
287.5038448141957
  0
LINE
  8
_0-0_
  6
CONTINUOUS
 62
    1
 10
114.30465463589576
 20
287.5038448141957
 11
306.75121158683709
 21
287.5038448141957
  0
LINE
  8
_0-0_
  6
CONTINUOUS
 62
    1
 10
306.75121158683709
 20
28.338966595007207
 11
114.30465463589576
 21
28.338966595007207
  0
LINE
  8
_0-0_
  6
CONTINUOUS
 62
    1
 10
306.75121158683709
 20
10.338966596807296
 11
114.30465463589576
 21
10.338966596807296
  0
LINE
  8
_0-0_
  6
CONTINUOUS
 62
    7
 10
125.93909576693918
 20
13.819895418957401
 11
130.1429455691372
 21
13.819895418957401
  0
LINE
  8
_0-0_
  6
CONTINUOUS
 62
    7
 10
130.1429455691372
 20
13.819895418957401
 11
130.1429455691372
 21
18.029664629699312
  0
LINE
  8
_0-0_
  6
CONTINUOUS
 62
    7
 10
125.93909576693918
 20
18.029664629699312
 11
125.93909576693918
 21
13.819895418957401
  0
LINE
  8
_0-0_
  6
CONTINUOUS
 62
    7
 10
130.1429455691372
 20
18.029664629699312
 11
125.93909576693918
 21
18.029664629699312
  0
LINE
  8
_0-0_
  6
CONTINUOUS
 62
    7
 10
130.61926773159561
 20
19.40245639282324
 11
132.76926773159559
 21
23.126365629096227
  0
LINE
  8
_0-0_
  6
CONTINUOUS
 62
    7
 10
130.61926773159561
 20
19.40245639282324
 11
134.91926773159562
 21
19.40245639282324
  0
LINE
  8
_0-0_
  6
CONTINUOUS
 62
    7
 10
132.76926773159559
 20
23.126365629096227
 11
134.91926773159562
 21
19.40245639282324
  0
CIRCLE
  8
_0-0_
  6
CONTINUOUS
 62
    7
 10
136.15203719176552
 20
23.922135607101382
 40
1.4758715835162384
  0
LINE
  8
_0-0_
  6
CONTINUOUS
 62
    2
 10
139.11883308921611
 20
16.016395581136806
 11
140.93109805806156
 21
16.016395581136806
  0
LINE
  8
_0-0_
  6
CONTINUOUS
 62
    2
 10
141.39740571621658
 20
15.016395581136862
 11
142.00360567181812
 21
13.716395581136794
  0
LINE
  8
_0-0_
  6
CONTINUOUS
 62
    2
 10
138.65252543106109
 20
15.016395581136862
 11
138.04632547545961
 21
13.716395581136794
  0
LINE
  8
_0-0_
  6
CONTINUOUS
 62
    2
 10
140.02496557363887
 20
17.959602964879934
 11
140.93109805806156
 21
16.016395581136806
  0
LINE
  8
_0-0_
  6
CONTINUOUS
 62
    2
 10
140.02496557363887
 20
17.959602964879934
 11
139.11883308921611
 21
16.016395581136806
  0
LINE
  8
_0-0_
  6
CONTINUOUS
 62
    2
 10
139.42998575752378
 20
19.471523628320085
 11
136.7463254754596
 21
13.716395581136794
  0
LINE
  8
_0-0_
  6
CONTINUOUS
 62
    2
 10
147.27285854661895
 20
18.471523628320085
 11
147.3476725548723
 21
18.430466883560598
  0
LINE
  8
_0-0_
  6
CONTINUOUS
 62
    2
 10
147.3476725548723
 20
18.430466883560598
 11
147.47526900767031
 21
18.358737350812589
  0
LINE
  8
_0-0_
  6
CONTINUOUS
 62
    2
 10
147.47526900767031
 20
18.358737350812589
 11
147.59899541434501
 21
18.284391035332021
  0
LINE
  8
_0-0_
  6
CONTINUOUS
 62
    2
 10
147.59899541434501
 20
18.284391035332021
 11
147.7164023786157
 21
18.205771745516529
  0
LINE
  8
_0-0_
  6
CONTINUOUS
 62
    2
 10
147.7164023786157
 20
18.205771745516529
 11
147.82504050420187
 21
18.121223289763122
  0
LINE
  8
_0-0_
  6
CONTINUOUS
 62
    2
 10
147.82504050420187
 20
18.121223289763122
 11
147.92246039482293
 21
18.02908947646921
  0
LINE
  8
_0-0_
  6
CONTINUOUS
 62
    2
 10
147.92246039482293
 20
18.02908947646921
 11
147.97285854661897
 21
17.971523628320085
  0
LINE
  8
_0-0_
  6
CONTINUOUS
 62
    2
 10
147.97285854661897
 20
17.971523628320085
 11
148.04480718385193
 21
17.869989098545545
  0
LINE
  8
_0-0_
  6
CONTINUOUS
 62
    2
 10
148.04480718385193
 20
17.869989098545545
 11
148.14026275460756
 21
17.675811149029926
  0
LINE
  8
_0-0_
  6
CONTINUOUS
 62
    2
 10
148.14026275460756
 20
17.675811149029926
 11
148.20469952799201
 21
17.461258492089144
  0
LINE
  8
_0-0_
  6
CONTINUOUS
 62
    2
 10
148.20469952799201
 20
17.461258492089144
 11
148.24413598186936
 21
17.230779753798288
  0
LINE
  8
_0-0_
  6
CONTINUOUS
 62
    2
 10
148.24413598186936
 20
17.230779753798288
 11
148.26459059410371
 21
16.988823560233072
  0
LINE
  8
_0-0_
  6
CONTINUOUS
 62
    2
 10
148.26459059410371
 20
16.988823560233072
 11
148.27208184255909
 21
16.739838537468643
  0
LINE
  8
_0-0_
  6
CONTINUOUS
 62
    2
 10
148.27208184255909
 20
16.739838537468643
 11
148.27285854661895
 21
16.593959604728468
  0
LINE
  8
_0-0_
  6
CONTINUOUS
 62
    2
 10
148.27285854661895
 20
16.593959604728468
 11
148.27208184255909
 21
16.44808067198835
  0
LINE
  8
_0-0_
  6
CONTINUOUS
 62
    2
 10
148.27208184255909
 20
16.44808067198835
 11
148.26459059410371
 21
16.199095649223921
  0
LINE
  8
_0-0_
  6
CONTINUOUS
 62
    2
 10
148.26459059410371
 20
16.199095649223921
 11
148.24413598186936
 21
15.957139455658762
  0
LINE
  8
_0-0_
  6
CONTINUOUS
 62
    2
 10
148.24413598186936
 20
15.957139455658762
 11
148.20469952799201
 21
15.726660717367906
  0
LINE
  8
_0-0_
  6
CONTINUOUS
 62
    2
 10
148.20469952799201
 20
15.726660717367906
 11
148.14026275460756
 21
15.512108060426954
  0
LINE
  8
_0-0_
  6
CONTINUOUS
 62
    2
 10
148.14026275460756
 20
15.512108060426954
 11
148.04480718385193
 21
15.317930110911391
  0
LINE
  8
_0-0_
  6
CONTINUOUS
 62
    2
 10
148.04480718385193
 20
15.317930110911391
 11
147.97285854661897
 21
15.216395581136794
  0
LINE
  8
_0-0_
  6
CONTINUOUS
 62
    2
 10
147.97285854661897
 20
15.216395581136794
 11
147.92246039482293
 21
15.15882973298784
  0
LINE
  8
_0-0_
  6
CONTINUOUS
 62
    2
 10
147.92246039482293
 20
15.15882973298784
 11
147.82504050420187
 21
15.066695919693927
  0
LINE
  8
_0-0_
  6
CONTINUOUS
 62
    2
 10
147.82504050420187
 20
15.066695919693927
 11
147.7164023786157
 21
14.982147463940407
  0
LINE
  8
_0-0_
  6
CONTINUOUS
 62
    2
 10
147.7164023786157
 20
14.982147463940407
 11
147.59899541434501
 21
14.903528174124915
  0
LINE
  8
_0-0_
  6
CONTINUOUS
 62
    2
 10
147.59899541434501
 20
14.903528174124915
 11
147.47526900767031
 21
14.829181858644404
  0
LINE
  8
_0-0_
  6
CONTINUOUS
 62
    2
 10
147.47526900767031
 20
14.829181858644404
 11
147.3476725548723
 21
14.757452325896224
  0
LINE
  8
_0-0_
  6
CONTINUOUS
 62
    2
 10
147.3476725548723
 20
14.757452325896224
 11
147.27285854661895
 21
14.716395581136794
  0
LINE
  8
_0-0_
  6
CONTINUOUS
 62
    2
 10
147.27285854661895
 20
13.716395581136794
 11
147.33834727314331
 21
13.733349386091561
  0
LINE
  8
_0-0_
  6
CONTINUOUS
 62
    2
 10
147.33834727314331
 20
13.733349386091561
 11
147.45132463860327
 21
13.762873806782579
  0
LINE
  8
_0-0_
  6
CONTINUOUS
 62
    2
 10
147.45132463860327
 20
13.762873806782579
 11
147.56448469296362
 21
13.793214123288578
  0
LINE
  8
_0-0_
  6
CONTINUOUS
 62
    2
 10
147.56448469296362
 20
13.793214123288578
 11
147.67794306211061
 21
13.824886725365559
  0
LINE
  8
_0-0_
  6
CONTINUOUS
 62
    2
 10
147.67794306211061
 20
13.824886725365559
 11
147.79181537193057
 21
13.858408002769409
  0
LINE
  8
_0-0_
  6
CONTINUOUS
 62
    2
 10
147.79181537193057
 20
13.858408002769409
 11
147.90621724830979
 21
13.89429434525681
  0
LINE
  8
_0-0_
  6
CONTINUOUS
 62
    2
 10
147.90621724830979
 20
13.89429434525681
 11
147.97285854661897
 21
13.916395581136783
  0
LINE
  8
_0-0_
  6
CONTINUOUS
 62
    2
 10
147.97285854661897
 20
13.916395581136783
 11
148.10536278591226
 21
13.963378314317424
  0
LINE
  8
_0-0_
  6
CONTINUOUS
 62
    2
 10
148.10536278591226
 20
13.963378314317424
 11
148.33226537700955
 21
14.055518857610366
  0
LINE
  8
_0-0_
  6
CONTINUOUS
 62
    2
 10
148.33226537700955
 20
14.055518857610366
 11
148.55151530539516
 21
14.1636810935467
  0
LINE
  8
_0-0_
  6
CONTINUOUS
 62
    2
 10
148.55151530539516
 20
14.1636810935467
 11
148.75649995751118
 21
14.290104212994493
  0
LINE
  8
_0-0_
  6
CONTINUOUS
 62
    2
 10
148.75649995751118
 20
14.290104212994493
 11
148.94060671979986
 21
14.437027406821926
  0
LINE
  8
_0-0_
  6
CONTINUOUS
 62
    2
 10
148.94060671979986
 20
14.437027406821926
 11
149.09722297870357
 21
14.606689865896897
  0
LINE
  8
_0-0_
  6
CONTINUOUS
 62
    2
 10
149.09722297870357
 20
14.606689865896897
 11
149.17285854661893
 21
14.716395581136794
  0
LINE
  8
_0-0_
  6
CONTINUOUS
 62
    2
 10
149.17285854661893
 20
14.716395581136794
 11
149.19792904736582
 21
14.759580204159704
  0
LINE
  8
_0-0_
  6
CONTINUOUS
 62
    2
 10
149.19792904736582
 20
14.759580204159704
 11
149.2373383438408
 21
14.836612312496584
  0
LINE
  8
_0-0_
  6
CONTINUOUS
 62
    2
 10
149.2373383438408
 20
14.836612312496584
 11
149.27246646585075
 21
14.916423570451684
  0
LINE
  8
_0-0_
  6
CONTINUOUS
 62
    2
 10
149.27246646585075
 20
14.916423570451684
 11
149.30395158970609
 21
14.998454170037064
  0
LINE
  8
_0-0_
  6
CONTINUOUS
 62
    2
 10
149.30395158970609
 20
14.998454170037064
 11
149.33243189171708
 21
15.082144303264954
  0
LINE
  8
_0-0_
  6
CONTINUOUS
 62
    2
 10
149.33243189171708
 20
15.082144303264954
 11
149.35854554819429
 21
15.166934162147356
  0
LINE
  8
_0-0_
  6
CONTINUOUS
 62
    2
 10
149.35854554819429
 20
15.166934162147356
 11
149.37285854661894
 21
15.216395581136794
  0
LINE
  8
_0-0_
  6
CONTINUOUS
 62
    2
 10
149.37285854661894
 20
15.216395581136794
 11
149.40767371155894
 21
15.344622912301872
  0
LINE
  8
_0-0_
  6
CONTINUOUS
 62
    2
 10
149.40767371155894
 20
15.344622912301872
 11
149.46032692476098
 21
15.566707817695317
  0
LINE
  8
_0-0_
  6
CONTINUOUS
 62
    2
 10
149.46032692476098
 20
15.566707817695317
 11
149.50334040794345
 21
15.78986195096229
  0
LINE
  8
_0-0_
  6
CONTINUOUS
 62
    2
 10
149.50334040794345
 20
15.78986195096229
 11
149.53635729700622
 21
16.013851856235192
  0
LINE
  8
_0-0_
  6
CONTINUOUS
 62
    2
 10
149.53635729700622
 20
16.013851856235192
 11
149.55902072784963
 21
16.23844407764642
  0
LINE
  8
_0-0_
  6
CONTINUOUS
 62
    2
 10
149.55902072784963
 20
16.23844407764642
 11
149.57097383637389
 21
16.463405159328431
  0
LINE
  8
_0-0_
  6
CONTINUOUS
 62
    2
 10
149.57097383637389
 20
16.463405159328431
 11
149.57285854661893
 21
16.593959604728468
  0
LINE
  8
_0-0_
  6
CONTINUOUS
 62
    2
 10
149.57285854661893
 20
16.593959604728468
 11
149.57097383637389
 21
16.724514050128562
  0
LINE
  8
_0-0_
  6
CONTINUOUS
 62
    2
 10
149.57097383637389
 20
16.724514050128562
 11
149.55902072784963
 21
16.949475131810516
  0
LINE
  8
_0-0_
  6
CONTINUOUS
 62
    2
 10
149.55902072784963
 20
16.949475131810516
 11
149.53635729700622
 21
17.174067353221631
  0
LINE
  8
_0-0_
  6
CONTINUOUS
 62
    2
 10
149.53635729700622
 20
17.174067353221631
 11
149.50334040794345
 21
17.398057258494532
  0
LINE
  8
_0-0_
  6
CONTINUOUS
 62
    2
 10
149.50334040794345
 20
17.398057258494532
 11
149.46032692476098
 21
17.621211391761619
  0
LINE
  8
_0-0_
  6
CONTINUOUS
 62
    2
 10
149.46032692476098
 20
17.621211391761619
 11
149.40767371155894
 21
17.843296297155007
  0
LINE
  8
_0-0_
  6
CONTINUOUS
 62
    2
 10
149.40767371155894
 20
17.843296297155007
 11
149.37285854661894
 21
17.971523628320085
  0
LINE
  8
_0-0_
  6
CONTINUOUS
 62
    2
 10
149.37285854661894
 20
17.971523628320085
 11
149.35854554819429
 21
18.02098504730958
  0
LINE
  8
_0-0_
  6
CONTINUOUS
 62
    2
 10
149.35854554819429
 20
18.02098504730958
 11
149.33243189171708
 21
18.105774906191868
  0
LINE
  8
_0-0_
  6
CONTINUOUS
 62
    2
 10
149.33243189171708
 20
18.105774906191868
 11
149.30395158970609
 21
18.189465039419758
  0
LINE
  8
_0-0_
  6
CONTINUOUS
 62
    2
 10
149.30395158970609
 20
18.189465039419758
 11
149.27246646585075
 21
18.271495639005309
  0
LINE
  8
_0-0_
  6
CONTINUOUS
 62
    2
 10
149.27246646585075
 20
18.271495639005309
 11
149.2373383438408
 21
18.351306896960352
  0
LINE
  8
_0-0_
  6
CONTINUOUS
 62
    2
 10
149.2373383438408
 20
18.351306896960352
 11
149.19792904736582
 21
18.428339005297119
  0
LINE
  8
_0-0_
  6
CONTINUOUS
 62
    2
 10
149.19792904736582
 20
18.428339005297119
 11
149.17285854661893
 21
18.471523628320085
  0
LINE
  8
_0-0_
  6
CONTINUOUS
 62
    2
 10
149.17285854661893
 20
18.471523628320085
 11
149.09722297870357
 21
18.581229343560096
  0
LINE
  8
_0-0_
  6
CONTINUOUS
 62
    2
 10
149.09722297870357
 20
18.581229343560096
 11
148.94060671979986
 21
18.750891802635067
  0
LINE
  8
_0-0_
  6
CONTINUOUS
 62
    2
 10
148.94060671979986
 20
18.750891802635067
 11
148.75649995751118
 21
18.897814996462387
  0
LINE
  8
_0-0_
  6
CONTINUOUS
 62
    2
 10
148.75649995751118
 20
18.897814996462387
 11
148.55151530539516
 21
19.024238115910123
  0
LINE
  8
_0-0_
  6
CONTINUOUS
 62
    2
 10
148.55151530539516
 20
19.024238115910123
 11
148.33226537700955
 21
19.132400351846513
  0
LINE
  8
_0-0_
  6
CONTINUOUS
 62
    2
 10
148.33226537700955
 20
19.132400351846513
 11
148.10536278591226
 21
19.224540895139455
  0
LINE
  8
_0-0_
  6
CONTINUOUS
 62
    2
 10
148.10536278591226
 20
19.224540895139455
 11
147.97285854661897
 21
19.271523628320097
  0
LINE
  8
_0-0_
  6
CONTINUOUS
 62
    2
 10
147.97285854661897
 20
19.271523628320097
 11
147.90621724830979
 21
19.293624864200012
  0
LINE
  8
_0-0_
  6
CONTINUOUS
 62
    2
 10
147.90621724830979
 20
19.293624864200012
 11
147.79181537193057
 21
19.329511206687528
  0
LINE
  8
_0-0_
  6
CONTINUOUS
 62
    2
 10
147.79181537193057
 20
19.329511206687528
 11
147.67794306211061
 21
19.363032484091491
  0
LINE
  8
_0-0_
  6
CONTINUOUS
 62
    2
 10
147.67794306211061
 20
19.363032484091491
 11
147.56448469296362
 21
19.394705086168301
  0
LINE
  8
_0-0_
  6
CONTINUOUS
 62
    2
 10
147.56448469296362
 20
19.394705086168301
 11
147.45132463860327
 21
19.425045402674243
  0
LINE
  8
_0-0_
  6
CONTINUOUS
 62
    2
 10
147.45132463860327
 20
19.425045402674243
 11
147.33834727314331
 21
19.454569823365262
  0
LINE
  8
_0-0_
  6
CONTINUOUS
 62
    2
 10
147.33834727314331
 20
19.454569823365262
 11
147.27285854661895
 21
19.471523628320085
  0
LINE
  8
_0-0_
  6
CONTINUOUS
 62
    2
 10
150.87285854661897
 20
19.471523628320085
 11
152.90651882868312
 21
15.110325079467998
  0
LINE
  8
_0-0_
  6
CONTINUOUS
 62
    2
 10
154.94017911074732
 20
19.471523628320085
 11
152.90651882868312
 21
15.110325079467998
  0
LINE
  8
_0-0_
  6
CONTINUOUS
 62
    2
 10
149.57285854661893
 20
19.471523628320085
 11
152.25651882868314
 21
13.716395581136794
  0
LINE
  8
_0-0_
  6
CONTINUOUS
 62
    2
 10
153.55651882868315
 20
13.716395581136794
 11
156.24017911074731
 21
19.471523628320085
  0
LINE
  8
_0-0_
  6
CONTINUOUS
 62
    2
 10
157.24017911074733
 20
19.471523628320085
 11
154.55651882868312
 21
13.716395581136794
  0
LINE
  8
_0-0_
  6
CONTINUOUS
 62
    2
 10
158.57561307119425
 20
19.471523628320085
 11
161.25927335325841
 21
13.716395581136794
  0
LINE
  8
_0-0_
  6
CONTINUOUS
 62
    2
 10
138.65252543106109
 20
15.016395581136862
 11
141.39740571621658
 21
15.016395581136862
  0
LINE
  8
_0-0_
  6
CONTINUOUS
 62
    2
 10
156.46271878428465
 20
15.016395581136862
 11
159.35307339765697
 21
15.016395581136862
  0
LINE
  8
_0-0_
  6
CONTINUOUS
 62
    2
 10
156.92902644243966
 20
16.016395581136806
 11
158.88676573950193
 21
16.016395581136806
  0
LINE
  8
_0-0_
  6
CONTINUOUS
 62
    2
 10
163.13582181464142
 20
18.471523628320085
 11
166.10715559573075
 21
13.716395581136794
  0
LINE
  8
_0-0_
  6
CONTINUOUS
 62
    2
 10
166.71458119226625
 20
14.820099331457641
 11
166.71458119226625
 21
19.471523628320085
  0
LINE
  8
_0-0_
  6
CONTINUOUS
 62
    2
 10
167.81458119226627
 20
13.716395581136794
 11
167.81458119226627
 21
19.471523628320085
  0
LINE
  8
_0-0_
  6
CONTINUOUS
 62
    2
 10
163.80804870643047
 20
19.471523628320085
 11
166.71458119226625
 21
14.820099331457641
  0
LINE
  8
_0-0_
  6
CONTINUOUS
 62
    2
 10
161.83582181464143
 20
19.471523628320085
 11
161.83582181464143
 21
13.716395581136794
  0
LINE
  8
_0-0_
  6
CONTINUOUS
 62
    2
 10
147.27285854661895
 20
18.471523628320085
 11
145.27285854661895
 21
18.471523628320085
  0
LINE
  8
_0-0_
  6
CONTINUOUS
 62
    2
 10
145.27285854661895
 20
14.716395581136794
 11
147.27285854661895
 21
14.716395581136794
  0
LINE
  8
_0-0_
  6
CONTINUOUS
 62
    2
 10
158.88676573950193
 20
16.016395581136806
 11
157.90789609097078
 21
18.115588316688672
  0
LINE
  8
_0-0_
  6
CONTINUOUS
 62
    2
 10
156.92902644243966
 20
16.016395581136806
 11
157.90789609097078
 21
18.115588316688672
  0
LINE
  8
_0-0_
  6
CONTINUOUS
 62
    2
 10
155.85651882868316
 20
13.716395581136794
 11
156.46271878428465
 21
15.016395581136862
  0
LINE
  8
_0-0_
  6
CONTINUOUS
 62
    2
 10
159.95927335325845
 20
13.716395581136794
 11
159.35307339765697
 21
15.016395581136862
  0
LINE
  8
_0-0_
  6
CONTINUOUS
 62
    2
 10
163.13582181464142
 20
18.471523628320085
 11
163.13582181464142
 21
13.716395581136794
  0
LINE
  8
_0-0_
  6
CONTINUOUS
 62
    2
 10
136.7463254754596
 20
13.716395581136794
 11
138.04632547545961
 21
13.716395581136794
  0
LINE
  8
_0-0_
  6
CONTINUOUS
 62
    2
 10
142.00360567181812
 20
13.716395581136794
 11
143.30360567181808
 21
13.716395581136794
  0
LINE
  8
_0-0_
  6
CONTINUOUS
 62
    2
 10
140.61994538975395
 20
19.471523628320085
 11
143.30360567181808
 21
13.716395581136794
  0
LINE
  8
_0-0_
  6
CONTINUOUS
 62
    2
 10
140.61994538975395
 20
19.471523628320085
 11
139.42998575752378
 21
19.471523628320085
  0
LINE
  8
_0-0_
  6
CONTINUOUS
 62
    2
 10
143.97285854661899
 20
19.471523628320085
 11
143.97285854661899
 21
13.716395581136794
  0
LINE
  8
_0-0_
  6
CONTINUOUS
 62
    2
 10
145.27285854661895
 20
18.471523628320085
 11
145.27285854661895
 21
14.716395581136794
  0
LINE
  8
_0-0_
  6
CONTINUOUS
 62
    2
 10
143.97285854661899
 20
13.716395581136794
 11
147.27285854661895
 21
13.716395581136794
  0
LINE
  8
_0-0_
  6
CONTINUOUS
 62
    2
 10
147.27285854661895
 20
19.471523628320085
 11
143.97285854661899
 21
19.471523628320085
  0
LINE
  8
_0-0_
  6
CONTINUOUS
 62
    2
 10
150.87285854661897
 20
19.471523628320085
 11
149.57285854661893
 21
19.471523628320085
  0
LINE
  8
_0-0_
  6
CONTINUOUS
 62
    2
 10
152.25651882868314
 20
13.716395581136794
 11
153.55651882868315
 21
13.716395581136794
  0
LINE
  8
_0-0_
  6
CONTINUOUS
 62
    2
 10
156.24017911074731
 20
19.471523628320085
 11
154.94017911074732
 21
19.471523628320085
  0
LINE
  8
_0-0_
  6
CONTINUOUS
 62
    2
 10
154.55651882868312
 20
13.716395581136794
 11
155.85651882868316
 21
13.716395581136794
  0
LINE
  8
_0-0_
  6
CONTINUOUS
 62
    2
 10
159.95927335325845
 20
13.716395581136794
 11
161.25927335325841
 21
13.716395581136794
  0
LINE
  8
_0-0_
  6
CONTINUOUS
 62
    2
 10
161.83582181464143
 20
13.716395581136794
 11
163.13582181464142
 21
13.716395581136794
  0
LINE
  8
_0-0_
  6
CONTINUOUS
 62
    2
 10
166.10715559573075
 20
13.716395581136794
 11
167.81458119226627
 21
13.716395581136794
  0
LINE
  8
_0-0_
  6
CONTINUOUS
 62
    2
 10
167.81458119226627
 20
19.471523628320085
 11
166.71458119226625
 21
19.471523628320085
  0
LINE
  8
_0-0_
  6
CONTINUOUS
 62
    2
 10
163.80804870643047
 20
19.471523628320085
 11
161.83582181464143
 21
19.471523628320085
  0
LINE
  8
_0-0_
  6
CONTINUOUS
 62
    2
 10
158.57561307119425
 20
19.471523628320085
 11
157.24017911074733
 21
19.471523628320085
  0
LINE
  8
_0-0_
  6
CONTINUOUS
 62
    2
 10
136.81866287185576
 20
13.871523628320062
 11
138.11866287185578
 21
13.871523628320062
  0
LINE
  8
_0-0_
  6
CONTINUOUS
 62
    2
 10
141.93126827542196
 20
13.871523628320062
 11
143.23126827542191
 21
13.871523628320062
  0
LINE
  8
_0-0_
  6
CONTINUOUS
 62
    2
 10
143.97285854661899
 20
13.871523628320062
 11
147.83362660341538
 21
13.871523628320062
  0
LINE
  8
_0-0_
  6
CONTINUOUS
 62
    2
 10
152.18418143228698
 20
13.871523628320062
 11
153.62885622507932
 21
13.871523628320062
  0
LINE
  8
_0-0_
  6
CONTINUOUS
 62
    2
 10
154.62885622507937
 20
13.871523628320062
 11
155.92885622507933
 21
13.871523628320062
  0
LINE
  8
_0-0_
  6
CONTINUOUS
 62
    2
 10
159.88693595686229
 20
13.871523628320062
 11
161.18693595686224
 21
13.871523628320062
  0
LINE
  8
_0-0_
  6
CONTINUOUS
 62
    2
 10
161.83582181464143
 20
13.871523628320062
 11
163.13582181464142
 21
13.871523628320062
  0
LINE
  8
_0-0_
  6
CONTINUOUS
 62
    2
 10
166.01022083342437
 20
13.871523628320062
 11
167.81458119226627
 21
13.871523628320062
  0
LINE
  8
_0-0_
  6
CONTINUOUS
 62
    2
 10
136.91192440348678
 20
14.071523628320108
 11
138.21192440348679
 21
14.071523628320108
  0
LINE
  8
_0-0_
  6
CONTINUOUS
 62
    2
 10
141.83800674379094
 20
14.071523628320108
 11
143.1380067437909
 21
14.071523628320108
  0
LINE
  8
_0-0_
  6
CONTINUOUS
 62
    2
 10
143.97285854661899
 20
14.071523628320108
 11
148.36470779835517
 21
14.071523628320108
  0
LINE
  8
_0-0_
  6
CONTINUOUS
 62
    2
 10
152.09091990065596
 20
14.071523628320108
 11
153.72211775671033
 21
14.071523628320108
  0
LINE
  8
_0-0_
  6
CONTINUOUS
 62
    2
 10
154.7221177567103
 20
14.071523628320108
 11
156.02211775671034
 21
14.071523628320108
  0
LINE
  8
_0-0_
  6
CONTINUOUS
 62
    2
 10
159.79367442523127
 20
14.071523628320108
 11
161.09367442523123
 21
14.071523628320108
  0
LINE
  8
_0-0_
  6
CONTINUOUS
 62
    2
 10
161.83582181464143
 20
14.071523628320108
 11
163.13582181464142
 21
14.071523628320108
  0
LINE
  8
_0-0_
  6
CONTINUOUS
 62
    2
 10
165.88524696304253
 20
14.071523628320108
 11
167.81458119226627
 21
14.071523628320108
  0
LINE
  8
_0-0_
  6
CONTINUOUS
 62
    2
 10
137.00518593511779
 20
14.271523628320097
 11
138.30518593511781
 21
14.271523628320097
  0
LINE
  8
_0-0_
  6
CONTINUOUS
 62
    2
 10
141.74474521215993
 20
14.271523628320097
 11
143.04474521215988
 21
14.271523628320097
  0
LINE
  8
_0-0_
  6
CONTINUOUS
 62
    2
 10
143.97285854661899
 20
14.271523628320097
 11
148.72637307326542
 21
14.271523628320097
  0
LINE
  8
_0-0_
  6
CONTINUOUS
 62
    2
 10
151.99765836902495
 20
14.271523628320097
 11
153.81537928834135
 21
14.271523628320097
  0
LINE
  8
_0-0_
  6
CONTINUOUS
 62
    2
 10
154.81537928834132
 20
14.271523628320097
 11
156.11537928834136
 21
14.271523628320097
  0
LINE
  8
_0-0_
  6
CONTINUOUS
 62
    2
 10
159.70041289360026
 20
14.271523628320097
 11
161.00041289360021
 21
14.271523628320097
  0
LINE
  8
_0-0_
  6
CONTINUOUS
 62
    2
 10
161.83582181464143
 20
14.271523628320097
 11
163.13582181464142
 21
14.271523628320097
  0
LINE
  8
_0-0_
  6
CONTINUOUS
 62
    2
 10
165.76027309266064
 20
14.271523628320097
 11
167.81458119226627
 21
14.271523628320097
  0
LINE
  8
_0-0_
  6
CONTINUOUS
 62
    2
 10
137.09844746674875
 20
14.471523628320142
 11
138.39844746674882
 21
14.471523628320142
  0
LINE
  8
_0-0_
  6
CONTINUOUS
 62
    2
 10
141.65148368052891
 20
14.471523628320142
 11
142.95148368052892
 21
14.471523628320142
  0
LINE
  8
_0-0_
  6
CONTINUOUS
 62
    2
 10
143.97285854661899
 20
14.471523628320142
 11
148.97245035325199
 21
14.471523628320142
  0
LINE
  8
_0-0_
  6
CONTINUOUS
 62
    2
 10
151.90439683739393
 20
14.471523628320142
 11
153.90864081997231
 21
14.471523628320142
  0
LINE
  8
_0-0_
  6
CONTINUOUS
 62
    2
 10
154.90864081997231
 20
14.471523628320142
 11
156.20864081997229
 21
14.471523628320142
  0
LINE
  8
_0-0_
  6
CONTINUOUS
 62
    2
 10
159.60715136196924
 20
14.471523628320142
 11
160.90715136196923
 21
14.471523628320142
  0
LINE
  8
_0-0_
  6
CONTINUOUS
 62
    2
 10
161.83582181464143
 20
14.471523628320142
 11
163.13582181464142
 21
14.471523628320142
  0
LINE
  8
_0-0_
  6
CONTINUOUS
 62
    2
 10
165.6352992222788
 20
14.471523628320142
 11
167.81458119226627
 21
14.471523628320142
  0
LINE
  8
_0-0_
  6
CONTINUOUS
 62
    2
 10
137.19170899837977
 20
14.671523628320074
 11
138.49170899837978
 21
14.671523628320074
  0
LINE
  8
_0-0_
  6
CONTINUOUS
 62
    2
 10
141.5582221488979
 20
14.671523628320074
 11
142.85822214889791
 21
14.671523628320074
  0
LINE
  8
_0-0_
  6
CONTINUOUS
 62
    2
 10
143.97285854661899
 20
14.671523628320074
 11
149.14192200309114
 21
14.671523628320074
  0
LINE
  8
_0-0_
  6
CONTINUOUS
 62
    2
 10
151.81113530576297
 20
14.671523628320074
 11
154.00190235160332
 21
14.671523628320074
  0
LINE
  8
_0-0_
  6
CONTINUOUS
 62
    2
 10
155.00190235160332
 20
14.671523628320074
 11
156.3019023516033
 21
14.671523628320074
  0
LINE
  8
_0-0_
  6
CONTINUOUS
 62
    2
 10
159.51388983033823
 20
14.671523628320074
 11
160.8138898303383
 21
14.671523628320074
  0
LINE
  8
_0-0_
  6
CONTINUOUS
 62
    2
 10
161.83582181464143
 20
14.671523628320074
 11
163.13582181464142
 21
14.671523628320074
  0
LINE
  8
_0-0_
  6
CONTINUOUS
 62
    2
 10
165.51032535189691
 20
14.671523628320074
 11
167.81458119226627
 21
14.671523628320074
  0
LINE
  8
_0-0_
  6
CONTINUOUS
 62
    2
 10
137.28497053001078
 20
14.871523628320006
 11
138.58497053001079
 21
14.871523628320006
  0
LINE
  8
_0-0_
  6
CONTINUOUS
 62
    2
 10
141.46496061726688
 20
14.871523628320006
 11
142.76496061726695
 21
14.871523628320006
  0
LINE
  8
_0-0_
  6
CONTINUOUS
 62
    2
 10
143.97285854661899
 20
14.871523628320006
 11
145.27285854661895
 21
14.871523628320006
  0
LINE
  8
_0-0_
  6
CONTINUOUS
 62
    2
 10
147.54573376413285
 20
14.871523628320006
 11
149.25270420817125
 21
14.871523628320006
  0
LINE
  8
_0-0_
  6
CONTINUOUS
 62
    2
 10
151.71787377413196
 20
14.871523628320006
 11
154.09516388323433
 21
14.871523628320006
  0
LINE
  8
_0-0_
  6
CONTINUOUS
 62
    2
 10
155.09516388323433
 20
14.871523628320006
 11
156.39516388323432
 21
14.871523628320006
  0
LINE
  8
_0-0_
  6
CONTINUOUS
 62
    2
 10
159.42062829870724
 20
14.871523628320006
 11
160.72062829870728
 21
14.871523628320006
  0
LINE
  8
_0-0_
  6
CONTINUOUS
 62
    2
 10
161.83582181464143
 20
14.871523628320006
 11
163.13582181464142
 21
14.871523628320006
  0
LINE
  8
_0-0_
  6
CONTINUOUS
 62
    2
 10
165.38535148151502
 20
14.871523628320006
 11
166.68244772521334
 21
14.871523628320006
  0
LINE
  8
_0-0_
  6
CONTINUOUS
 62
    2
 10
166.71458119226625
 20
14.871523628320006
 11
167.81458119226627
 21
14.871523628320006
  0
LINE
  8
_0-0_
  6
CONTINUOUS
 62
    2
 10
137.3782320616418
 20
15.071523628320108
 11
142.67169908563594
 21
15.071523628320108
  0
LINE
  8
_0-0_
  6
CONTINUOUS
 62
    2
 10
143.97285854661899
 20
15.071523628320108
 11
145.27285854661895
 21
15.071523628320108
  0
LINE
  8
_0-0_
  6
CONTINUOUS
 62
    2
 10
147.83014519735966
 20
15.071523628320108
 11
149.32881760627717
 21
15.071523628320108
  0
LINE
  8
_0-0_
  6
CONTINUOUS
 62
    2
 10
151.62461224250094
 20
15.071523628320108
 11
154.18842541486535
 21
15.071523628320108
  0
LINE
  8
_0-0_
  6
CONTINUOUS
 62
    2
 10
155.18842541486535
 20
15.071523628320108
 11
160.62736676707627
 21
15.071523628320108
  0
LINE
  8
_0-0_
  6
CONTINUOUS
 62
    2
 10
161.83582181464143
 20
15.071523628320108
 11
163.13582181464142
 21
15.071523628320108
  0
LINE
  8
_0-0_
  6
CONTINUOUS
 62
    2
 10
165.26037761113315
 20
15.071523628320108
 11
166.5574738548315
 21
15.071523628320108
  0
LINE
  8
_0-0_
  6
CONTINUOUS
 62
    2
 10
166.71458119226625
 20
15.071523628320108
 11
167.81458119226627
 21
15.071523628320108
  0
LINE
  8
_0-0_
  6
CONTINUOUS
 62
    2
 10
137.47149359327281
 20
15.271523628320153
 11
142.57843755400492
 21
15.271523628320153
  0
LINE
  8
_0-0_
  6
CONTINUOUS
 62
    2
 10
143.97285854661899
 20
15.271523628320153
 11
145.27285854661895
 21
15.271523628320153
  0
LINE
  8
_0-0_
  6
CONTINUOUS
 62
    2
 10
148.01192297009104
 20
15.271523628320153
 11
149.38782643246722
 21
15.271523628320153
  0
LINE
  8
_0-0_
  6
CONTINUOUS
 62
    2
 10
151.53135071086996
 20
15.271523628320153
 11
152.83135071086991
 21
15.271523628320153
  0
LINE
  8
_0-0_
  6
CONTINUOUS
 62
    2
 10
152.98168694649632
 20
15.271523628320153
 11
154.28168694649636
 21
15.271523628320153
  0
LINE
  8
_0-0_
  6
CONTINUOUS
 62
    2
 10
155.28168694649636
 20
15.271523628320153
 11
160.53410523544525
 21
15.271523628320153
  0
LINE
  8
_0-0_
  6
CONTINUOUS
 62
    2
 10
161.83582181464143
 20
15.271523628320153
 11
163.13582181464142
 21
15.271523628320153
  0
LINE
  8
_0-0_
  6
CONTINUOUS
 62
    2
 10
165.13540374075134
 20
15.271523628320153
 11
166.43249998444958
 21
15.271523628320153
  0
LINE
  8
_0-0_
  6
CONTINUOUS
 62
    2
 10
166.71458119226625
 20
15.271523628320153
 11
167.81458119226627
 21
15.271523628320153
  0
LINE
  8
_0-0_
  6
CONTINUOUS
 62
    2
 10
137.56475512490383
 20
15.471523628320142
 11
142.48517602237391
 21
15.471523628320142
  0
LINE
  8
_0-0_
  6
CONTINUOUS
 62
    2
 10
143.97285854661899
 20
15.471523628320142
 11
145.27285854661895
 21
15.471523628320142
  0
LINE
  8
_0-0_
  6
CONTINUOUS
 62
    2
 10
148.12031193042685
 20
15.471523628320142
 11
149.43776008975814
 21
15.471523628320142
  0
LINE
  8
_0-0_
  6
CONTINUOUS
 62
    2
 10
151.43808917923894
 20
15.471523628320142
 11
152.7380891792389
 21
15.471523628320142
  0
LINE
  8
_0-0_
  6
CONTINUOUS
 62
    2
 10
153.07494847812731
 20
15.471523628320142
 11
154.37494847812729
 21
15.471523628320142
  0
LINE
  8
_0-0_
  6
CONTINUOUS
 62
    2
 10
155.37494847812732
 20
15.471523628320142
 11
160.44084370381424
 21
15.471523628320142
  0
LINE
  8
_0-0_
  6
CONTINUOUS
 62
    2
 10
161.83582181464143
 20
15.471523628320142
 11
163.13582181464142
 21
15.471523628320142
  0
LINE
  8
_0-0_
  6
CONTINUOUS
 62
    2
 10
165.01042987036945
 20
15.471523628320142
 11
166.30752611406777
 21
15.471523628320142
  0
LINE
  8
_0-0_
  6
CONTINUOUS
 62
    2
 10
166.71458119226625
 20
15.471523628320142
 11
167.81458119226627
 21
15.471523628320142
  0
LINE
  8
_0-0_
  6
CONTINUOUS
 62
    2
 10
137.65801665653478
 20
15.671523628320074
 11
142.39191449074289
 21
15.671523628320074
  0
LINE
  8
_0-0_
  6
CONTINUOUS
 62
    2
 10
143.97285854661899
 20
15.671523628320074
 11
145.27285854661895
 21
15.671523628320074
  0
LINE
  8
_0-0_
  6
CONTINUOUS
 62
    2
 10
148.18814016134183
 20
15.671523628320074
 11
149.4805304183802
 21
15.671523628320074
  0
LINE
  8
_0-0_
  6
CONTINUOUS
 62
    2
 10
151.34482764760793
 20
15.671523628320074
 11
152.64482764760797
 21
15.671523628320074
  0
LINE
  8
_0-0_
  6
CONTINUOUS
 62
    2
 10
153.16821000975833
 20
15.671523628320074
 11
154.46821000975831
 21
15.671523628320074
  0
LINE
  8
_0-0_
  6
CONTINUOUS
 62
    2
 10
155.46821000975834
 20
15.671523628320074
 11
160.34758217218322
 21
15.671523628320074
  0
LINE
  8
_0-0_
  6
CONTINUOUS
 62
    2
 10
161.83582181464143
 20
15.671523628320074
 11
163.13582181464142
 21
15.671523628320074
  0
LINE
  8
_0-0_
  6
CONTINUOUS
 62
    2
 10
164.88545599998758
 20
15.671523628320074
 11
166.18255224368588
 21
15.671523628320074
  0
LINE
  8
_0-0_
  6
CONTINUOUS
 62
    2
 10
166.71458119226625
 20
15.671523628320074
 11
167.81458119226627
 21
15.671523628320074
  0
LINE
  8
_0-0_
  6
CONTINUOUS
 62
    2
 10
137.7512781881658
 20
15.871523628320062
 11
142.29865295911188
 21
15.871523628320062
  0
LINE
  8
_0-0_
  6
CONTINUOUS
 62
    2
 10
143.97285854661899
 20
15.871523628320062
 11
145.27285854661895
 21
15.871523628320062
  0
LINE
  8
_0-0_
  6
CONTINUOUS
 62
    2
 10
148.22948654109646
 20
15.871523628320062
 11
149.51537762247196
 21
15.871523628320062
  0
LINE
  8
_0-0_
  6
CONTINUOUS
 62
    2
 10
151.25156611597691
 20
15.871523628320062
 11
152.55156611597695
 21
15.871523628320062
  0
LINE
  8
_0-0_
  6
CONTINUOUS
 62
    2
 10
153.26147154138934
 20
15.871523628320062
 11
154.5614715413893
 21
15.871523628320062
  0
LINE
  8
_0-0_
  6
CONTINUOUS
 62
    2
 10
155.56147154138935
 20
15.871523628320062
 11
160.25432064055224
 21
15.871523628320062
  0
LINE
  8
_0-0_
  6
CONTINUOUS
 62
    2
 10
161.83582181464143
 20
15.871523628320062
 11
163.13582181464142
 21
15.871523628320062
  0
LINE
  8
_0-0_
  6
CONTINUOUS
 62
    2
 10
164.76048212960572
 20
15.871523628320062
 11
166.05757837330401
 21
15.871523628320062
  0
LINE
  8
_0-0_
  6
CONTINUOUS
 62
    2
 10
166.71458119226625
 20
15.871523628320062
 11
167.81458119226627
 21
15.871523628320062
  0
LINE
  8
_0-0_
  6
CONTINUOUS
 62
    2
 10
137.84453971979676
 20
16.071523628320108
 11
139.14453971979677
 21
16.071523628320108
  0
LINE
  8
_0-0_
  6
CONTINUOUS
 62
    2
 10
140.90539142748091
 20
16.071523628320108
 11
142.20539142748092
 21
16.071523628320108
  0
LINE
  8
_0-0_
  6
CONTINUOUS
 62
    2
 10
143.97285854661899
 20
16.071523628320108
 11
145.27285854661895
 21
16.071523628320108
  0
LINE
  8
_0-0_
  6
CONTINUOUS
 62
    2
 10
148.2538058475713
 20
16.071523628320108
 11
149.54217691181768
 21
16.071523628320108
  0
LINE
  8
_0-0_
  6
CONTINUOUS
 62
    2
 10
151.1583045843459
 20
16.071523628320108
 11
152.45830458434597
 21
16.071523628320108
  0
LINE
  8
_0-0_
  6
CONTINUOUS
 62
    2
 10
153.35473307302036
 20
16.071523628320108
 11
154.65473307302031
 21
16.071523628320108
  0
LINE
  8
_0-0_
  6
CONTINUOUS
 62
    2
 10
155.65473307302028
 20
16.071523628320108
 11
156.95473307302032
 21
16.071523628320108
  0
LINE
  8
_0-0_
  6
CONTINUOUS
 62
    2
 10
158.86105910892124
 20
16.071523628320108
 11
160.16105910892122
 21
16.071523628320108
  0
LINE
  8
_0-0_
  6
CONTINUOUS
 62
    2
 10
161.83582181464143
 20
16.071523628320108
 11
163.13582181464142
 21
16.071523628320108
  0
LINE
  8
_0-0_
  6
CONTINUOUS
 62
    2
 10
164.63550825922388
 20
16.071523628320108
 11
165.93260450292215
 21
16.071523628320108
  0
LINE
  8
_0-0_
  6
CONTINUOUS
 62
    2
 10
166.71458119226625
 20
16.071523628320108
 11
167.81458119226627
 21
16.071523628320108
  0
LINE
  8
_0-0_
  6
CONTINUOUS
 62
    2
 10
137.93780125142777
 20
16.27152362832021
 11
139.23780125142778
 21
16.27152362832021
  0
LINE
  8
_0-0_
  6
CONTINUOUS
 62
    2
 10
140.81212989584989
 20
16.27152362832021
 11
142.1121298958499
 21
16.27152362832021
  0
LINE
  8
_0-0_
  6
CONTINUOUS
 62
    2
 10
143.97285854661899
 20
16.27152362832021
 11
145.27285854661895
 21
16.27152362832021
  0
LINE
  8
_0-0_
  6
CONTINUOUS
 62
    2
 10
148.26676974520484
 20
16.27152362832021
 11
149.56077838057863
 21
16.27152362832021
  0
LINE
  8
_0-0_
  6
CONTINUOUS
 62
    2
 10
151.06504305271488
 20
16.27152362832021
 11
152.36504305271495
 21
16.27152362832021
  0
LINE
  8
_0-0_
  6
CONTINUOUS
 62
    2
 10
153.44799460465137
 20
16.27152362832021
 11
154.74799460465132
 21
16.27152362832021
  0
LINE
  8
_0-0_
  6
CONTINUOUS
 62
    2
 10
155.7479946046513
 20
16.27152362832021
 11
157.04799460465134
 21
16.27152362832021
  0
LINE
  8
_0-0_
  6
CONTINUOUS
 62
    2
 10
158.76779757729025
 20
16.27152362832021
 11
160.06779757729029
 21
16.27152362832021
  0
LINE
  8
_0-0_
  6
CONTINUOUS
 62
    2
 10
161.83582181464143
 20
16.27152362832021
 11
163.13582181464142
 21
16.27152362832021
  0
LINE
  8
_0-0_
  6
CONTINUOUS
 62
    2
 10
164.51053438884199
 20
16.27152362832021
 11
165.80763063254031
 21
16.27152362832021
  0
LINE
  8
_0-0_
  6
CONTINUOUS
 62
    2
 10
166.71458119226625
 20
16.27152362832021
 11
167.81458119226627
 21
16.27152362832021
  0
LINE
  8
_0-0_
  6
CONTINUOUS
 62
    2
 10
138.03106278305879
 20
16.471523628320085
 11
139.33106278305874
 21
16.471523628320085
  0
LINE
  8
_0-0_
  6
CONTINUOUS
 62
    2
 10
140.71886836421888
 20
16.471523628320085
 11
142.01886836421895
 21
16.471523628320085
  0
LINE
  8
_0-0_
  6
CONTINUOUS
 62
    2
 10
143.97285854661899
 20
16.471523628320085
 11
145.27285854661895
 21
16.471523628320085
  0
LINE
  8
_0-0_
  6
CONTINUOUS
 62
    2
 10
148.27220666002941
 20
16.471523628320085
 11
149.57109103622588
 21
16.471523628320085
  0
LINE
  8
_0-0_
  6
CONTINUOUS
 62
    2
 10
150.97178152108395
 20
16.471523628320085
 11
152.27178152108394
 21
16.471523628320085
  0
LINE
  8
_0-0_
  6
CONTINUOUS
 62
    2
 10
153.5412561362823
 20
16.471523628320085
 11
154.84125613628234
 21
16.471523628320085
  0
LINE
  8
_0-0_
  6
CONTINUOUS
 62
    2
 10
155.84125613628231
 20
16.471523628320085
 11
157.14125613628227
 21
16.471523628320085
  0
LINE
  8
_0-0_
  6
CONTINUOUS
 62
    2
 10
158.67453604565924
 20
16.471523628320085
 11
159.97453604565928
 21
16.471523628320085
  0
LINE
  8
_0-0_
  6
CONTINUOUS
 62
    2
 10
161.83582181464143
 20
16.471523628320085
 11
163.13582181464142
 21
16.471523628320085
  0
LINE
  8
_0-0_
  6
CONTINUOUS
 62
    2
 10
164.38556051846015
 20
16.471523628320085
 11
165.68265676215842
 21
16.471523628320085
  0
LINE
  8
_0-0_
  6
CONTINUOUS
 62
    2
 10
166.71458119226625
 20
16.471523628320085
 11
167.81458119226627
 21
16.471523628320085
  0
LINE
  8
_0-0_
  6
CONTINUOUS
 62
    2
 10
138.1243243146898
 20
16.671523628320131
 11
139.42432431468976
 21
16.671523628320131
  0
LINE
  8
_0-0_
  6
CONTINUOUS
 62
    2
 10
140.62560683258792
 20
16.671523628320131
 11
141.92560683258793
 21
16.671523628320131
  0
LINE
  8
_0-0_
  6
CONTINUOUS
 62
    2
 10
143.97285854661899
 20
16.671523628320131
 11
145.27285854661895
 21
16.671523628320131
  0
LINE
  8
_0-0_
  6
CONTINUOUS
 62
    2
 10
148.27244557203176
 20
16.671523628320131
 11
149.57173881676624
 21
16.671523628320131
  0
LINE
  8
_0-0_
  6
CONTINUOUS
 62
    2
 10
150.87851998945297
 20
16.671523628320131
 11
152.17851998945292
 21
16.671523628320131
  0
LINE
  8
_0-0_
  6
CONTINUOUS
 62
    2
 10
153.63451766791331
 20
16.671523628320131
 11
154.93451766791335
 21
16.671523628320131
  0
LINE
  8
_0-0_
  6
CONTINUOUS
 62
    2
 10
155.93451766791333
 20
16.671523628320131
 11
157.23451766791328
 21
16.671523628320131
  0
LINE
  8
_0-0_
  6
CONTINUOUS
 62
    2
 10
158.58127451402831
 20
16.671523628320131
 11
159.88127451402826
 21
16.671523628320131
  0
LINE
  8
_0-0_
  6
CONTINUOUS
 62
    2
 10
161.83582181464143
 20
16.671523628320131
 11
163.13582181464142
 21
16.671523628320131
  0
LINE
  8
_0-0_
  6
CONTINUOUS
 62
    2
 10
164.26058664807826
 20
16.671523628320131
 11
165.55768289177658
 21
16.671523628320131
  0
LINE
  8
_0-0_
  6
CONTINUOUS
 62
    2
 10
166.71458119226625
 20
16.671523628320131
 11
167.81458119226627
 21
16.671523628320131
  0
LINE
  8
_0-0_
  6
CONTINUOUS
 62
    2
 10
138.21758584632082
 20
16.871523628320119
 11
139.51758584632077
 21
16.871523628320119
  0
LINE
  8
_0-0_
  6
CONTINUOUS
 62
    2
 10
140.53234530095696
 20
16.871523628320119
 11
141.83234530095692
 21
16.871523628320119
  0
LINE
  8
_0-0_
  6
CONTINUOUS
 62
    2
 10
143.97285854661899
 20
16.871523628320119
 11
145.27285854661895
 21
16.871523628320119
  0
LINE
  8
_0-0_
  6
CONTINUOUS
 62
    2
 10
148.26811981415077
 20
16.871523628320119
 11
149.56316261218745
 21
16.871523628320119
  0
LINE
  8
_0-0_
  6
CONTINUOUS
 62
    2
 10
150.78525845782195
 20
16.871523628320119
 11
152.08525845782191
 21
16.871523628320119
  0
LINE
  8
_0-0_
  6
CONTINUOUS
 62
    2
 10
153.7277791995443
 20
16.871523628320119
 11
155.02777919954428
 21
16.871523628320119
  0
LINE
  8
_0-0_
  6
CONTINUOUS
 62
    2
 10
156.02777919954434
 20
16.871523628320119
 11
157.3277791995443
 21
16.871523628320119
  0
LINE
  8
_0-0_
  6
CONTINUOUS
 62
    2
 10
158.48801298239729
 20
16.871523628320119
 11
159.78801298239725
 21
16.871523628320119
  0
LINE
  8
_0-0_
  6
CONTINUOUS
 62
    2
 10
161.83582181464143
 20
16.871523628320119
 11
163.13582181464142
 21
16.871523628320119
  0
LINE
  8
_0-0_
  6
CONTINUOUS
 62
    2
 10
164.13561277769637
 20
16.871523628320119
 11
165.43270902139469
 21
16.871523628320119
  0
LINE
  8
_0-0_
  6
CONTINUOUS
 62
    2
 10
166.71458119226625
 20
16.871523628320119
 11
167.81458119226627
 21
16.871523628320119
  0
LINE
  8
_0-0_
  6
CONTINUOUS
 62
    2
 10
138.31084737795177
 20
17.071523628319994
 11
139.61084737795179
 21
17.071523628319994
  0
LINE
  8
_0-0_
  6
CONTINUOUS
 62
    2
 10
140.43908376932595
 20
17.071523628319994
 11
141.7390837693259
 21
17.071523628319994
  0
LINE
  8
_0-0_
  6
CONTINUOUS
 62
    2
 10
143.97285854661899
 20
17.071523628319994
 11
145.27285854661895
 21
17.071523628319994
  0
LINE
  8
_0-0_
  6
CONTINUOUS
 62
    2
 10
148.25759925488833
 20
17.071523628319994
 11
149.54670490656781
 21
17.071523628319994
  0
LINE
  8
_0-0_
  6
CONTINUOUS
 62
    2
 10
150.69199692619094
 20
17.071523628319994
 11
151.99199692619098
 21
17.071523628319994
  0
LINE
  8
_0-0_
  6
CONTINUOUS
 62
    2
 10
153.82104073117532
 20
17.071523628319994
 11
155.1210407311753
 21
17.071523628319994
  0
LINE
  8
_0-0_
  6
CONTINUOUS
 62
    2
 10
156.12104073117533
 20
17.071523628319994
 11
157.42104073117531
 21
17.071523628319994
  0
LINE
  8
_0-0_
  6
CONTINUOUS
 62
    2
 10
158.39475145076628
 20
17.071523628319994
 11
159.69475145076629
 21
17.071523628319994
  0
LINE
  8
_0-0_
  6
CONTINUOUS
 62
    2
 10
161.83582181464143
 20
17.071523628319994
 11
163.13582181464142
 21
17.071523628319994
  0
LINE
  8
_0-0_
  6
CONTINUOUS
 62
    2
 10
164.0106389073145
 20
17.071523628319994
 11
165.30773515101285
 21
17.071523628319994
  0
LINE
  8
_0-0_
  6
CONTINUOUS
 62
    2
 10
166.71458119226625
 20
17.071523628319994
 11
167.81458119226627
 21
17.071523628319994
  0
LINE
  8
_0-0_
  6
CONTINUOUS
 62
    2
 10
138.40410890958279
 20
17.27152362832021
 11
139.7041089095828
 21
17.27152362832021
  0
LINE
  8
_0-0_
  6
CONTINUOUS
 62
    2
 10
140.34582223769493
 20
17.27152362832021
 11
141.64582223769489
 21
17.27152362832021
  0
LINE
  8
_0-0_
  6
CONTINUOUS
 62
    2
 10
143.97285854661899
 20
17.27152362832021
 11
145.27285854661895
 21
17.27152362832021
  0
LINE
  8
_0-0_
  6
CONTINUOUS
 62
    2
 10
148.23716443238811
 20
17.27152362832021
 11
149.52199190397889
 21
17.27152362832021
  0
LINE
  8
_0-0_
  6
CONTINUOUS
 62
    2
 10
150.59873539455992
 20
17.27152362832021
 11
151.89873539455996
 21
17.27152362832021
  0
LINE
  8
_0-0_
  6
CONTINUOUS
 62
    2
 10
153.91430226280633
 20
17.27152362832021
 11
155.21430226280631
 21
17.27152362832021
  0
LINE
  8
_0-0_
  6
CONTINUOUS
 62
    2
 10
156.21430226280634
 20
17.27152362832021
 11
157.51430226280632
 21
17.27152362832021
  0
LINE
  8
_0-0_
  6
CONTINUOUS
 62
    2
 10
158.30148991913526
 20
17.27152362832021
 11
159.60148991913528
 21
17.27152362832021
  0
LINE
  8
_0-0_
  6
CONTINUOUS
 62
    2
 10
161.83582181464143
 20
17.27152362832021
 11
163.13582181464142
 21
17.27152362832021
  0
LINE
  8
_0-0_
  6
CONTINUOUS
 62
    2
 10
163.88566503693269
 20
17.27152362832021
 11
165.18276128063093
 21
17.27152362832021
  0
LINE
  8
_0-0_
  6
CONTINUOUS
 62
    2
 10
166.71458119226625
 20
17.27152362832021
 11
167.81458119226627
 21
17.27152362832021
  0
LINE
  8
_0-0_
  6
CONTINUOUS
 62
    2
 10
138.49737044121375
 20
17.471523628320085
 11
139.79737044121381
 21
17.471523628320085
  0
LINE
  8
_0-0_
  6
CONTINUOUS
 62
    2
 10
140.25256070606392
 20
17.471523628320085
 11
141.55256070606393
 21
17.471523628320085
  0
LINE
  8
_0-0_
  6
CONTINUOUS
 62
    2
 10
143.97285854661899
 20
17.471523628320085
 11
145.27285854661895
 21
17.471523628320085
  0
LINE
  8
_0-0_
  6
CONTINUOUS
 62
    2
 10
148.20161659130642
 20
17.471523628320085
 11
149.48917959265086
 21
17.471523628320085
  0
LINE
  8
_0-0_
  6
CONTINUOUS
 62
    2
 10
150.50547386292891
 20
17.471523628320085
 11
151.80547386292895
 21
17.471523628320085
  0
LINE
  8
_0-0_
  6
CONTINUOUS
 62
    2
 10
154.00756379443735
 20
17.471523628320085
 11
155.3075637944373
 21
17.471523628320085
  0
LINE
  8
_0-0_
  6
CONTINUOUS
 62
    2
 10
156.30756379443727
 20
17.471523628320085
 11
157.60756379443734
 21
17.471523628320085
  0
LINE
  8
_0-0_
  6
CONTINUOUS
 62
    2
 10
158.20822838750425
 20
17.471523628320085
 11
159.50822838750426
 21
17.471523628320085
  0
LINE
  8
_0-0_
  6
CONTINUOUS
 62
    2
 10
161.83582181464143
 20
17.471523628320085
 11
163.13582181464142
 21
17.471523628320085
  0
LINE
  8
_0-0_
  6
CONTINUOUS
 62
    2
 10
163.7606911665508
 20
17.471523628320085
 11
165.05778741024912
 21
17.471523628320085
  0
LINE
  8
_0-0_
  6
CONTINUOUS
 62
    2
 10
166.71458119226625
 20
17.471523628320085
 11
167.81458119226627
 21
17.471523628320085
  0
LINE
  8
_0-0_
  6
CONTINUOUS
 62
    2
 10
138.59063197284476
 20
17.671523628320131
 11
139.89063197284483
 21
17.671523628320131
  0
LINE
  8
_0-0_
  6
CONTINUOUS
 62
    2
 10
140.1592991744329
 20
17.671523628320131
 11
141.45929917443291
 21
17.671523628320131
  0
LINE
  8
_0-0_
  6
CONTINUOUS
 62
    2
 10
143.97285854661899
 20
17.671523628320131
 11
145.27285854661895
 21
17.671523628320131
  0
LINE
  8
_0-0_
  6
CONTINUOUS
 62
    2
 10
148.14155042917793
 20
17.671523628320131
 11
149.4483985998103
 21
17.671523628320131
  0
LINE
  8
_0-0_
  6
CONTINUOUS
 62
    2
 10
150.41221233129789
 20
17.671523628320131
 11
151.71221233129799
 21
17.671523628320131
  0
LINE
  8
_0-0_
  6
CONTINUOUS
 62
    2
 10
154.10082532606836
 20
17.671523628320131
 11
155.40082532606831
 21
17.671523628320131
  0
LINE
  8
_0-0_
  6
CONTINUOUS
 62
    2
 10
156.40082532606829
 20
17.671523628320131
 11
157.70082532606833
 21
17.671523628320131
  0
LINE
  8
_0-0_
  6
CONTINUOUS
 62
    2
 10
158.11496685587323
 20
17.671523628320131
 11
159.41496685587325
 21
17.671523628320131
  0
LINE
  8
_0-0_
  6
CONTINUOUS
 62
    2
 10
161.83582181464143
 20
17.671523628320131
 11
163.13582181464142
 21
17.671523628320131
  0
LINE
  8
_0-0_
  6
CONTINUOUS
 62
    2
 10
163.63571729616891
 20
17.671523628320131
 11
164.93281353986723
 21
17.671523628320131
  0
LINE
  8
_0-0_
  6
CONTINUOUS
 62
    2
 10
166.71458119226625
 20
17.671523628320131
 11
167.81458119226627
 21
17.671523628320131
  0
LINE
  8
_0-0_
  6
CONTINUOUS
 62
    2
 10
138.68389350447578
 20
17.871523628320119
 11
139.98389350447579
 21
17.871523628320119
  0
LINE
  8
_0-0_
  6
CONTINUOUS
 62
    2
 10
140.06603764280189
 20
17.871523628320119
 11
141.36603764280196
 21
17.871523628320119
  0
LINE
  8
_0-0_
  6
CONTINUOUS
 62
    2
 10
143.97285854661899
 20
17.871523628320119
 11
145.27285854661895
 21
17.871523628320119
  0
LINE
  8
_0-0_
  6
CONTINUOUS
 62
    2
 10
148.04371979686823
 20
17.871523628320119
 11
149.40000967315623
 21
17.871523628320119
  0
LINE
  8
_0-0_
  6
CONTINUOUS
 62
    2
 10
150.31895079966696
 20
17.871523628320119
 11
151.61895079966698
 21
17.871523628320119
  0
LINE
  8
_0-0_
  6
CONTINUOUS
 62
    2
 10
154.19408685769932
 20
17.871523628320119
 11
155.49408685769933
 21
17.871523628320119
  0
LINE
  8
_0-0_
  6
CONTINUOUS
 62
    2
 10
156.4940868576993
 20
17.871523628320119
 11
157.79408685769926
 21
17.871523628320119
  0
LINE
  8
_0-0_
  6
CONTINUOUS
 62
    2
 10
158.02170532424228
 20
17.871523628320119
 11
159.32170532424226
 21
17.871523628320119
  0
LINE
  8
_0-0_
  6
CONTINUOUS
 62
    2
 10
161.83582181464143
 20
17.871523628320119
 11
163.13582181464142
 21
17.871523628320119
  0
LINE
  8
_0-0_
  6
CONTINUOUS
 62
    2
 10
163.51074342578707
 20
17.871523628320119
 11
164.80783966948536
 21
17.871523628320119
  0
LINE
  8
_0-0_
  6
CONTINUOUS
 62
    2
 10
166.71458119226625
 20
17.871523628320119
 11
167.81458119226627
 21
17.871523628320119
  0
LINE
  8
_0-0_
  6
CONTINUOUS
 62
    2
 10
138.77715503610679
 20
18.071523628319994
 11
141.27277611117094
 21
18.071523628319994
  0
LINE
  8
_0-0_
  6
CONTINUOUS
 62
    2
 10
143.97285854661899
 20
18.071523628319994
 11
145.27285854661895
 21
18.071523628319994
  0
LINE
  8
_0-0_
  6
CONTINUOUS
 62
    2
 10
147.87759162966361
 20
18.071523628319994
 11
149.34298063087101
 21
18.071523628319994
  0
LINE
  8
_0-0_
  6
CONTINUOUS
 62
    2
 10
150.22568926803595
 20
18.071523628319994
 11
151.52568926803596
 21
18.071523628319994
  0
LINE
  8
_0-0_
  6
CONTINUOUS
 62
    2
 10
154.28734838933033
 20
18.071523628319994
 11
155.58734838933034
 21
18.071523628319994
  0
LINE
  8
_0-0_
  6
CONTINUOUS
 62
    2
 10
156.58734838933032
 20
18.071523628319994
 11
157.88734838933027
 21
18.071523628319994
  0
LINE
  8
_0-0_
  6
CONTINUOUS
 62
    2
 10
157.92844379261126
 20
18.071523628319994
 11
159.22844379261124
 21
18.071523628319994
  0
LINE
  8
_0-0_
  6
CONTINUOUS
 62
    2
 10
161.83582181464143
 20
18.071523628319994
 11
163.13582181464142
 21
18.071523628319994
  0
LINE
  8
_0-0_
  6
CONTINUOUS
 62
    2
 10
163.38576955540518
 20
18.071523628319994
 11
164.6828657991035
 21
18.071523628319994
  0
LINE
  8
_0-0_
  6
CONTINUOUS
 62
    2
 10
166.71458119226625
 20
18.071523628319994
 11
167.81458119226627
 21
18.071523628319994
  0
LINE
  8
_0-0_
  6
CONTINUOUS
 62
    2
 10
138.87041656773781
 20
18.271523628320153
 11
141.17951457953993
 21
18.271523628320153
  0
LINE
  8
_0-0_
  6
CONTINUOUS
 62
    2
 10
143.97285854661899
 20
18.271523628320153
 11
145.27285854661895
 21
18.271523628320153
  0
LINE
  8
_0-0_
  6
CONTINUOUS
 62
    2
 10
147.6182110953674
 20
18.271523628320153
 11
149.27245414663548
 21
18.271523628320153
  0
LINE
  8
_0-0_
  6
CONTINUOUS
 62
    2
 10
150.13242773640499
 20
18.271523628320153
 11
151.43242773640495
 21
18.271523628320153
  0
LINE
  8
_0-0_
  6
CONTINUOUS
 62
    2
 10
154.38060992096135
 20
18.271523628320153
 11
155.68060992096136
 21
18.271523628320153
  0
LINE
  8
_0-0_
  6
CONTINUOUS
 62
    2
 10
156.68060992096133
 20
18.271523628320153
 11
159.13518226098023
 21
18.271523628320153
  0
LINE
  8
_0-0_
  6
CONTINUOUS
 62
    2
 10
161.83582181464143
 20
18.271523628320153
 11
163.13582181464142
 21
18.271523628320153
  0
LINE
  8
_0-0_
  6
CONTINUOUS
 62
    2
 10
163.26079568502334
 20
18.271523628320153
 11
164.55789192872166
 21
18.271523628320153
  0
LINE
  8
_0-0_
  6
CONTINUOUS
 62
    2
 10
166.71458119226625
 20
18.271523628320153
 11
167.81458119226627
 21
18.271523628320153
  0
LINE
  8
_0-0_
  6
CONTINUOUS
 62
    2
 10
138.96367809936882
 20
18.471523628320085
 11
141.08625304790891
 21
18.471523628320085
  0
LINE
  8
_0-0_
  6
CONTINUOUS
 62
    2
 10
143.97285854661899
 20
18.471523628320085
 11
145.27285854661895
 21
18.471523628320085
  0
LINE
  8
_0-0_
  6
CONTINUOUS
 62
    2
 10
147.27285854661895
 20
18.471523628320085
 11
149.17285854661893
 21
18.471523628320085
  0
LINE
  8
_0-0_
  6
CONTINUOUS
 62
    2
 10
150.03916620477398
 20
18.471523628320085
 11
151.33916620477393
 21
18.471523628320085
  0
LINE
  8
_0-0_
  6
CONTINUOUS
 62
    2
 10
154.47387145259228
 20
18.471523628320085
 11
155.77387145259232
 21
18.471523628320085
  0
LINE
  8
_0-0_
  6
CONTINUOUS
 62
    2
 10
156.77387145259232
 20
18.471523628320085
 11
159.04192072934921
 21
18.471523628320085
  0
LINE
  8
_0-0_
  6
CONTINUOUS
 62
    2
 10
161.83582181464143
 20
18.471523628320085
 11
163.13582181464142
 21
18.471523628320085
  0
LINE
  8
_0-0_
  6
CONTINUOUS
 62
    2
 10
163.13582181464142
 20
18.471523628320085
 11
164.43291805833977
 21
18.471523628320085
  0
LINE
  8
_0-0_
  6
CONTINUOUS
 62
    2
 10
166.71458119226625
 20
18.471523628320085
 11
167.81458119226627
 21
18.471523628320085
  0
LINE
  8
_0-0_
  6
CONTINUOUS
 62
    2
 10
139.05693963099978
 20
18.671523628320131
 11
140.9929915162779
 21
18.671523628320131
  0
LINE
  8
_0-0_
  6
CONTINUOUS
 62
    2
 10
143.97285854661899
 20
18.671523628320131
 11
149.01387187583376
 21
18.671523628320131
  0
LINE
  8
_0-0_
  6
CONTINUOUS
 62
    2
 10
149.94590467314296
 20
18.671523628320131
 11
151.24590467314295
 21
18.671523628320131
  0
LINE
  8
_0-0_
  6
CONTINUOUS
 62
    2
 10
154.56713298422329
 20
18.671523628320131
 11
155.86713298422333
 21
18.671523628320131
  0
LINE
  8
_0-0_
  6
CONTINUOUS
 62
    2
 10
156.86713298422333
 20
18.671523628320131
 11
158.9486591977182
 21
18.671523628320131
  0
LINE
  8
_0-0_
  6
CONTINUOUS
 62
    2
 10
161.83582181464143
 20
18.671523628320131
 11
164.30794418795793
 21
18.671523628320131
  0
LINE
  8
_0-0_
  6
CONTINUOUS
 62
    2
 10
166.71458119226625
 20
18.671523628320131
 11
167.81458119226627
 21
18.671523628320131
  0
LINE
  8
_0-0_
  6
CONTINUOUS
 62
    2
 10
139.15020116263079
 20
18.871523628320062
 11
140.89972998464688
 21
18.871523628320062
  0
LINE
  8
_0-0_
  6
CONTINUOUS
 62
    2
 10
143.97285854661899
 20
18.871523628320062
 11
148.78944518922535
 21
18.871523628320062
  0
LINE
  8
_0-0_
  6
CONTINUOUS
 62
    2
 10
149.85264314151195
 20
18.871523628320062
 11
151.15264314151193
 21
18.871523628320062
  0
LINE
  8
_0-0_
  6
CONTINUOUS
 62
    2
 10
154.66039451585431
 20
18.871523628320062
 11
155.96039451585435
 21
18.871523628320062
  0
LINE
  8
_0-0_
  6
CONTINUOUS
 62
    2
 10
156.96039451585435
 20
18.871523628320062
 11
158.85539766608727
 21
18.871523628320062
  0
LINE
  8
_0-0_
  6
CONTINUOUS
 62
    2
 10
161.83582181464143
 20
18.871523628320062
 11
164.18297031757604
 21
18.871523628320062
  0
LINE
  8
_0-0_
  6
CONTINUOUS
 62
    2
 10
166.71458119226625
 20
18.871523628320062
 11
167.81458119226627
 21
18.871523628320062
  0
LINE
  8
_0-0_
  6
CONTINUOUS
 62
    2
 10
139.24346269426175
 20
19.071523628319994
 11
140.80646845301592
 21
19.071523628319994
  0
LINE
  8
_0-0_
  6
CONTINUOUS
 62
    2
 10
143.97285854661899
 20
19.071523628319994
 11
148.45566535259238
 21
19.071523628319994
  0
LINE
  8
_0-0_
  6
CONTINUOUS
 62
    2
 10
149.75938160988093
 20
19.071523628319994
 11
151.059381609881
 21
19.071523628319994
  0
LINE
  8
_0-0_
  6
CONTINUOUS
 62
    2
 10
154.75365604748532
 20
19.071523628319994
 11
156.05365604748528
 21
19.071523628319994
  0
LINE
  8
_0-0_
  6
CONTINUOUS
 62
    2
 10
157.0536560474853
 20
19.071523628319994
 11
158.76213613445626
 21
19.071523628319994
  0
LINE
  8
_0-0_
  6
CONTINUOUS
 62
    2
 10
161.83582181464143
 20
19.071523628319994
 11
164.0579964471942
 21
19.071523628319994
  0
LINE
  8
_0-0_
  6
CONTINUOUS
 62
    2
 10
166.71458119226625
 20
19.071523628319994
 11
167.81458119226627
 21
19.071523628319994
  0
LINE
  8
_0-0_
  6
CONTINUOUS
 62
    2
 10
139.33672422589277
 20
19.271523628320097
 11
140.71320692138491
 21
19.271523628320097
  0
LINE
  8
_0-0_
  6
CONTINUOUS
 62
    2
 10
143.97285854661899
 20
19.271523628320097
 11
147.97285854661897
 21
19.271523628320097
  0
LINE
  8
_0-0_
  6
CONTINUOUS
 62
    2
 10
149.66612007824995
 20
19.271523628320097
 11
150.96612007824999
 21
19.271523628320097
  0
LINE
  8
_0-0_
  6
CONTINUOUS
 62
    2
 10
154.84691757911634
 20
19.271523628320097
 11
156.14691757911629
 21
19.271523628320097
  0
LINE
  8
_0-0_
  6
CONTINUOUS
 62
    2
 10
157.14691757911632
 20
19.271523628320097
 11
158.66887460282527
 21
19.271523628320097
  0
LINE
  8
_0-0_
  6
CONTINUOUS
 62
    2
 10
161.83582181464143
 20
19.271523628320097
 11
163.93302257681228
 21
19.271523628320097
  0
LINE
  8
_0-0_
  6
CONTINUOUS
 62
    2
 10
166.71458119226625
 20
19.271523628320097
 11
167.81458119226627
 21
19.271523628320097
  0
LINE
  8
_0-0_
  6
CONTINUOUS
 62
    2
 10
139.42998575752378
 20
19.471523628320085
 11
140.61994538975395
 21
19.471523628320085
  0
LINE
  8
_0-0_
  6
CONTINUOUS
 62
    2
 10
143.97285854661899
 20
19.471523628320085
 11
147.27285854661895
 21
19.471523628320085
  0
LINE
  8
_0-0_
  6
CONTINUOUS
 62
    2
 10
149.57285854661893
 20
19.471523628320085
 11
150.87285854661897
 21
19.471523628320085
  0
LINE
  8
_0-0_
  6
CONTINUOUS
 62
    2
 10
154.94017911074732
 20
19.471523628320085
 11
156.24017911074731
 21
19.471523628320085
  0
LINE
  8
_0-0_
  6
CONTINUOUS
 62
    2
 10
157.24017911074733
 20
19.471523628320085
 11
158.57561307119425
 21
19.471523628320085
  0
LINE
  8
_0-0_
  6
CONTINUOUS
 62
    2
 10
161.83582181464143
 20
19.471523628320085
 11
163.80804870643047
 21
19.471523628320085
  0
LINE
  8
_0-0_
  6
CONTINUOUS
 62
    2
 10
166.71458119226625
 20
19.471523628320085
 11
167.81458119226627
 21
19.471523628320085
  0
LINE
  8
_0-0_
  6
CONTINUOUS
 62
    2
 10
136.77203210604031
 20
13.771523628320153
 11
138.07203210604027
 21
13.771523628320153
  0
LINE
  8
_0-0_
  6
CONTINUOUS
 62
    2
 10
141.97789904123741
 20
13.771523628320153
 11
143.27789904123742
 21
13.771523628320153
  0
LINE
  8
_0-0_
  6
CONTINUOUS
 62
    2
 10
143.97285854661899
 20
13.771523628320153
 11
147.48358581409869
 21
13.771523628320153
  0
LINE
  8
_0-0_
  6
CONTINUOUS
 62
    2
 10
152.23081219810248
 20
13.771523628320153
 11
153.58222545926384
 21
13.771523628320153
  0
LINE
  8
_0-0_
  6
CONTINUOUS
 62
    2
 10
154.58222545926387
 20
13.771523628320153
 11
155.88222545926382
 21
13.771523628320153
  0
LINE
  8
_0-0_
  6
CONTINUOUS
 62
    2
 10
159.9335667226778
 20
13.771523628320153
 11
161.23356672267775
 21
13.771523628320153
  0
LINE
  8
_0-0_
  6
CONTINUOUS
 62
    2
 10
161.83582181464143
 20
13.771523628320153
 11
163.13582181464142
 21
13.771523628320153
  0
LINE
  8
_0-0_
  6
CONTINUOUS
 62
    2
 10
166.07270776861526
 20
13.771523628320153
 11
167.81458119226627
 21
13.771523628320153
  0
LINE
  8
_0-0_
  6
CONTINUOUS
 62
    2
 10
136.86529363767127
 20
13.971523628320085
 11
138.16529363767128
 21
13.971523628320085
  0
LINE
  8
_0-0_
  6
CONTINUOUS
 62
    2
 10
141.88463750960645
 20
13.971523628320085
 11
143.1846375096064
 21
13.971523628320085
  0
LINE
  8
_0-0_
  6
CONTINUOUS
 62
    2
 10
143.97285854661899
 20
13.971523628320085
 11
148.12542119653639
 21
13.971523628320085
  0
LINE
  8
_0-0_
  6
CONTINUOUS
 62
    2
 10
152.13755066647147
 20
13.971523628320085
 11
153.67548699089483
 21
13.971523628320085
  0
LINE
  8
_0-0_
  6
CONTINUOUS
 62
    2
 10
154.6754869908948
 20
13.971523628320085
 11
155.97548699089484
 21
13.971523628320085
  0
LINE
  8
_0-0_
  6
CONTINUOUS
 62
    2
 10
159.84030519104678
 20
13.971523628320085
 11
161.14030519104674
 21
13.971523628320085
  0
LINE
  8
_0-0_
  6
CONTINUOUS
 62
    2
 10
161.83582181464143
 20
13.971523628320085
 11
163.13582181464142
 21
13.971523628320085
  0
LINE
  8
_0-0_
  6
CONTINUOUS
 62
    2
 10
165.94773389823345
 20
13.971523628320085
 11
167.81458119226627
 21
13.971523628320085
  0
LINE
  8
_0-0_
  6
CONTINUOUS
 62
    2
 10
136.95855516930229
 20
14.171523628320074
 11
138.2585551693023
 21
14.171523628320074
  0
LINE
  8
_0-0_
  6
CONTINUOUS
 62
    2
 10
141.79137597797543
 20
14.171523628320074
 11
143.09137597797539
 21
14.171523628320074
  0
LINE
  8
_0-0_
  6
CONTINUOUS
 62
    2
 10
143.97285854661899
 20
14.171523628320074
 11
148.56423132813887
 21
14.171523628320074
  0
LINE
  8
_0-0_
  6
CONTINUOUS
 62
    2
 10
152.04428913484045
 20
14.171523628320074
 11
153.76874852252584
 21
14.171523628320074
  0
LINE
  8
_0-0_
  6
CONTINUOUS
 62
    2
 10
154.76874852252581
 20
14.171523628320074
 11
156.06874852252585
 21
14.171523628320074
  0
LINE
  8
_0-0_
  6
CONTINUOUS
 62
    2
 10
159.74704365941577
 20
14.171523628320074
 11
161.04704365941572
 21
14.171523628320074
  0
LINE
  8
_0-0_
  6
CONTINUOUS
 62
    2
 10
161.83582181464143
 20
14.171523628320074
 11
163.13582181464142
 21
14.171523628320074
  0
LINE
  8
_0-0_
  6
CONTINUOUS
 62
    2
 10
165.82276002785156
 20
14.171523628320074
 11
167.81458119226627
 21
14.171523628320074
  0
LINE
  8
_0-0_
  6
CONTINUOUS
 62
    2
 10
137.0518167009333
 20
14.371523628320062
 11
138.35181670093331
 21
14.371523628320062
  0
LINE
  8
_0-0_
  6
CONTINUOUS
 62
    2
 10
141.69811444634442
 20
14.371523628320062
 11
142.99811444634443
 21
14.371523628320062
  0
LINE
  8
_0-0_
  6
CONTINUOUS
 62
    2
 10
143.97285854661899
 20
14.371523628320062
 11
148.85852513510599
 21
14.371523628320062
  0
LINE
  8
_0-0_
  6
CONTINUOUS
 62
    2
 10
151.95102760320944
 20
14.371523628320062
 11
153.8620100541568
 21
14.371523628320062
  0
LINE
  8
_0-0_
  6
CONTINUOUS
 62
    2
 10
154.8620100541568
 20
14.371523628320062
 11
156.16201005415687
 21
14.371523628320062
  0
LINE
  8
_0-0_
  6
CONTINUOUS
 62
    2
 10
159.65378212778475
 20
14.371523628320062
 11
160.95378212778473
 21
14.371523628320062
  0
LINE
  8
_0-0_
  6
CONTINUOUS
 62
    2
 10
161.83582181464143
 20
14.371523628320062
 11
163.13582181464142
 21
14.371523628320062
  0
LINE
  8
_0-0_
  6
CONTINUOUS
 62
    2
 10
165.69778615746969
 20
14.371523628320062
 11
167.81458119226627
 21
14.371523628320062
  0
LINE
  8
_0-0_
  6
CONTINUOUS
 62
    2
 10
137.14507823256426
 20
14.571523628320108
 11
138.44507823256427
 21
14.571523628320108
  0
LINE
  8
_0-0_
  6
CONTINUOUS
 62
    2
 10
141.6048529147134
 20
14.571523628320108
 11
142.90485291471342
 21
14.571523628320108
  0
LINE
  8
_0-0_
  6
CONTINUOUS
 62
    2
 10
143.97285854661899
 20
14.571523628320108
 11
149.06476085008052
 21
14.571523628320108
  0
LINE
  8
_0-0_
  6
CONTINUOUS
 62
    2
 10
151.85776607157842
 20
14.571523628320108
 11
153.95527158578781
 21
14.571523628320108
  0
LINE
  8
_0-0_
  6
CONTINUOUS
 62
    2
 10
154.95527158578781
 20
14.571523628320108
 11
156.2552715857878
 21
14.571523628320108
  0
LINE
  8
_0-0_
  6
CONTINUOUS
 62
    2
 10
159.56052059615374
 20
14.571523628320108
 11
160.86052059615372
 21
14.571523628320108
  0
LINE
  8
_0-0_
  6
CONTINUOUS
 62
    2
 10
161.83582181464143
 20
14.571523628320108
 11
163.13582181464142
 21
14.571523628320108
  0
LINE
  8
_0-0_
  6
CONTINUOUS
 62
    2
 10
165.57281228708788
 20
14.571523628320108
 11
167.81458119226627
 21
14.571523628320108
  0
LINE
  8
_0-0_
  6
CONTINUOUS
 62
    2
 10
137.23833976419527
 20
14.771523628320097
 11
138.53833976419529
 21
14.771523628320097
  0
LINE
  8
_0-0_
  6
CONTINUOUS
 62
    2
 10
141.51159138308239
 20
14.771523628320097
 11
142.8115913830824
 21
14.771523628320097
  0
LINE
  8
_0-0_
  6
CONTINUOUS
 62
    2
 10
143.97285854661899
 20
14.771523628320097
 11
145.27285854661895
 21
14.771523628320097
  0
LINE
  8
_0-0_
  6
CONTINUOUS
 62
    2
 10
147.37270336445303
 20
14.771523628320097
 11
149.20403925197817
 21
14.771523628320097
  0
LINE
  8
_0-0_
  6
CONTINUOUS
 62
    2
 10
151.76450453994741
 20
14.771523628320097
 11
154.04853311741883
 21
14.771523628320097
  0
LINE
  8
_0-0_
  6
CONTINUOUS
 62
    2
 10
155.04853311741883
 20
14.771523628320097
 11
156.34853311741881
 21
14.771523628320097
  0
LINE
  8
_0-0_
  6
CONTINUOUS
 62
    2
 10
159.46725906452272
 20
14.771523628320097
 11
160.76725906452279
 21
14.771523628320097
  0
LINE
  8
_0-0_
  6
CONTINUOUS
 62
    2
 10
161.83582181464143
 20
14.771523628320097
 11
163.13582181464142
 21
14.771523628320097
  0
LINE
  8
_0-0_
  6
CONTINUOUS
 62
    2
 10
165.44783841670599
 20
14.771523628320097
 11
167.81458119226627
 21
14.771523628320097
  0
LINE
  8
_0-0_
  6
CONTINUOUS
 62
    2
 10
137.33160129582629
 20
14.971523628320142
 11
138.6316012958263
 21
14.971523628320142
  0
LINE
  8
_0-0_
  6
CONTINUOUS
 62
    2
 10
141.41832985145143
 20
14.971523628320142
 11
142.71832985145144
 21
14.971523628320142
  0
LINE
  8
_0-0_
  6
CONTINUOUS
 62
    2
 10
143.97285854661899
 20
14.971523628320142
 11
145.27285854661895
 21
14.971523628320142
  0
LINE
  8
_0-0_
  6
CONTINUOUS
 62
    2
 10
147.70053715912539
 20
14.971523628320142
 11
149.29361506351046
 21
14.971523628320142
  0
LINE
  8
_0-0_
  6
CONTINUOUS
 62
    2
 10
151.67124300831645
 20
14.971523628320142
 11
154.14179464904984
 21
14.971523628320142
  0
LINE
  8
_0-0_
  6
CONTINUOUS
 62
    2
 10
155.14179464904984
 20
14.971523628320142
 11
156.4417946490498
 21
14.971523628320142
  0
LINE
  8
_0-0_
  6
CONTINUOUS
 62
    2
 10
159.37399753289174
 20
14.971523628320142
 11
160.67399753289178
 21
14.971523628320142
  0
LINE
  8
_0-0_
  6
CONTINUOUS
 62
    2
 10
161.83582181464143
 20
14.971523628320142
 11
163.13582181464142
 21
14.971523628320142
  0
LINE
  8
_0-0_
  6
CONTINUOUS
 62
    2
 10
165.3228645463241
 20
14.971523628320142
 11
166.61996079002242
 21
14.971523628320142
  0
LINE
  8
_0-0_
  6
CONTINUOUS
 62
    2
 10
166.71458119226625
 20
14.971523628320142
 11
167.81458119226627
 21
14.971523628320142
  0
LINE
  8
_0-0_
  6
CONTINUOUS
 62
    2
 10
137.4248628274573
 20
15.171523628320074
 11
142.62506831982043
 21
15.171523628320074
  0
LINE
  8
_0-0_
  6
CONTINUOUS
 62
    2
 10
143.97285854661899
 20
15.171523628320074
 11
145.27285854661895
 21
15.171523628320074
  0
LINE
  8
_0-0_
  6
CONTINUOUS
 62
    2
 10
147.93357373518725
 20
15.171523628320074
 11
149.35987363427517
 21
15.171523628320074
  0
LINE
  8
_0-0_
  6
CONTINUOUS
 62
    2
 10
151.57798147668544
 20
15.171523628320074
 11
152.87798147668542
 21
15.171523628320074
  0
LINE
  8
_0-0_
  6
CONTINUOUS
 62
    2
 10
152.93505618068082
 20
15.171523628320074
 11
154.23505618068086
 21
15.171523628320074
  0
LINE
  8
_0-0_
  6
CONTINUOUS
 62
    2
 10
155.23505618068086
 20
15.171523628320074
 11
160.58073600126076
 21
15.171523628320074
  0
LINE
  8
_0-0_
  6
CONTINUOUS
 62
    2
 10
161.83582181464143
 20
15.171523628320074
 11
163.13582181464142
 21
15.171523628320074
  0
LINE
  8
_0-0_
  6
CONTINUOUS
 62
    2
 10
165.19789067594226
 20
15.171523628320074
 11
166.49498691964052
 21
15.171523628320074
  0
LINE
  8
_0-0_
  6
CONTINUOUS
 62
    2
 10
166.71458119226625
 20
15.171523628320074
 11
167.81458119226627
 21
15.171523628320074
  0
LINE
  8
_0-0_
  6
CONTINUOUS
 62
    2
 10
137.51812435908832
 20
15.371523628320062
 11
142.53180678818941
 21
15.371523628320062
  0
LINE
  8
_0-0_
  6
CONTINUOUS
 62
    2
 10
143.97285854661899
 20
15.371523628320062
 11
145.27285854661895
 21
15.371523628320062
  0
LINE
  8
_0-0_
  6
CONTINUOUS
 62
    2
 10
148.07115311965887
 20
15.371523628320062
 11
149.41405149366571
 21
15.371523628320062
  0
LINE
  8
_0-0_
  6
CONTINUOUS
 62
    2
 10
151.48471994505445
 20
15.371523628320062
 11
152.78471994505441
 21
15.371523628320062
  0
LINE
  8
_0-0_
  6
CONTINUOUS
 62
    2
 10
153.0283177123118
 20
15.371523628320062
 11
154.32831771231179
 21
15.371523628320062
  0
LINE
  8
_0-0_
  6
CONTINUOUS
 62
    2
 10
155.32831771231187
 20
15.371523628320062
 11
160.48747446962975
 21
15.371523628320062
  0
LINE
  8
_0-0_
  6
CONTINUOUS
 62
    2
 10
161.83582181464143
 20
15.371523628320062
 11
163.13582181464142
 21
15.371523628320062
  0
LINE
  8
_0-0_
  6
CONTINUOUS
 62
    2
 10
165.07291680556037
 20
15.371523628320062
 11
166.37001304925869
 21
15.371523628320062
  0
LINE
  8
_0-0_
  6
CONTINUOUS
 62
    2
 10
166.71458119226625
 20
15.371523628320062
 11
167.81458119226627
 21
15.371523628320062
  0
LINE
  8
_0-0_
  6
CONTINUOUS
 62
    2
 10
137.61138589071928
 20
15.571523628320108
 11
142.4385452565584
 21
15.571523628320108
  0
LINE
  8
_0-0_
  6
CONTINUOUS
 62
    2
 10
143.97285854661899
 20
15.571523628320108
 11
145.27285854661895
 21
15.571523628320108
  0
LINE
  8
_0-0_
  6
CONTINUOUS
 62
    2
 10
148.15810708027763
 20
15.571523628320108
 11
149.46125518356709
 21
15.571523628320108
  0
LINE
  8
_0-0_
  6
CONTINUOUS
 62
    2
 10
151.39145841342344
 20
15.571523628320108
 11
152.69145841342339
 21
15.571523628320108
  0
LINE
  8
_0-0_
  6
CONTINUOUS
 62
    2
 10
153.12157924394282
 20
15.571523628320108
 11
154.4215792439428
 21
15.571523628320108
  0
LINE
  8
_0-0_
  6
CONTINUOUS
 62
    2
 10
155.42157924394283
 20
15.571523628320108
 11
160.39421293799873
 21
15.571523628320108
  0
LINE
  8
_0-0_
  6
CONTINUOUS
 62
    2
 10
161.83582181464143
 20
15.571523628320108
 11
163.13582181464142
 21
15.571523628320108
  0
LINE
  8
_0-0_
  6
CONTINUOUS
 62
    2
 10
164.94794293517853
 20
15.571523628320108
 11
166.24503917887685
 21
15.571523628320108
  0
LINE
  8
_0-0_
  6
CONTINUOUS
 62
    2
 10
166.71458119226625
 20
15.571523628320108
 11
167.81458119226627
 21
15.571523628320108
  0
LINE
  8
_0-0_
  6
CONTINUOUS
 62
    2
 10
137.70464742235029
 20
15.771523628320153
 11
142.34528372492738
 21
15.771523628320153
  0
LINE
  8
_0-0_
  6
CONTINUOUS
 62
    2
 10
143.97285854661899
 20
15.771523628320153
 11
145.27285854661895
 21
15.771523628320153
  0
LINE
  8
_0-0_
  6
CONTINUOUS
 62
    2
 10
148.21237587216018
 20
15.771523628320153
 11
149.49980565319336
 21
15.771523628320153
  0
LINE
  8
_0-0_
  6
CONTINUOUS
 62
    2
 10
151.29819688179242
 20
15.771523628320153
 11
152.59819688179246
 21
15.771523628320153
  0
LINE
  8
_0-0_
  6
CONTINUOUS
 62
    2
 10
153.21484077557383
 20
15.771523628320153
 11
154.51484077557382
 21
15.771523628320153
  0
LINE
  8
_0-0_
  6
CONTINUOUS
 62
    2
 10
155.51484077557384
 20
15.771523628320153
 11
160.30095140636772
 21
15.771523628320153
  0
LINE
  8
_0-0_
  6
CONTINUOUS
 62
    2
 10
161.83582181464143
 20
15.771523628320153
 11
163.13582181464142
 21
15.771523628320153
  0
LINE
  8
_0-0_
  6
CONTINUOUS
 62
    2
 10
164.82296906479661
 20
15.771523628320153
 11
166.12006530849496
 21
15.771523628320153
  0
LINE
  8
_0-0_
  6
CONTINUOUS
 62
    2
 10
166.71458119226625
 20
15.771523628320153
 11
167.81458119226627
 21
15.771523628320153
  0
LINE
  8
_0-0_
  6
CONTINUOUS
 62
    2
 10
137.79790895398125
 20
15.971523628320142
 11
142.25202219329643
 21
15.971523628320142
  0
LINE
  8
_0-0_
  6
CONTINUOUS
 62
    2
 10
143.97285854661899
 20
15.971523628320142
 11
145.27285854661895
 21
15.971523628320142
  0
LINE
  8
_0-0_
  6
CONTINUOUS
 62
    2
 10
148.24535199816455
 20
15.971523628320142
 11
149.53011796937403
 21
15.971523628320142
  0
LINE
  8
_0-0_
  6
CONTINUOUS
 62
    2
 10
151.20493535016141
 20
15.971523628320142
 11
152.50493535016147
 21
15.971523628320142
  0
LINE
  8
_0-0_
  6
CONTINUOUS
 62
    2
 10
153.30810230720485
 20
15.971523628320142
 11
154.6081023072048
 21
15.971523628320142
  0
LINE
  8
_0-0_
  6
CONTINUOUS
 62
    2
 10
155.60810230720477
 20
15.971523628320142
 11
160.20768987473673
 21
15.971523628320142
  0
LINE
  8
_0-0_
  6
CONTINUOUS
 62
    2
 10
161.83582181464143
 20
15.971523628320142
 11
163.13582181464142
 21
15.971523628320142
  0
LINE
  8
_0-0_
  6
CONTINUOUS
 62
    2
 10
164.6979951944148
 20
15.971523628320142
 11
165.99509143811304
 21
15.971523628320142
  0
LINE
  8
_0-0_
  6
CONTINUOUS
 62
    2
 10
166.71458119226625
 20
15.971523628320142
 11
167.81458119226627
 21
15.971523628320142
  0
LINE
  8
_0-0_
  6
CONTINUOUS
 62
    2
 10
137.89117048561226
 20
16.171523628320131
 11
139.19117048561233
 21
16.171523628320131
  0
LINE
  8
_0-0_
  6
CONTINUOUS
 62
    2
 10
140.8587606616654
 20
16.171523628320131
 11
142.15876066166541
 21
16.171523628320131
  0
LINE
  8
_0-0_
  6
CONTINUOUS
 62
    2
 10
143.97285854661899
 20
16.171523628320131
 11
145.27285854661895
 21
16.171523628320131
  0
LINE
  8
_0-0_
  6
CONTINUOUS
 62
    2
 10
148.26225969697813
 20
16.171523628320131
 11
149.55226783602737
 21
16.171523628320131
  0
LINE
  8
_0-0_
  6
CONTINUOUS
 62
    2
 10
151.11167381853039
 20
16.171523628320131
 11
152.41167381853046
 21
16.171523628320131
  0
LINE
  8
_0-0_
  6
CONTINUOUS
 62
    2
 10
153.40136383883586
 20
16.171523628320131
 11
154.70136383883582
 21
16.171523628320131
  0
LINE
  8
_0-0_
  6
CONTINUOUS
 62
    2
 10
155.70136383883579
 20
16.171523628320131
 11
157.00136383883583
 21
16.171523628320131
  0
LINE
  8
_0-0_
  6
CONTINUOUS
 62
    2
 10
158.81442834310573
 20
16.171523628320131
 11
160.11442834310571
 21
16.171523628320131
  0
LINE
  8
_0-0_
  6
CONTINUOUS
 62
    2
 10
161.83582181464143
 20
16.171523628320131
 11
163.13582181464142
 21
16.171523628320131
  0
LINE
  8
_0-0_
  6
CONTINUOUS
 62
    2
 10
164.57302132403291
 20
16.171523628320131
 11
165.87011756773123
 21
16.171523628320131
  0
LINE
  8
_0-0_
  6
CONTINUOUS
 62
    2
 10
166.71458119226625
 20
16.171523628320131
 11
167.81458119226627
 21
16.171523628320131
  0
LINE
  8
_0-0_
  6
CONTINUOUS
 62
    2
 10
137.98443201724328
 20
16.371523628320119
 11
139.28443201724329
 21
16.371523628320119
  0
LINE
  8
_0-0_
  6
CONTINUOUS
 62
    2
 10
140.76549913003439
 20
16.371523628320119
 11
142.06549913003445
 21
16.371523628320119
  0
LINE
  8
_0-0_
  6
CONTINUOUS
 62
    2
 10
143.97285854661899
 20
16.371523628320119
 11
145.27285854661895
 21
16.371523628320119
  0
LINE
  8
_0-0_
  6
CONTINUOUS
 62
    2
 10
148.26977845969384
 20
16.371523628320119
 11
149.56609179231847
 21
16.371523628320119
  0
LINE
  8
_0-0_
  6
CONTINUOUS
 62
    2
 10
151.01841228689946
 20
16.371523628320119
 11
152.31841228689945
 21
16.371523628320119
  0
LINE
  8
_0-0_
  6
CONTINUOUS
 62
    2
 10
153.49462537046679
 20
16.371523628320119
 11
154.79462537046683
 21
16.371523628320119
  0
LINE
  8
_0-0_
  6
CONTINUOUS
 62
    2
 10
155.7946253704668
 20
16.371523628320119
 11
157.09462537046684
 21
16.371523628320119
  0
LINE
  8
_0-0_
  6
CONTINUOUS
 62
    2
 10
158.72116681147475
 20
16.371523628320119
 11
160.02116681147479
 21
16.371523628320119
  0
LINE
  8
_0-0_
  6
CONTINUOUS
 62
    2
 10
161.83582181464143
 20
16.371523628320119
 11
163.13582181464142
 21
16.371523628320119
  0
LINE
  8
_0-0_
  6
CONTINUOUS
 62
    2
 10
164.44804745365104
 20
16.371523628320119
 11
165.74514369734933
 21
16.371523628320119
  0
LINE
  8
_0-0_
  6
CONTINUOUS
 62
    2
 10
166.71458119226625
 20
16.371523628320119
 11
167.81458119226627
 21
16.371523628320119
  0
LINE
  8
_0-0_
  6
CONTINUOUS
 62
    2
 10
138.07769354887429
 20
16.571523628319994
 11
139.3776935488743
 21
16.571523628319994
  0
LINE
  8
_0-0_
  6
CONTINUOUS
 62
    2
 10
140.67223759840337
 20
16.571523628319994
 11
141.97223759840344
 21
16.571523628319994
  0
LINE
  8
_0-0_
  6
CONTINUOUS
 62
    2
 10
143.97285854661899
 20
16.571523628319994
 11
145.27285854661895
 21
16.571523628319994
  0
LINE
  8
_0-0_
  6
CONTINUOUS
 62
    2
 10
148.27273909061773
 20
16.571523628319994
 11
149.57253465634878
 21
16.571523628319994
  0
LINE
  8
_0-0_
  6
CONTINUOUS
 62
    2
 10
150.92515075526845
 20
16.571523628319994
 11
152.22515075526843
 21
16.571523628319994
  0
LINE
  8
_0-0_
  6
CONTINUOUS
 62
    2
 10
153.58788690209781
 20
16.571523628319994
 11
154.88788690209785
 21
16.571523628319994
  0
LINE
  8
_0-0_
  6
CONTINUOUS
 62
    2
 10
155.88788690209782
 20
16.571523628319994
 11
157.18788690209786
 21
16.571523628319994
  0
LINE
  8
_0-0_
  6
CONTINUOUS
 62
    2
 10
158.62790527984373
 20
16.571523628319994
 11
159.92790527984377
 21
16.571523628319994
  0
LINE
  8
_0-0_
  6
CONTINUOUS
 62
    2
 10
161.83582181464143
 20
16.571523628319994
 11
163.13582181464142
 21
16.571523628319994
  0
LINE
  8
_0-0_
  6
CONTINUOUS
 62
    2
 10
164.32307358326918
 20
16.571523628319994
 11
165.62016982696747
 21
16.571523628319994
  0
LINE
  8
_0-0_
  6
CONTINUOUS
 62
    2
 10
166.71458119226625
 20
16.571523628319994
 11
167.81458119226627
 21
16.571523628319994
  0
LINE
  8
_0-0_
  6
CONTINUOUS
 62
    2
 10
138.17095508050531
 20
16.77152362832021
 11
139.47095508050526
 21
16.77152362832021
  0
LINE
  8
_0-0_
  6
CONTINUOUS
 62
    2
 10
140.57897606677241
 20
16.77152362832021
 11
141.87897606677242
 21
16.77152362832021
  0
LINE
  8
_0-0_
  6
CONTINUOUS
 62
    2
 10
143.97285854661899
 20
16.77152362832021
 11
145.27285854661895
 21
16.77152362832021
  0
LINE
  8
_0-0_
  6
CONTINUOUS
 62
    2
 10
148.27112852863976
 20
16.77152362832021
 11
149.5684760239273
 21
16.77152362832021
  0
LINE
  8
_0-0_
  6
CONTINUOUS
 62
    2
 10
150.83188922363746
 20
16.77152362832021
 11
152.13188922363742
 21
16.77152362832021
  0
LINE
  8
_0-0_
  6
CONTINUOUS
 62
    2
 10
153.68114843372882
 20
16.77152362832021
 11
154.98114843372886
 21
16.77152362832021
  0
LINE
  8
_0-0_
  6
CONTINUOUS
 62
    2
 10
155.98114843372883
 20
16.77152362832021
 11
157.28114843372879
 21
16.77152362832021
  0
LINE
  8
_0-0_
  6
CONTINUOUS
 62
    2
 10
158.5346437482128
 20
16.77152362832021
 11
159.83464374821276
 21
16.77152362832021
  0
LINE
  8
_0-0_
  6
CONTINUOUS
 62
    2
 10
161.83582181464143
 20
16.77152362832021
 11
163.13582181464142
 21
16.77152362832021
  0
LINE
  8
_0-0_
  6
CONTINUOUS
 62
    2
 10
164.19809971288734
 20
16.77152362832021
 11
165.4951959565856
 21
16.77152362832021
  0
LINE
  8
_0-0_
  6
CONTINUOUS
 62
    2
 10
166.71458119226625
 20
16.77152362832021
 11
167.81458119226627
 21
16.77152362832021
  0
LINE
  8
_0-0_
  6
CONTINUOUS
 62
    2
 10
138.26421661213632
 20
16.971523628320085
 11
139.56421661213628
 21
16.971523628320085
  0
LINE
  8
_0-0_
  6
CONTINUOUS
 62
    2
 10
140.48571453514145
 20
16.971523628320085
 11
141.78571453514141
 21
16.971523628320085
  0
LINE
  8
_0-0_
  6
CONTINUOUS
 62
    2
 10
143.97285854661899
 20
16.971523628320085
 11
145.27285854661895
 21
16.971523628320085
  0
LINE
  8
_0-0_
  6
CONTINUOUS
 62
    2
 10
148.26511109966177
 20
16.971523628320085
 11
149.55679583077753
 21
16.971523628320085
  0
LINE
  8
_0-0_
  6
CONTINUOUS
 62
    2
 10
150.73862769200645
 20
16.971523628320085
 11
152.0386276920064
 21
16.971523628320085
  0
LINE
  8
_0-0_
  6
CONTINUOUS
 62
    2
 10
153.77440996535981
 20
16.971523628320085
 11
155.07440996535979
 21
16.971523628320085
  0
LINE
  8
_0-0_
  6
CONTINUOUS
 62
    2
 10
156.07440996535985
 20
16.971523628320085
 11
157.3744099653598
 21
16.971523628320085
  0
LINE
  8
_0-0_
  6
CONTINUOUS
 62
    2
 10
158.44138221658179
 20
16.971523628320085
 11
159.74138221658174
 21
16.971523628320085
  0
LINE
  8
_0-0_
  6
CONTINUOUS
 62
    2
 10
161.83582181464143
 20
16.971523628320085
 11
163.13582181464142
 21
16.971523628320085
  0
LINE
  8
_0-0_
  6
CONTINUOUS
 62
    2
 10
164.07312584250545
 20
16.971523628320085
 11
165.37022208620377
 21
16.971523628320085
  0
LINE
  8
_0-0_
  6
CONTINUOUS
 62
    2
 10
166.71458119226625
 20
16.971523628320085
 11
167.81458119226627
 21
16.971523628320085
  0
LINE
  8
_0-0_
  6
CONTINUOUS
 62
    2
 10
138.35747814376728
 20
17.171523628320131
 11
139.65747814376729
 21
17.171523628320131
  0
LINE
  8
_0-0_
  6
CONTINUOUS
 62
    2
 10
140.39245300351044
 20
17.171523628320131
 11
141.69245300351039
 21
17.171523628320131
  0
LINE
  8
_0-0_
  6
CONTINUOUS
 62
    2
 10
143.97285854661899
 20
17.171523628320131
 11
145.27285854661895
 21
17.171523628320131
  0
LINE
  8
_0-0_
  6
CONTINUOUS
 62
    2
 10
148.24914540548158
 20
17.171523628320131
 11
149.53661398235812
 21
17.171523628320131
  0
LINE
  8
_0-0_
  6
CONTINUOUS
 62
    2
 10
150.64536616037543
 20
17.171523628320131
 11
151.94536616037547
 21
17.171523628320131
  0
LINE
  8
_0-0_
  6
CONTINUOUS
 62
    2
 10
153.86767149699082
 20
17.171523628320131
 11
155.16767149699081
 21
17.171523628320131
  0
LINE
  8
_0-0_
  6
CONTINUOUS
 62
    2
 10
156.16767149699083
 20
17.171523628320131
 11
157.46767149699082
 21
17.171523628320131
  0
LINE
  8
_0-0_
  6
CONTINUOUS
 62
    2
 10
158.34812068495077
 20
17.171523628320131
 11
159.64812068495078
 21
17.171523628320131
  0
LINE
  8
_0-0_
  6
CONTINUOUS
 62
    2
 10
161.83582181464143
 20
17.171523628320131
 11
163.13582181464142
 21
17.171523628320131
  0
LINE
  8
_0-0_
  6
CONTINUOUS
 62
    2
 10
163.94815197212361
 20
17.171523628320131
 11
165.24524821582187
 21
17.171523628320131
  0
LINE
  8
_0-0_
  6
CONTINUOUS
 62
    2
 10
166.71458119226625
 20
17.171523628320131
 11
167.81458119226627
 21
17.171523628320131
  0
LINE
  8
_0-0_
  6
CONTINUOUS
 62
    2
 10
138.4507396753983
 20
17.371523628320119
 11
139.75073967539831
 21
17.371523628320119
  0
LINE
  8
_0-0_
  6
CONTINUOUS
 62
    2
 10
140.29919147187942
 20
17.371523628320119
 11
141.59919147187944
 21
17.371523628320119
  0
LINE
  8
_0-0_
  6
CONTINUOUS
 62
    2
 10
143.97285854661899
 20
17.371523628320119
 11
145.27285854661895
 21
17.371523628320119
  0
LINE
  8
_0-0_
  6
CONTINUOUS
 62
    2
 10
148.22005376345189
 20
17.371523628320119
 11
149.50725155707684
 21
17.371523628320119
  0
LINE
  8
_0-0_
  6
CONTINUOUS
 62
    2
 10
150.55210462874442
 20
17.371523628320119
 11
151.85210462874446
 21
17.371523628320119
  0
LINE
  8
_0-0_
  6
CONTINUOUS
 62
    2
 10
153.96093302862184
 20
17.371523628320119
 11
155.26093302862179
 21
17.371523628320119
  0
LINE
  8
_0-0_
  6
CONTINUOUS
 62
    2
 10
156.26093302862176
 20
17.371523628320119
 11
157.56093302862183
 21
17.371523628320119
  0
LINE
  8
_0-0_
  6
CONTINUOUS
 62
    2
 10
158.25485915331976
 20
17.371523628320119
 11
159.55485915331977
 21
17.371523628320119
  0
LINE
  8
_0-0_
  6
CONTINUOUS
 62
    2
 10
161.83582181464143
 20
17.371523628320119
 11
163.13582181464142
 21
17.371523628320119
  0
LINE
  8
_0-0_
  6
CONTINUOUS
 62
    2
 10
163.82317810174172
 20
17.371523628320119
 11
165.12027434544004
 21
17.371523628320119
  0
LINE
  8
_0-0_
  6
CONTINUOUS
 62
    2
 10
166.71458119226625
 20
17.371523628320119
 11
167.81458119226627
 21
17.371523628320119
  0
LINE
  8
_0-0_
  6
CONTINUOUS
 62
    2
 10
138.54400120702925
 20
17.571523628320108
 11
139.84400120702932
 21
17.571523628320108
  0
LINE
  8
_0-0_
  6
CONTINUOUS
 62
    2
 10
140.20592994024841
 20
17.571523628320108
 11
141.50592994024842
 21
17.571523628320108
  0
LINE
  8
_0-0_
  6
CONTINUOUS
 62
    2
 10
143.97285854661899
 20
17.571523628320108
 11
145.27285854661895
 21
17.571523628320108
  0
LINE
  8
_0-0_
  6
CONTINUOUS
 62
    2
 10
148.17158351024219
 20
17.571523628320108
 11
149.46990435783775
 21
17.571523628320108
  0
LINE
  8
_0-0_
  6
CONTINUOUS
 62
    2
 10
150.4588430971134
 20
17.571523628320108
 11
151.75884309711344
 21
17.571523628320108
  0
LINE
  8
_0-0_
  6
CONTINUOUS
 62
    2
 10
154.05419456025285
 20
17.571523628320108
 11
155.35419456025281
 21
17.571523628320108
  0
LINE
  8
_0-0_
  6
CONTINUOUS
 62
    2
 10
156.35419456025278
 20
17.571523628320108
 11
157.65419456025285
 21
17.571523628320108
  0
LINE
  8
_0-0_
  6
CONTINUOUS
 62
    2
 10
158.16159762168874
 20
17.571523628320108
 11
159.46159762168875
 21
17.571523628320108
  0
LINE
  8
_0-0_
  6
CONTINUOUS
 62
    2
 10
161.83582181464143
 20
17.571523628320108
 11
163.13582181464142
 21
17.571523628320108
  0
LINE
  8
_0-0_
  6
CONTINUOUS
 62
    2
 10
163.69820423135982
 20
17.571523628320108
 11
164.99530047505814
 21
17.571523628320108
  0
LINE
  8
_0-0_
  6
CONTINUOUS
 62
    2
 10
166.71458119226625
 20
17.571523628320108
 11
167.81458119226627
 21
17.571523628320108
  0
LINE
  8
_0-0_
  6
CONTINUOUS
 62
    2
 10
138.63726273866027
 20
17.77152362832021
 11
139.93726273866028
 21
17.77152362832021
  0
LINE
  8
_0-0_
  6
CONTINUOUS
 62
    2
 10
140.1126684086174
 20
17.77152362832021
 11
141.41266840861741
 21
17.77152362832021
  0
LINE
  8
_0-0_
  6
CONTINUOUS
 62
    2
 10
143.97285854661899
 20
17.77152362832021
 11
145.27285854661895
 21
17.77152362832021
  0
LINE
  8
_0-0_
  6
CONTINUOUS
 62
    2
 10
148.0932116380319
 20
17.77152362832021
 11
149.42469000371781
 21
17.77152362832021
  0
LINE
  8
_0-0_
  6
CONTINUOUS
 62
    2
 10
150.36558156548247
 20
17.77152362832021
 11
151.66558156548248
 21
17.77152362832021
  0
LINE
  8
_0-0_
  6
CONTINUOUS
 62
    2
 10
154.14745609188387
 20
17.77152362832021
 11
155.44745609188382
 21
17.77152362832021
  0
LINE
  8
_0-0_
  6
CONTINUOUS
 62
    2
 10
156.44745609188379
 20
17.77152362832021
 11
157.74745609188383
 21
17.77152362832021
  0
LINE
  8
_0-0_
  6
CONTINUOUS
 62
    2
 10
158.06833609005778
 20
17.77152362832021
 11
159.36833609005777
 21
17.77152362832021
  0
LINE
  8
_0-0_
  6
CONTINUOUS
 62
    2
 10
161.83582181464143
 20
17.77152362832021
 11
163.13582181464142
 21
17.77152362832021
  0
LINE
  8
_0-0_
  6
CONTINUOUS
 62
    2
 10
163.57323036097796
 20
17.77152362832021
 11
164.87032660467631
 21
17.77152362832021
  0
LINE
  8
_0-0_
  6
CONTINUOUS
 62
    2
 10
166.71458119226625
 20
17.77152362832021
 11
167.81458119226627
 21
17.77152362832021
  0
LINE
  8
_0-0_
  6
CONTINUOUS
 62
    2
 10
138.73052427029128
 20
17.971523628320085
 11
141.31940687698645
 21
17.971523628320085
  0
LINE
  8
_0-0_
  6
CONTINUOUS
 62
    2
 10
143.97285854661899
 20
17.971523628320085
 11
145.27285854661895
 21
17.971523628320085
  0
LINE
  8
_0-0_
  6
CONTINUOUS
 62
    2
 10
147.97285854661897
 20
17.971523628320085
 11
149.37285854661894
 21
17.971523628320085
  0
LINE
  8
_0-0_
  6
CONTINUOUS
 62
    2
 10
150.27232003385146
 20
17.971523628320085
 11
151.57232003385147
 21
17.971523628320085
  0
LINE
  8
_0-0_
  6
CONTINUOUS
 62
    2
 10
154.24071762351483
 20
17.971523628320085
 11
155.54071762351484
 21
17.971523628320085
  0
LINE
  8
_0-0_
  6
CONTINUOUS
 62
    2
 10
156.54071762351481
 20
17.971523628320085
 11
157.84071762351476
 21
17.971523628320085
  0
LINE
  8
_0-0_
  6
CONTINUOUS
 62
    2
 10
157.97507455842677
 20
17.971523628320085
 11
159.27507455842675
 21
17.971523628320085
  0
LINE
  8
_0-0_
  6
CONTINUOUS
 62
    2
 10
161.83582181464143
 20
17.971523628320085
 11
163.13582181464142
 21
17.971523628320085
  0
LINE
  8
_0-0_
  6
CONTINUOUS
 62
    2
 10
163.44825649059615
 20
17.971523628320085
 11
164.74535273429439
 21
17.971523628320085
  0
LINE
  8
_0-0_
  6
CONTINUOUS
 62
    2
 10
166.71458119226625
 20
17.971523628320085
 11
167.81458119226627
 21
17.971523628320085
  0
LINE
  8
_0-0_
  6
CONTINUOUS
 62
    2
 10
138.8237858019223
 20
18.171523628320131
 11
141.22614534535543
 21
18.171523628320131
  0
LINE
  8
_0-0_
  6
CONTINUOUS
 62
    2
 10
143.97285854661899
 20
18.171523628320131
 11
145.27285854661895
 21
18.171523628320131
  0
LINE
  8
_0-0_
  6
CONTINUOUS
 62
    2
 10
147.76040851951933
 20
18.171523628320131
 11
149.31005716974178
 21
18.171523628320131
  0
LINE
  8
_0-0_
  6
CONTINUOUS
 62
    2
 10
150.17905850222044
 20
18.171523628320131
 11
151.47905850222045
 21
18.171523628320131
  0
LINE
  8
_0-0_
  6
CONTINUOUS
 62
    2
 10
154.33397915514584
 20
18.171523628320131
 11
155.63397915514585
 21
18.171523628320131
  0
LINE
  8
_0-0_
  6
CONTINUOUS
 62
    2
 10
156.63397915514582
 20
18.171523628320131
 11
159.18181302679574
 21
18.171523628320131
  0
LINE
  8
_0-0_
  6
CONTINUOUS
 62
    2
 10
161.83582181464143
 20
18.171523628320131
 11
163.13582181464142
 21
18.171523628320131
  0
LINE
  8
_0-0_
  6
CONTINUOUS
 62
    2
 10
163.32328262021426
 20
18.171523628320131
 11
164.62037886391258
 21
18.171523628320131
  0
LINE
  8
_0-0_
  6
CONTINUOUS
 62
    2
 10
166.71458119226625
 20
18.171523628320131
 11
167.81458119226627
 21
18.171523628320131
  0
LINE
  8
_0-0_
  6
CONTINUOUS
 62
    2
 10
138.91704733355331
 20
18.371523628320062
 11
141.13288381372442
 21
18.371523628320062
  0
LINE
  8
_0-0_
  6
CONTINUOUS
 62
    2
 10
143.97285854661899
 20
18.371523628320062
 11
145.27285854661895
 21
18.371523628320062
  0
LINE
  8
_0-0_
  6
CONTINUOUS
 62
    2
 10
147.45252407135257
 20
18.371523628320062
 11
149.22699555072356
 21
18.371523628320062
  0
LINE
  8
_0-0_
  6
CONTINUOUS
 62
    2
 10
150.08579697058948
 20
18.371523628320062
 11
151.38579697058944
 21
18.371523628320062
  0
LINE
  8
_0-0_
  6
CONTINUOUS
 62
    2
 10
154.42724068677677
 20
18.371523628320062
 11
155.72724068677687
 21
18.371523628320062
  0
LINE
  8
_0-0_
  6
CONTINUOUS
 62
    2
 10
156.72724068677681
 20
18.371523628320062
 11
159.08855149516472
 21
18.371523628320062
  0
LINE
  8
_0-0_
  6
CONTINUOUS
 62
    2
 10
161.83582181464143
 20
18.371523628320062
 11
163.13582181464142
 21
18.371523628320062
  0
LINE
  8
_0-0_
  6
CONTINUOUS
 62
    2
 10
163.19830874983239
 20
18.371523628320062
 11
164.49540499353068
 21
18.371523628320062
  0
LINE
  8
_0-0_
  6
CONTINUOUS
 62
    2
 10
166.71458119226625
 20
18.371523628320062
 11
167.81458119226627
 21
18.371523628320062
  0
LINE
  8
_0-0_
  6
CONTINUOUS
 62
    2
 10
139.01030886518433
 20
18.571523628320108
 11
141.0396222820934
 21
18.571523628320108
  0
LINE
  8
_0-0_
  6
CONTINUOUS
 62
    2
 10
143.97285854661899
 20
18.571523628320108
 11
149.10391449229147
 21
18.571523628320108
  0
LINE
  8
_0-0_
  6
CONTINUOUS
 62
    2
 10
149.99253543895847
 20
18.571523628320108
 11
151.29253543895842
 21
18.571523628320108
  0
LINE
  8
_0-0_
  6
CONTINUOUS
 62
    2
 10
154.52050221840778
 20
18.571523628320108
 11
155.82050221840782
 21
18.571523628320108
  0
LINE
  8
_0-0_
  6
CONTINUOUS
 62
    2
 10
156.82050221840782
 20
18.571523628320108
 11
158.99528996353371
 21
18.571523628320108
  0
LINE
  8
_0-0_
  6
CONTINUOUS
 62
    2
 10
161.83582181464143
 20
18.571523628320108
 11
164.37043112314882
 21
18.571523628320108
  0
LINE
  8
_0-0_
  6
CONTINUOUS
 62
    2
 10
166.71458119226625
 20
18.571523628320108
 11
167.81458119226627
 21
18.571523628320108
  0
LINE
  8
_0-0_
  6
CONTINUOUS
 62
    2
 10
139.10357039681529
 20
18.771523628320153
 11
140.94636075046239
 21
18.771523628320153
  0
LINE
  8
_0-0_
  6
CONTINUOUS
 62
    2
 10
143.97285854661899
 20
18.771523628320153
 11
148.91475335704598
 21
18.771523628320153
  0
LINE
  8
_0-0_
  6
CONTINUOUS
 62
    2
 10
149.89927390732745
 20
18.771523628320153
 11
151.19927390732744
 21
18.771523628320153
  0
LINE
  8
_0-0_
  6
CONTINUOUS
 62
    2
 10
154.6137637500388
 20
18.771523628320153
 11
155.91376375003884
 21
18.771523628320153
  0
LINE
  8
_0-0_
  6
CONTINUOUS
 62
    2
 10
156.91376375003884
 20
18.771523628320153
 11
158.90202843190269
 21
18.771523628320153
  0
LINE
  8
_0-0_
  6
CONTINUOUS
 62
    2
 10
161.83582181464143
 20
18.771523628320153
 11
164.24545725276695
 21
18.771523628320153
  0
LINE
  8
_0-0_
  6
CONTINUOUS
 62
    2
 10
166.71458119226625
 20
18.771523628320153
 11
167.81458119226627
 21
18.771523628320153
  0
LINE
  8
_0-0_
  6
CONTINUOUS
 62
    2
 10
139.19683192844624
 20
18.971523628320085
 11
140.85309921883143
 21
18.971523628320085
  0
LINE
  8
_0-0_
  6
CONTINUOUS
 62
    2
 10
143.97285854661899
 20
18.971523628320085
 11
148.63698749550829
 21
18.971523628320085
  0
LINE
  8
_0-0_
  6
CONTINUOUS
 62
    2
 10
149.80601237569644
 20
18.971523628320085
 11
151.10601237569642
 21
18.971523628320085
  0
LINE
  8
_0-0_
  6
CONTINUOUS
 62
    2
 10
154.70702528166981
 20
18.971523628320085
 11
156.00702528166977
 21
18.971523628320085
  0
LINE
  8
_0-0_
  6
CONTINUOUS
 62
    2
 10
157.0070252816698
 20
18.971523628320085
 11
158.80876690027176
 21
18.971523628320085
  0
LINE
  8
_0-0_
  6
CONTINUOUS
 62
    2
 10
161.83582181464143
 20
18.971523628320085
 11
164.12048338238512
 21
18.971523628320085
  0
LINE
  8
_0-0_
  6
CONTINUOUS
 62
    2
 10
166.71458119226625
 20
18.971523628320085
 11
167.81458119226627
 21
18.971523628320085
  0
LINE
  8
_0-0_
  6
CONTINUOUS
 62
    2
 10
139.29009346007726
 20
19.171523628320017
 11
140.75983768720042
 21
19.171523628320017
  0
LINE
  8
_0-0_
  6
CONTINUOUS
 62
    2
 10
143.97285854661899
 20
19.171523628320017
 11
148.23592154739001
 21
19.171523628320017
  0
LINE
  8
_0-0_
  6
CONTINUOUS
 62
    2
 10
149.71275084406543
 20
19.171523628320017
 11
151.01275084406549
 21
19.171523628320017
  0
LINE
  8
_0-0_
  6
CONTINUOUS
 62
    2
 10
154.80028681330083
 20
19.171523628320017
 11
156.10028681330078
 21
19.171523628320017
  0
LINE
  8
_0-0_
  6
CONTINUOUS
 62
    2
 10
157.10028681330081
 20
19.171523628320017
 11
158.71550536864075
 21
19.171523628320017
  0
LINE
  8
_0-0_
  6
CONTINUOUS
 62
    2
 10
161.83582181464143
 20
19.171523628320017
 11
163.99550951200322
 21
19.171523628320017
  0
LINE
  8
_0-0_
  6
CONTINUOUS
 62
    2
 10
166.71458119226625
 20
19.171523628320017
 11
167.81458119226627
 21
19.171523628320017
  0
LINE
  8
_0-0_
  6
CONTINUOUS
 62
    2
 10
139.38335499170827
 20
19.371523628320062
 11
140.66657615556946
 21
19.371523628320062
  0
LINE
  8
_0-0_
  6
CONTINUOUS
 62
    2
 10
143.97285854661899
 20
19.371523628320062
 11
147.64752587775564
 21
19.371523628320062
  0
LINE
  8
_0-0_
  6
CONTINUOUS
 62
    2
 10
149.61948931243444
 20
19.371523628320062
 11
150.91948931243448
 21
19.371523628320062
  0
LINE
  8
_0-0_
  6
CONTINUOUS
 62
    2
 10
154.89354834493184
 20
19.371523628320062
 11
156.1935483449318
 21
19.371523628320062
  0
LINE
  8
_0-0_
  6
CONTINUOUS
 62
    2
 10
157.19354834493183
 20
19.371523628320062
 11
158.62224383700976
 21
19.371523628320062
  0
LINE
  8
_0-0_
  6
CONTINUOUS
 62
    2
 10
161.83582181464143
 20
19.371523628320062
 11
163.87053564162139
 21
19.371523628320062
  0
LINE
  8
_0-0_
  6
CONTINUOUS
 62
    2
 10
166.71458119226625
 20
19.371523628320062
 11
167.81458119226627
 21
19.371523628320062
  0
LINE
  8
_0-0_
  6
CONTINUOUS
 62
    7
 10
125.93909576693918
 20
13.840458346444734
 11
130.1429455691372
 21
13.840458346444734
  0
LINE
  8
_0-0_
  6
CONTINUOUS
 62
    7
 10
125.93909576693918
 20
13.940458346444757
 11
130.1429455691372
 21
13.940458346444757
  0
LINE
  8
_0-0_
  6
CONTINUOUS
 62
    7
 10
125.93909576693918
 20
14.040458346444666
 11
130.1429455691372
 21
14.040458346444666
  0
LINE
  8
_0-0_
  6
CONTINUOUS
 62
    7
 10
125.93909576693918
 20
14.140458346444632
 11
130.1429455691372
 21
14.140458346444632
  0
LINE
  8
_0-0_
  6
CONTINUOUS
 62
    7
 10
125.93909576693918
 20
14.240458346444655
 11
130.1429455691372
 21
14.240458346444655
  0
LINE
  8
_0-0_
  6
CONTINUOUS
 62
    7
 10
125.93909576693918
 20
14.340458346444677
 11
130.1429455691372
 21
14.340458346444677
  0
LINE
  8
_0-0_
  6
CONTINUOUS
 62
    7
 10
125.93909576693918
 20
14.440458346444757
 11
130.1429455691372
 21
14.440458346444757
  0
LINE
  8
_0-0_
  6
CONTINUOUS
 62
    7
 10
125.93909576693918
 20
14.540458346444666
 11
130.1429455691372
 21
14.540458346444666
  0
LINE
  8
_0-0_
  6
CONTINUOUS
 62
    7
 10
125.93909576693918
 20
14.640458346444632
 11
130.1429455691372
 21
14.640458346444632
  0
LINE
  8
_0-0_
  6
CONTINUOUS
 62
    7
 10
125.93909576693918
 20
14.740458346444541
 11
130.1429455691372
 21
14.740458346444541
  0
LINE
  8
_0-0_
  6
CONTINUOUS
 62
    7
 10
125.93909576693918
 20
14.840458346444677
 11
130.1429455691372
 21
14.840458346444677
  0
LINE
  8
_0-0_
  6
CONTINUOUS
 62
    7
 10
125.93909576693918
 20
14.940458346444586
 11
130.1429455691372
 21
14.940458346444586
  0
LINE
  8
_0-0_
  6
CONTINUOUS
 62
    7
 10
125.93909576693918
 20
15.040458346444666
 11
130.1429455691372
 21
15.040458346444666
  0
LINE
  8
_0-0_
  6
CONTINUOUS
 62
    7
 10
125.93909576693918
 20
15.140458346444632
 11
130.1429455691372
 21
15.140458346444632
  0
LINE
  8
_0-0_
  6
CONTINUOUS
 62
    7
 10
125.93909576693918
 20
15.240458346444541
 11
130.1429455691372
 21
15.240458346444541
  0
LINE
  8
_0-0_
  6
CONTINUOUS
 62
    7
 10
125.93909576693918
 20
15.340458346444677
 11
130.1429455691372
 21
15.340458346444677
  0
LINE
  8
_0-0_
  6
CONTINUOUS
 62
    7
 10
125.93909576693918
 20
15.440458346444586
 11
130.1429455691372
 21
15.440458346444586
  0
LINE
  8
_0-0_
  6
CONTINUOUS
 62
    7
 10
125.93909576693918
 20
15.540458346444609
 11
130.1429455691372
 21
15.540458346444609
  0
LINE
  8
_0-0_
  6
CONTINUOUS
 62
    7
 10
125.93909576693918
 20
15.640458346444518
 11
130.1429455691372
 21
15.640458346444518
  0
LINE
  8
_0-0_
  6
CONTINUOUS
 62
    7
 10
125.93909576693918
 20
15.740458346444541
 11
130.1429455691372
 21
15.740458346444541
  0
LINE
  8
_0-0_
  6
CONTINUOUS
 62
    7
 10
125.93909576693918
 20
15.840458346444564
 11
130.1429455691372
 21
15.840458346444564
  0
LINE
  8
_0-0_
  6
CONTINUOUS
 62
    7
 10
125.93909576693918
 20
15.940458346444586
 11
130.1429455691372
 21
15.940458346444586
  0
LINE
  8
_0-0_
  6
CONTINUOUS
 62
    7
 10
125.93909576693918
 20
16.040458346444609
 11
130.1429455691372
 21
16.040458346444609
  0
LINE
  8
_0-0_
  6
CONTINUOUS
 62
    7
 10
125.93909576693918
 20
16.140458346444518
 11
130.1429455691372
 21
16.140458346444518
  0
LINE
  8
_0-0_
  6
CONTINUOUS
 62
    7
 10
125.93909576693918
 20
16.240458346444541
 11
130.1429455691372
 21
16.240458346444541
  0
LINE
  8
_0-0_
  6
CONTINUOUS
 62
    7
 10
125.93909576693918
 20
16.34045834644445
 11
130.1429455691372
 21
16.34045834644445
  0
LINE
  8
_0-0_
  6
CONTINUOUS
 62
    7
 10
125.93909576693918
 20
16.440458346444586
 11
130.1429455691372
 21
16.440458346444586
  0
LINE
  8
_0-0_
  6
CONTINUOUS
 62
    7
 10
125.93909576693918
 20
16.540458346444495
 11
130.1429455691372
 21
16.540458346444495
  0
LINE
  8
_0-0_
  6
CONTINUOUS
 62
    7
 10
125.93909576693918
 20
16.640458346444461
 11
130.1429455691372
 21
16.640458346444461
  0
LINE
  8
_0-0_
  6
CONTINUOUS
 62
    7
 10
125.93909576693918
 20
16.740458346444541
 11
130.1429455691372
 21
16.740458346444541
  0
LINE
  8
_0-0_
  6
CONTINUOUS
 62
    7
 10
125.93909576693918
 20
16.840458346444564
 11
130.1429455691372
 21
16.840458346444564
  0
LINE
  8
_0-0_
  6
CONTINUOUS
 62
    7
 10
125.93909576693918
 20
16.940458346444473
 11
130.1429455691372
 21
16.940458346444473
  0
LINE
  8
_0-0_
  6
CONTINUOUS
 62
    7
 10
125.93909576693918
 20
17.040458346444495
 11
130.1429455691372
 21
17.040458346444495
  0
LINE
  8
_0-0_
  6
CONTINUOUS
 62
    7
 10
125.93909576693918
 20
17.140458346444461
 11
130.1429455691372
 21
17.140458346444461
  0
LINE
  8
_0-0_
  6
CONTINUOUS
 62
    7
 10
125.93909576693918
 20
17.240458346444541
 11
130.1429455691372
 21
17.240458346444541
  0
LINE
  8
_0-0_
  6
CONTINUOUS
 62
    7
 10
125.93909576693918
 20
17.340458346444564
 11
130.1429455691372
 21
17.340458346444564
  0
LINE
  8
_0-0_
  6
CONTINUOUS
 62
    7
 10
125.93909576693918
 20
17.440458346444473
 11
130.1429455691372
 21
17.440458346444473
  0
LINE
  8
_0-0_
  6
CONTINUOUS
 62
    7
 10
125.93909576693918
 20
17.540458346444495
 11
130.1429455691372
 21
17.540458346444495
  0
LINE
  8
_0-0_
  6
CONTINUOUS
 62
    7
 10
125.93909576693918
 20
17.640458346444461
 11
130.1429455691372
 21
17.640458346444461
  0
LINE
  8
_0-0_
  6
CONTINUOUS
 62
    7
 10
125.93909576693918
 20
17.740458346444541
 11
130.1429455691372
 21
17.740458346444541
  0
LINE
  8
_0-0_
  6
CONTINUOUS
 62
    7
 10
125.93909576693918
 20
17.84045834644445
 11
130.1429455691372
 21
17.84045834644445
  0
LINE
  8
_0-0_
  6
CONTINUOUS
 62
    7
 10
125.93909576693918
 20
17.940458346444473
 11
130.1429455691372
 21
17.940458346444473
  0
LINE
  8
_0-0_
  6
CONTINUOUS
 62
    7
 10
135.42025831085502
 20
22.640458346444603
 11
136.88381607267601
 21
22.640458346444603
  0
LINE
  8
_0-0_
  6
CONTINUOUS
 62
    7
 10
135.14795988657042
 20
22.840458346444507
 11
137.15611449696061
 21
22.840458346444507
  0
LINE
  8
_0-0_
  6
CONTINUOUS
 62
    7
 10
134.968465419936
 20
23.040458346444581
 11
137.33560896359504
 21
23.040458346444581
  0
LINE
  8
_0-0_
  6
CONTINUOUS
 62
    7
 10
134.84302495219944
 20
23.240458346444498
 11
137.46104943133159
 21
23.240458346444498
  0
LINE
  8
_0-0_
  6
CONTINUOUS
 62
    7
 10
134.75698022246306
 20
23.440458346444643
 11
137.54709416106797
 21
23.440458346444643
  0
LINE
  8
_0-0_
  6
CONTINUOUS
 62
    7
 10
134.70329468467261
 20
23.64045834644449
 11
137.60077969885842
 21
23.64045834644449
  0
LINE
  8
_0-0_
  6
CONTINUOUS
 62
    7
 10
134.67842742112643
 20
23.840458346444521
 11
137.6256469624046
 21
23.840458346444521
  0
LINE
  8
_0-0_
  6
CONTINUOUS
 62
    7
 10
134.68091630605031
 20
24.040458346444481
 11
137.62315807748072
 21
24.040458346444481
  0
LINE
  8
_0-0_
  6
CONTINUOUS
 62
    7
 10
134.71090306731699
 20
24.240458346444512
 11
137.5931713162141
 21
24.240458346444512
  0
LINE
  8
_0-0_
  6
CONTINUOUS
 62
    7
 10
134.7701766818324
 20
24.440458346444444
 11
137.53389770169869
 21
24.440458346444444
  0
LINE
  8
_0-0_
  6
CONTINUOUS
 62
    7
 10
134.86277020111865
 20
24.640458346444504
 11
137.44130418241238
 21
24.640458346444504
  0
LINE
  8
_0-0_
  6
CONTINUOUS
 62
    7
 10
134.99666700111865
 20
24.840458346444535
 11
137.30740738241238
 21
24.840458346444535
  0
LINE
  8
_0-0_
  6
CONTINUOUS
 62
    7
 10
135.18894260570468
 20
25.040458346444495
 11
137.11513177782635
 21
25.040458346444495
  0
LINE
  8
_0-0_
  6
CONTINUOUS
 62
    7
 10
135.4885448512201
 20
25.240458346444385
 11
136.81552953231093
 21
25.240458346444385
  0
LINE
  8
_0-0_
  6
CONTINUOUS
 62
    7
 10
137.55024927994086
 20
23.44969525371225
 11
137.55024927994086
 21
24.394575960490585
  0
LINE
  8
_0-0_
  6
CONTINUOUS
 62
    7
 10
137.35024927994087
 20
23.060460074906842
 11
137.35024927994087
 21
24.783811139295992
  0
LINE
  8
_0-0_
  6
CONTINUOUS
 62
    7
 10
137.15024927994088
 20
22.835043358002054
 11
137.15024927994088
 21
25.009227856200823
  0
LINE
  8
_0-0_
  6
CONTINUOUS
 62
    7
 10
136.95024927994089
 20
22.680743488017725
 11
136.95024927994089
 21
25.163527726185094
  0
LINE
  8
_0-0_
  6
CONTINUOUS
 62
    7
 10
136.7502492799409
 20
22.572936130154886
 11
136.7502492799409
 21
25.271335084047934
  0
LINE
  8
_0-0_
  6
CONTINUOUS
 62
    7
 10
136.55024927994086
 20
22.501000826771246
 11
136.55024927994086
 21
25.34327038743163
  0
LINE
  8
_0-0_
  6
CONTINUOUS
 62
    7
 10
136.35024927994087
 20
22.459634701416107
 11
136.35024927994087
 21
25.384636512786784
  0
LINE
  8
_0-0_
  6
CONTINUOUS
 62
    7
 10
136.15024927994088
 20
22.446265106548026
 11
136.15024927994088
 21
25.398006107654851
  0
LINE
  8
_0-0_
  6
CONTINUOUS
 62
    7
 10
130.05024927994086
 20
13.819895418957401
 11
130.05024927994086
 21
18.029664629699312
  0
LINE
  8
_0-0_
  6
CONTINUOUS
 62
    7
 10
129.95024927994089
 20
13.819895418957401
 11
129.95024927994089
 21
18.029664629699312
  0
LINE
  8
_0-0_
  6
CONTINUOUS
 62
    7
 10
129.8502492799409
 20
13.819895418957401
 11
129.8502492799409
 21
18.029664629699312
  0
LINE
  8
_0-0_
  6
CONTINUOUS
 62
    7
 10
129.75024927994085
 20
13.819895418957401
 11
129.7502492799409
 21
18.029664629699312
  0
LINE
  8
_0-0_
  6
CONTINUOUS
 62
    7
 10
129.65024927994088
 20
13.819895418957401
 11
129.65024927994088
 21
18.029664629699312
  0
LINE
  8
_0-0_
  6
CONTINUOUS
 62
    7
 10
129.55024927994083
 20
13.819895418957401
 11
129.55024927994083
 21
18.029664629699312
  0
LINE
  8
_0-0_
  6
CONTINUOUS
 62
    7
 10
129.45024927994089
 20
13.819895418957401
 11
129.45024927994089
 21
18.029664629699312
  0
LINE
  8
_0-0_
  6
CONTINUOUS
 62
    7
 10
129.35024927994087
 20
13.819895418957401
 11
129.35024927994087
 21
18.029664629699312
  0
LINE
  8
_0-0_
  6
CONTINUOUS
 62
    7
 10
129.25024927994087
 20
13.819895418957401
 11
129.25024927994087
 21
18.029664629699312
  0
LINE
  8
_0-0_
  6
CONTINUOUS
 62
    7
 10
129.15024927994088
 20
13.819895418957401
 11
129.15024927994088
 21
18.029664629699312
  0
LINE
  8
_0-0_
  6
CONTINUOUS
 62
    7
 10
129.05024927994086
 20
13.819895418957401
 11
129.05024927994086
 21
18.029664629699312
  0
LINE
  8
_0-0_
  6
CONTINUOUS
 62
    7
 10
128.95024927994081
 20
13.819895418957401
 11
128.95024927994081
 21
18.029664629699312
  0
LINE
  8
_0-0_
  6
CONTINUOUS
 62
    7
 10
128.8502492799409
 20
13.819895418957401
 11
128.8502492799409
 21
18.029664629699312
  0
LINE
  8
_0-0_
  6
CONTINUOUS
 62
    7
 10
128.7502492799409
 20
13.819895418957401
 11
128.7502492799409
 21
18.029664629699312
  0
LINE
  8
_0-0_
  6
CONTINUOUS
 62
    7
 10
128.65024927994085
 20
13.819895418957401
 11
128.65024927994085
 21
18.029664629699312
  0
LINE
  8
_0-0_
  6
CONTINUOUS
 62
    7
 10
128.55024927994086
 20
13.819895418957401
 11
128.55024927994086
 21
18.029664629699312
  0
LINE
  8
_0-0_
  6
CONTINUOUS
 62
    7
 10
128.45024927994089
 20
13.819895418957401
 11
128.45024927994089
 21
18.029664629699312
  0
LINE
  8
_0-0_
  6
CONTINUOUS
 62
    7
 10
128.35024927994084
 20
13.819895418957401
 11
128.35024927994084
 21
18.029664629699312
  0
LINE
  8
_0-0_
  6
CONTINUOUS
 62
    7
 10
128.25024927994087
 20
13.819895418957401
 11
128.25024927994087
 21
18.029664629699312
  0
LINE
  8
_0-0_
  6
CONTINUOUS
 62
    7
 10
128.15024927994088
 20
13.819895418957401
 11
128.15024927994088
 21
18.029664629699312
  0
LINE
  8
_0-0_
  6
CONTINUOUS
 62
    7
 10
128.05024927994083
 20
13.819895418957401
 11
128.05024927994083
 21
18.029664629699312
  0
LINE
  8
_0-0_
  6
CONTINUOUS
 62
    7
 10
127.95024927994086
 20
13.819895418957401
 11
127.95024927994086
 21
18.029664629699312
  0
LINE
  8
_0-0_
  6
CONTINUOUS
 62
    7
 10
127.85024927994087
 20
13.819895418957401
 11
127.85024927994087
 21
18.029664629699312
  0
LINE
  8
_0-0_
  6
CONTINUOUS
 62
    7
 10
127.7502492799409
 20
13.819895418957401
 11
127.7502492799409
 21
18.029664629699312
  0
LINE
  8
_0-0_
  6
CONTINUOUS
 62
    7
 10
127.65024927994085
 20
13.819895418957401
 11
127.65024927994085
 21
18.029664629699312
  0
LINE
  8
_0-0_
  6
CONTINUOUS
 62
    7
 10
127.55024927994086
 20
13.819895418957401
 11
127.55024927994086
 21
18.029664629699312
  0
LINE
  8
_0-0_
  6
CONTINUOUS
 62
    7
 10
127.45024927994089
 20
13.819895418957401
 11
127.45024927994089
 21
18.029664629699312
  0
LINE
  8
_0-0_
  6
CONTINUOUS
 62
    7
 10
127.35024927994091
 20
13.819895418957401
 11
127.35024927994091
 21
18.029664629699312
  0
LINE
  8
_0-0_
  6
CONTINUOUS
 62
    7
 10
127.2502492799409
 20
13.819895418957401
 11
127.2502492799409
 21
18.029664629699312
  0
LINE
  8
_0-0_
  6
CONTINUOUS
 62
    7
 10
127.15024927994088
 20
13.819895418957401
 11
127.15024927994088
 21
18.029664629699312
  0
LINE
  8
_0-0_
  6
CONTINUOUS
 62
    7
 10
127.05024927994083
 20
13.819895418957401
 11
127.05024927994083
 21
18.029664629699312
  0
LINE
  8
_0-0_
  6
CONTINUOUS
 62
    7
 10
126.95024927994089
 20
13.819895418957401
 11
126.95024927994089
 21
18.029664629699312
  0
LINE
  8
_0-0_
  6
CONTINUOUS
 62
    7
 10
126.85024927994087
 20
13.819895418957401
 11
126.85024927994087
 21
18.029664629699312
  0
LINE
  8
_0-0_
  6
CONTINUOUS
 62
    7
 10
126.75024927994089
 20
13.819895418957401
 11
126.75024927994089
 21
18.029664629699312
  0
LINE
  8
_0-0_
  6
CONTINUOUS
 62
    7
 10
126.65024927994088
 20
13.819895418957401
 11
126.65024927994088
 21
18.029664629699312
  0
LINE
  8
_0-0_
  6
CONTINUOUS
 62
    7
 10
126.55024927994091
 20
13.819895418957401
 11
126.55024927994091
 21
18.029664629699312
  0
LINE
  8
_0-0_
  6
CONTINUOUS
 62
    7
 10
126.45024927994081
 20
13.819895418957401
 11
126.45024927994081
 21
18.029664629699312
  0
LINE
  8
_0-0_
  6
CONTINUOUS
 62
    7
 10
126.35024927994087
 20
13.819895418957401
 11
126.35024927994087
 21
18.029664629699312
  0
LINE
  8
_0-0_
  6
CONTINUOUS
 62
    7
 10
126.2502492799409
 20
13.819895418957401
 11
126.2502492799409
 21
18.029664629699312
  0
LINE
  8
_0-0_
  6
CONTINUOUS
 62
    7
 10
126.15024927994087
 20
13.819895418957401
 11
126.15024927994087
 21
18.029664629699312
  0
LINE
  8
_0-0_
  6
CONTINUOUS
 62
    7
 10
126.05024927994086
 20
13.819895418957401
 11
126.05024927994086
 21
18.029664629699312
  0
LINE
  8
_0-0_
  6
CONTINUOUS
 62
    7
 10
125.95024927994089
 20
13.819895418957401
 11
125.95024927994089
 21
18.029664629699312
  0
LINE
  8
_0-0_
  6
CONTINUOUS
 62
    4
 10
128.24999682742529
 20
21.106798012640326
 11
122.55983843728353
 21
13.69797953731296
  0
LINE
  8
_0-0_
  6
CONTINUOUS
 62
    4
 10
122.55983843728353
 20
13.69797953731296
 11
122.00243516641245
 21
13.465728174449907
  0
LINE
  8
_0-0_
  6
CONTINUOUS
 62
    4
 10
122.00243516641245
 20
13.465728174449907
 11
121.49148216811406
 21
13.279927084159681
  0
LINE
  8
_0-0_
  6
CONTINUOUS
 62
    4
 10
121.49148216811406
 20
13.279927084159681
 11
121.21278053267858
 21
13.535403583308778
  0
LINE
  8
_0-0_
  6
CONTINUOUS
 62
    4
 10
121.21278053267858
 20
13.535403583308778
 11
120.98052916981564
 21
13.860555491316916
  0
LINE
  8
_0-0_
  6
CONTINUOUS
 62
    4
 10
120.98052916981564
 20
13.860555491316916
 11
120.79472807952521
 21
14.487634171046807
  0
LINE
  8
_0-0_
  6
CONTINUOUS
 62
    4
 10
120.79472807952521
 20
14.487634171046807
 11
120.98052916981564
 21
15.068262578204212
  0
LINE
  8
_0-0_
  6
CONTINUOUS
 62
    4
 10
120.98052916981564
 20
15.068262578204212
 11
121.67728325840437
 21
16.066943438514784
  0
LINE
  8
_0-0_
  6
CONTINUOUS
 62
    4
 10
121.67728325840437
 20
16.066943438514784
 11
126.92616405910664
 21
23.173835142120424
  0
LINE
  8
_0-0_
  6
CONTINUOUS
 62
    4
 10
126.92616405910664
 20
23.173835142120424
 11
126.92616405910664
 21
23.68478814041876
  0
LINE
  8
_0-0_
  6
CONTINUOUS
 62
    4
 10
126.92616405910664
 20
23.68478814041876
 11
127.06551487682438
 21
24.009940048426898
  0
LINE
  8
_0-0_
  6
CONTINUOUS
 62
    4
 10
127.06551487682438
 20
24.009940048426898
 11
127.43711705740503
 21
24.427992501580206
  0
LINE
  8
_0-0_
  6
CONTINUOUS
 62
    4
 10
127.43711705740503
 20
24.427992501580206
 11
127.55324273883653
 21
24.54411818301152
  0
LINE
  8
_0-0_
  6
CONTINUOUS
 62
    4
 10
127.55324273883653
 20
24.54411818301152
 11
127.76226896541318
 21
24.846044954733458
  0
LINE
  8
_0-0_
  6
CONTINUOUS
 62
    4
 10
127.76226896541318
 20
24.846044954733458
 11
128.11064600970752
 21
24.892495227306
  0
LINE
  8
_0-0_
  6
CONTINUOUS
 62
    4
 10
128.11064600970752
 20
24.892495227306
 11
128.71449955315114
 21
25.008620908737512
  0
LINE
  8
_0-0_
  6
CONTINUOUS
 62
    4
 10
128.71449955315114
 20
25.008620908737512
 11
128.94675091601408
 21
24.98539577245117
  0
LINE
  8
_0-0_
  6
CONTINUOUS
 62
    4
 10
128.94675091601408
 20
24.98539577245117
 11
129.43447877802626
 21
24.82281981844713
  0
LINE
  8
_0-0_
  6
CONTINUOUS
 62
    4
 10
129.43447877802626
 20
24.82281981844713
 11
129.62027986831657
 21
24.590568455584275
  0
LINE
  8
_0-0_
  6
CONTINUOUS
 62
    4
 10
129.62027986831657
 20
24.590568455584275
 11
130.13123286661502
 21
23.9170395032817
  0
LINE
  8
_0-0_
  6
CONTINUOUS
 62
    4
 10
130.13123286661502
 20
23.9170395032817
 11
131.71054213408294
 21
21.292599102930609
  0
LINE
  8
_0-0_
  6
CONTINUOUS
 62
    4
 10
132.82940493486851
 20
19.40245639282324
 11
135.07727661589772
 21
15.52210202747159
  0
LINE
  8
_0-0_
  6
CONTINUOUS
 62
    4
 10
135.07727661589772
 20
15.52210202747159
 11
135.29283084830624
 21
14.967819715563962
  0
LINE
  8
_0-0_
  6
CONTINUOUS
 62
    4
 10
135.29283084830624
 20
14.967819715563962
 11
135.2004504629883
 21
14.690678559610262
  0
LINE
  8
_0-0_
  6
CONTINUOUS
 62
    4
 10
135.2004504629883
 20
14.690678559610262
 11
134.92330930703454
 21
14.305760287452188
  0
LINE
  8
_0-0_
  6
CONTINUOUS
 62
    4
 10
134.92330930703454
 20
14.305760287452188
 11
133.84553814499199
 21
13.982428938839405
  0
LINE
  8
_0-0_
  6
CONTINUOUS
 62
    4
 10
133.84553814499199
 20
13.982428938839405
 11
133.19887544776648
 21
13.75147797554456
  0
LINE
  8
_0-0_
  6
CONTINUOUS
 62
    4
 10
133.19887544776648
 20
13.75147797554456
 11
132.62919640497259
 21
13.982428938839405
  0
LINE
  8
_0-0_
  6
CONTINUOUS
 62
    4
 10
132.62919640497259
 20
13.982428938839405
 11
131.75158274445224
 21
14.92162952290505
  0
LINE
  8
_0-0_
  6
CONTINUOUS
 62
    4
 10
131.75158274445224
 20
14.92162952290505
 11
131.72078928267959
 21
15.429721642153652
  0
LINE
  8
_0-0_
  6
CONTINUOUS
 62
    4
 10
131.72078928267959
 20
15.429721642153652
 11
128.24999682742529
 21
21.106798012640326
  0
LINE
  8
_0-0_
  6
CONTINUOUS
 62
    4
 10
134.81525634282812
 20
14.273344398190773
 11
135.11780464260724
 21
14.575892697970005
  0
LINE
  8
_0-0_
  6
CONTINUOUS
 62
    4
 10
134.41119532500849
 20
14.152126092844412
 11
135.2743671161443
 21
15.015297883980281
  0
LINE
  8
_0-0_
  6
CONTINUOUS
 62
    4
 10
134.00713430718704
 20
14.030907787497938
 11
135.19517115665124
 21
15.218944636962192
  0
LINE
  8
_0-0_
  6
CONTINUOUS
 62
    4
 10
133.58152085775461
 20
13.888137050540536
 11
135.11597519715812
 21
15.422591389944159
  0
LINE
  8
_0-0_
  6
CONTINUOUS
 62
    4
 10
133.17265071763435
 20
13.762109622895423
 11
135.02422414490078
 21
15.61368305016174
  0
LINE
  8
_0-0_
  6
CONTINUOUS
 62
    4
 10
132.97139724914391
 20
13.843698866878128
 11
134.92047566716153
 21
15.792777284895806
  0
LINE
  8
_0-0_
  6
CONTINUOUS
 62
    4
 10
132.77014378065221
 20
13.925288110861402
 11
134.8167271894217
 21
15.971871519630952
  0
LINE
  8
_0-0_
  6
CONTINUOUS
 62
    4
 10
132.58825566766248
 20
14.026242710346821
 11
134.71297871168176
 21
16.150965754366098
  0
LINE
  8
_0-0_
  6
CONTINUOUS
 62
    4
 10
132.45162825570421
 20
14.172458010863522
 11
134.60923023394182
 21
16.33005998910113
  0
LINE
  8
_0-0_
  6
CONTINUOUS
 62
    4
 10
132.31500084374593
 20
14.318673311380167
 11
134.50548175620199
 21
16.509154223836333
  0
LINE
  8
_0-0_
  6
CONTINUOUS
 62
    4
 10
132.17837343178857
 20
14.464888611896129
 11
134.40173327846273
 21
16.688248458570229
  0
LINE
  8
_0-0_
  6
CONTINUOUS
 62
    4
 10
132.04174601983024
 20
14.61110391241283
 11
134.29798480072284
 21
16.867342693305375
  0
LINE
  8
_0-0_
  6
CONTINUOUS
 62
    4
 10
131.90511860787197
 20
14.757319212929644
 11
134.19423632298285
 21
17.046436928040464
  0
LINE
  8
_0-0_
  6
CONTINUOUS
 62
    4
 10
131.7684911959137
 20
14.903534513446232
 11
134.0904878452429
 21
17.22553116277561
  0
LINE
  8
_0-0_
  6
CONTINUOUS
 62
    4
 10
131.73742050150659
 20
15.155306531512394
 11
133.98673936750376
 21
17.404625397509619
  0
LINE
  8
_0-0_
  6
CONTINUOUS
 62
    4
 10
131.7212580607937
 20
15.421986803274535
 11
133.88299088976387
 21
17.583719632244708
  0
LINE
  8
_0-0_
  6
CONTINUOUS
 62
    4
 10
131.6165884771506
 20
15.600159932106465
 11
133.77924241202393
 21
17.762813866979798
  0
LINE
  8
_0-0_
  6
CONTINUOUS
 62
    4
 10
131.50927513770696
 20
15.775689305137917
 11
133.67549393428394
 21
17.941908101714887
  0
LINE
  8
_0-0_
  6
CONTINUOUS
 62
    4
 10
131.4019617982635
 20
15.951218678169482
 11
133.57174545654405
 21
18.121002336449976
  0
LINE
  8
_0-0_
  6
CONTINUOUS
 62
    4
 10
131.29464845882055
 20
16.126748051199741
 11
133.46799697880485
 21
18.300096571184042
  0
LINE
  8
_0-0_
  6
CONTINUOUS
 62
    4
 10
131.18733511937702
 20
16.302277424231249
 11
133.36424850106496
 21
18.479190805919131
  0
LINE
  8
_0-0_
  6
CONTINUOUS
 62
    4
 10
131.08002177993339
 20
16.477806797262645
 11
133.26050002332502
 21
18.658285040654278
  0
LINE
  8
_0-0_
  6
CONTINUOUS
 62
    4
 10
130.97270844048975
 20
16.653336170294097
 11
133.15675154558508
 21
18.83737927538931
  0
LINE
  8
_0-0_
  6
CONTINUOUS
 62
    4
 10
130.86539510104691
 20
16.828865543324468
 11
133.05300306784588
 21
19.016473510123319
  0
LINE
  8
_0-0_
  6
CONTINUOUS
 62
    4
 10
130.75808176160345
 20
17.004394916356091
 11
132.94925459010599
 21
19.195567744858636
  0
LINE
  8
_0-0_
  6
CONTINUOUS
 62
    4
 10
130.65076842215987
 20
17.179924289387429
 11
132.84550611236605
 21
19.374661979593611
  0
LINE
  8
_0-0_
  6
CONTINUOUS
 62
    4
 10
130.54345508271624
 20
17.355453662418824
 11
132.59045781312059
 21
19.402456392823183
  0
LINE
  8
_0-0_
  6
CONTINUOUS
 62
    4
 10
130.43614174327334
 20
17.530983035449083
 11
132.30761510064778
 21
19.402456392823467
  0
LINE
  8
_0-0_
  6
CONTINUOUS
 62
    4
 10
130.32882840382982
 20
17.706512408480705
 11
132.02477238817241
 21
19.40245639282324
  0
LINE
  8
_0-0_
  6
CONTINUOUS
 62
    4
 10
130.22151506438624
 20
17.8820417815121
 11
131.74192967569761
 21
19.402456392823467
  0
LINE
  8
_0-0_
  6
CONTINUOUS
 62
    4
 10
130.11420172494272
 20
18.057571154543496
 11
131.4590869632228
 21
19.402456392823694
  0
LINE
  8
_0-0_
  6
CONTINUOUS
 62
    4
 10
130.00688838549914
 20
18.233100527575061
 11
131.17624425074743
 21
19.402456392823353
  0
LINE
  8
_0-0_
  6
CONTINUOUS
 62
    4
 10
129.89957504605624
 20
18.408629900605376
 11
130.89340153827456
 21
19.402456392823694
  0
LINE
  8
_0-0_
  6
CONTINUOUS
 62
    4
 10
129.79226170661272
 20
18.584159273636885
 11
130.63116431815249
 21
19.423061885176651
  0
LINE
  8
_0-0_
  6
CONTINUOUS
 62
    4
 10
129.68494836716914
 20
18.75968864666828
 11
131.01753464866781
 21
20.092274928166859
  0
LINE
  8
_0-0_
  6
CONTINUOUS
 62
    4
 10
129.57763502772551
 20
18.935218019699619
 11
131.40390497918449
 21
20.761487971158658
  0
LINE
  8
_0-0_
  6
CONTINUOUS
 62
    4
 10
129.47032168828258
 20
19.110747392730048
 11
131.688613548333
 21
21.329039252780277
  0
LINE
  8
_0-0_
  6
CONTINUOUS
 62
    4
 10
129.36300834883914
 20
19.286276765761613
 11
131.58235219778985
 21
21.505620614712186
  0
LINE
  8
_0-0_
  6
CONTINUOUS
 62
    4
 10
129.25569500939554
 20
19.461806138792952
 11
131.47609084724664
 21
21.682201976644137
  0
LINE
  8
_0-0_
  6
CONTINUOUS
 62
    4
 10
129.1483816699519
 20
19.637335511824404
 11
131.36982949670349
 21
21.858783338575932
  0
LINE
  8
_0-0_
  6
CONTINUOUS
 62
    4
 10
129.04106833050832
 20
19.812864884855912
 11
131.26356814616045
 21
22.035364700507813
  0
LINE
  8
_0-0_
  6
CONTINUOUS
 62
    4
 10
128.93375499106554
 20
19.988394257886284
 11
131.15730679561804
 21
22.21194606243867
  0
LINE
  8
_0-0_
  6
CONTINUOUS
 62
    4
 10
122.21811121568345
 20
13.555593194979281
 11
123.21981837539832
 21
14.557300354694064
  0
LINE
  8
_0-0_
  6
CONTINUOUS
 62
    4
 10
128.82644165162199
 20
20.163923630917623
 11
131.05104544507495
 21
22.388527424370665
  0
LINE
  8
_0-0_
  6
CONTINUOUS
 62
    4
 10
121.75567109197439
 20
13.375995783745054
 11
124.15625708561828
 21
15.77658177738914
  0
LINE
  8
_0-0_
  6
CONTINUOUS
 62
    4
 10
128.71912831217836
 20
20.339453003949103
 11
130.9447840945318
 21
22.565108786302545
  0
LINE
  8
_0-0_
  6
CONTINUOUS
 62
    4
 10
121.43162695687914
 20
13.334794361124921
 11
125.09269579584057
 21
16.995863200086376
  0
LINE
  8
_0-0_
  6
CONTINUOUS
 62
    4
 10
128.61181497273478
 20
20.514982376980583
 11
130.83852274398859
 21
22.741690148234412
  0
LINE
  8
_0-0_
  6
CONTINUOUS
 62
    4
 10
121.28405684602356
 20
13.470066962742692
 11
126.02913450605521
 21
18.215144622774289
  0
LINE
  8
_0-0_
  6
CONTINUOUS
 62
    4
 10
128.50450163329194
 20
20.690511750010984
 11
130.73226139344629
 21
22.918271510165255
  0
LINE
  8
_0-0_
  6
CONTINUOUS
 62
    4
 10
121.15185145827689
 20
13.620704287471028
 11
126.9655732162783
 21
19.434426045472378
  0
LINE
  8
_0-0_
  6
CONTINUOUS
 62
    4
 10
128.39718829384842
 20
20.866041123042493
 11
130.62600004290309
 21
23.094852872097164
  0
LINE
  8
_0-0_
  6
CONTINUOUS
 62
    4
 10
121.03400032807903
 20
13.785695869748054
 11
127.90201192649926
 21
20.653707468168278
  0
LINE
  8
_0-0_
  6
CONTINUOUS
 62
    4
 10
128.28987495440478
 20
21.041570496073788
 11
130.51973869236005
 21
23.271434234029073
  0
LINE
  8
_0-0_
  6
CONTINUOUS
 62
    4
 10
120.94521215663988
 20
13.979750410783993
 11
130.4134773418169
 21
23.448015595960996
  0
LINE
  8
_0-0_
  6
CONTINUOUS
 62
    4
 10
120.88056239378872
 20
14.197943360407919
 11
130.30721599127375
 21
23.62459695789282
  0
LINE
  8
_0-0_
  6
CONTINUOUS
 62
    4
 10
120.81591263093762
 20
14.416136310030026
 11
130.2009546407314
 21
23.801178319823777
  0
LINE
  8
_0-0_
  6
CONTINUOUS
 62
    4
 10
120.88421527954695
 20
14.767281671114404
 11
130.08927767822658
 21
23.972344069793991
  0
LINE
  8
_0-0_
  6
CONTINUOUS
 62
    4
 10
121.16093462132275
 20
15.326843725365222
 11
129.96726709637451
 21
24.13317620041687
  0
LINE
  8
_0-0_
  6
CONTINUOUS
 62
    4
 10
121.84421713125707
 20
16.292968947774625
 11
129.84525651452256
 21
24.29400833103989
  0
LINE
  8
_0-0_
  6
CONTINUOUS
 62
    4
 10
122.64324779399104
 20
17.374842322981863
 11
129.72324593267132
 21
24.45484046166203
  0
LINE
  8
_0-0_
  6
CONTINUOUS
 62
    4
 10
123.44227845673353
 20
18.456715698199218
 11
129.60065824422855
 21
24.615095485694269
  0
LINE
  8
_0-0_
  6
CONTINUOUS
 62
    4
 10
124.24130911947472
 20
19.538589073415437
 11
129.47495037201742
 21
24.772230325958077
  0
LINE
  8
_0-0_
  6
CONTINUOUS
 62
    4
 10
125.04033978221835
 20
20.620462448634086
 11
129.29064255853021
 21
24.870765224945814
  0
LINE
  8
_0-0_
  6
CONTINUOUS
 62
    4
 10
125.83937044495846
 20
21.702335823849268
 11
129.07851052417399
 21
24.941475903064799
  0
LINE
  8
_0-0_
  6
CONTINUOUS
 62
    4
 10
126.63840110769578
 20
22.784209199059674
 11
128.84932979335341
 21
24.995137884717366
  0
LINE
  8
_0-0_
  6
CONTINUOUS
 62
    4
 10
126.92616405910692
 20
23.354814862946
 11
128.54793928388568
 21
24.976590087724645
  0
LINE
  8
_0-0_
  6
CONTINUOUS
 62
    4
 10
126.92616405910678
 20
23.637657575420818
 11
128.19775306844079
 21
24.909246584754811
  0
LINE
  8
_0-0_
  6
CONTINUOUS
 62
    4
 10
127.56102950421672
 20
24.555365733005743
 11
127.86546868910344
 21
24.859804917892475
  0
LINE
  8
_0-0_
  6
CONTINUOUS
 62
    4
 10
120.97252195117258
 20
13.887579854235526
 11
121.55652337374605
 21
13.303578431662061
  0
LINE
  8
_0-0_
  6
CONTINUOUS
 62
    4
 10
120.85343028276256
 20
14.289514235120578
 11
121.76394136289431
 21
13.379003154988766
  0
LINE
  8
_0-0_
  6
CONTINUOUS
 62
    4
 10
120.82949777159465
 20
14.596289458763465
 11
121.97135935204253
 21
13.454427878315585
  0
LINE
  8
_0-0_
  6
CONTINUOUS
 62
    4
 10
120.89806570189168
 20
14.81056424094146
 11
122.17217629721519
 21
13.536453645617883
  0
LINE
  8
_0-0_
  6
CONTINUOUS
 62
    4
 10
120.96663363218809
 20
15.024839023118318
 11
122.3718299766081
 21
13.619642678698199
  0
LINE
  8
_0-0_
  6
CONTINUOUS
 62
    4
 10
121.07321010944355
 20
15.201105258337805
 11
122.5670048580819
 21
13.707310509699425
  0
LINE
  8
_0-0_
  6
CONTINUOUS
 62
    4
 10
121.18944684059775
 20
15.367711239658718
 11
122.68987092999041
 21
13.867287150266009
  0
LINE
  8
_0-0_
  6
CONTINUOUS
 62
    4
 10
121.30568357175187
 20
15.534317220979574
 11
122.81273700189891
 21
14.027263790832592
  0
LINE
  8
_0-0_
  6
CONTINUOUS
 62
    4
 10
121.42192030290531
 20
15.700923202299407
 11
122.93560307380667
 21
14.187240431397981
  0
LINE
  8
_0-0_
  6
CONTINUOUS
 62
    4
 10
121.53815703405934
 20
15.86752918362032
 11
123.05846914571498
 21
14.347217071964621
  0
LINE
  8
_0-0_
  6
CONTINUOUS
 62
    4
 10
121.65439376521343
 20
16.034135164941347
 11
123.18133521762357
 21
14.507193712531205
  0
LINE
  8
_0-0_
  6
CONTINUOUS
 62
    4
 10
121.77377716391297
 20
16.197594478716894
 11
123.30420128953202
 21
14.667170353097845
  0
LINE
  8
_0-0_
  6
CONTINUOUS
 62
    4
 10
121.89393215079073
 20
16.360282204312227
 11
123.42706736143975
 21
14.827146993663234
  0
LINE
  8
_0-0_
  6
CONTINUOUS
 62
    4
 10
122.01408713766924
 20
16.522969929908754
 11
123.54993343334817
 21
14.987123634229818
  0
LINE
  8
_0-0_
  6
CONTINUOUS
 62
    4
 10
122.13424212454774
 20
16.685657655505395
 11
123.67279950525662
 21
15.147100274796287
  0
LINE
  8
_0-0_
  6
CONTINUOUS
 62
    4
 10
122.25439711142613
 20
16.848345381101865
 11
123.79566557716517
 21
15.30707691536287
  0
LINE
  8
_0-0_
  6
CONTINUOUS
 62
    4
 10
122.37455209830466
 20
17.011033106698449
 11
123.91853164907369
 21
15.467053555929454
  0
LINE
  8
_0-0_
  6
CONTINUOUS
 62
    4
 10
122.49470708518245
 20
17.173720832293895
 11
124.04139772098139
 21
15.62703019649507
  0
LINE
  8
_0-0_
  6
CONTINUOUS
 62
    4
 10
122.6148620720609
 20
17.336408557890479
 11
124.16426379288978
 21
15.787006837061654
  0
LINE
  8
_0-0_
  6
CONTINUOUS
 62
    4
 10
122.73501705893935
 20
17.499096283487063
 11
124.28712986479829
 21
15.946983477628066
  0
LINE
  8
_0-0_
  6
CONTINUOUS
 62
    4
 10
122.85517204581785
 20
17.661784009083533
 11
124.40999593670676
 21
16.10696011819465
  0
LINE
  8
_0-0_
  6
CONTINUOUS
 62
    4
 10
122.97532703269562
 20
17.82447173467898
 11
124.5328620086145
 21
16.266936758760096
  0
LINE
  8
_0-0_
  6
CONTINUOUS
 62
    4
 10
123.09548201957406
 20
17.987159460275564
 11
124.65572808052288
 21
16.426913399326679
  0
LINE
  8
_0-0_
  6
CONTINUOUS
 62
    4
 10
123.21563700645257
 20
18.149847185872147
 11
124.7785941524314
 21
16.586890039893262
  0
LINE
  8
_0-0_
  6
CONTINUOUS
 62
    4
 10
123.33579199333107
 20
18.312534911468731
 11
124.90146022433996
 21
16.746866680459846
  0
LINE
  8
_0-0_
  6
CONTINUOUS
 62
    4
 10
123.45594698020955
 20
18.475222637065201
 11
125.0243262962484
 21
16.906843321026429
  0
LINE
  8
_0-0_
  6
CONTINUOUS
 62
    4
 10
123.57610196708734
 20
18.637910362660648
 11
125.1471923681561
 21
17.066819961591875
  0
LINE
  8
_0-0_
  6
CONTINUOUS
 62
    4
 10
123.69625695396579
 20
18.800598088257232
 11
125.27005844006447
 21
17.226796602158458
  0
LINE
  8
_0-0_
  6
CONTINUOUS
 62
    4
 10
123.81641194084429
 20
18.963285813853815
 11
125.39292451197306
 21
17.386773242725042
  0
LINE
  8
_0-0_
  6
CONTINUOUS
 62
    4
 10
123.93656692772274
 20
19.125973539450172
 11
125.51579058388157
 21
17.546749883291511
  0
LINE
  8
_0-0_
  6
CONTINUOUS
 62
    4
 10
124.0567219146005
 20
19.288661265045903
 11
125.63865665578922
 21
17.706726523857071
  0
LINE
  8
_0-0_
  6
CONTINUOUS
 62
    4
 10
124.17687690147901
 20
19.451348990642202
 11
125.76152272769767
 21
17.866703164423654
  0
LINE
  8
_0-0_
  6
CONTINUOUS
 62
    4
 10
124.29703188835745
 20
19.6140367162389
 11
125.88438879960614
 21
18.026679804990238
  0
LINE
  8
_0-0_
  6
CONTINUOUS
 62
    4
 10
124.41718687523596
 20
19.776724441835484
 11
126.00725487151466
 21
18.186656445556707
  0
LINE
  8
_0-0_
  6
CONTINUOUS
 62
    4
 10
124.53734186211443
 20
19.939412167431783
 11
126.13012094342311
 21
18.346633086123234
  0
LINE
  8
_0-0_
  6
CONTINUOUS
 62
    4
 10
124.65749684899222
 20
20.102099893027344
 11
126.25298701533083
 21
18.506609726688851
  0
LINE
  8
_0-0_
  6
CONTINUOUS
 62
    4
 10
124.77765183587067
 20
20.26478761862387
 11
126.37585308723928
 21
18.66658636725532
  0
LINE
  8
_0-0_
  6
CONTINUOUS
 62
    4
 10
124.89780682274917
 20
20.427475344220426
 11
126.49871915914778
 21
18.826563007821903
  0
LINE
  8
_0-0_
  6
CONTINUOUS
 62
    4
 10
125.01796180962762
 20
20.59016306981701
 11
126.62158523105626
 21
18.986539648388373
  0
LINE
  8
_0-0_
  6
CONTINUOUS
 62
    4
 10
125.13811679650539
 20
20.752850795412513
 11
126.74445130296392
 21
19.146516288954047
  0
LINE
  8
_0-0_
  6
CONTINUOUS
 62
    4
 10
125.25827178338389
 20
20.91553852100904
 11
126.86731737487237
 21
19.30649292952063
  0
LINE
  8
_0-0_
  6
CONTINUOUS
 62
    4
 10
125.37842677026239
 20
21.07822624660561
 11
126.99018344678089
 21
19.466469570087042
  0
LINE
  8
_0-0_
  6
CONTINUOUS
 62
    4
 10
125.49858175714084
 20
21.240913972202094
 11
127.11304951868939
 21
19.626446210653455
  0
LINE
  8
_0-0_
  6
CONTINUOUS
 62
    4
 10
131.74730639206652
 20
14.992189337276443
 11
132.8442511442743
 21
13.89524458506861
  0
LINE
  8
_0-0_
  6
CONTINUOUS
 62
    4
 10
125.61873674401939
 20
21.403601697798663
 11
127.23591559059784
 21
19.78642285122001
  0
LINE
  8
_0-0_
  6
CONTINUOUS
 62
    4
 10
131.72905847513201
 20
15.293279966686043
 11
133.25191704035055
 21
13.770421401467502
  0
LINE
  8
_0-0_
  6
CONTINUOUS
 62
    4
 10
125.73889173089705
 20
21.566289423394224
 11
127.35878166250552
 21
19.946399491785684
  0
LINE
  8
_0-0_
  6
CONTINUOUS
 62
    4
 10
131.47747142963769
 20
15.827709724653573
 11
133.46032746006765
 21
13.844853694223673
  0
LINE
  8
_0-0_
  6
CONTINUOUS
 62
    4
 10
125.85904671777561
 20
21.728977148990566
 11
127.48164773441404
 21
20.106376132352182
  0
LINE
  8
_0-0_
  6
CONTINUOUS
 62
    4
 10
131.03252037610238
 20
16.555503490663853
 11
133.66873787978605
 21
13.919285986980242
  0
LINE
  8
_0-0_
  6
CONTINUOUS
 62
    4
 10
125.97920170465406
 20
21.891664874587178
 11
127.60451380632249
 21
20.266352772918708
  0
LINE
  8
_0-0_
  6
CONTINUOUS
 62
    4
 10
130.58756932256719
 20
17.283297256674075
 11
133.8785377568457
 21
13.992328822395621
  0
LINE
  8
_0-0_
  6
CONTINUOUS
 62
    4
 10
126.09935669153253
 20
22.054352600183677
 11
127.72737987823101
 21
20.42632941348532
  0
LINE
  8
_0-0_
  6
CONTINUOUS
 62
    4
 10
130.14261826902859
 20
18.011091022687708
 11
134.09610907413403
 21
14.057600217582205
  0
LINE
  8
_0-0_
  6
CONTINUOUS
 62
    4
 10
126.21951167841027
 20
22.217040325779209
 11
127.85024595013866
 21
20.58630605405088
  0
LINE
  8
_0-0_
  6
CONTINUOUS
 62
    4
 10
129.69766721549584
 20
18.738884788693724
 11
134.31368039142146
 21
14.122871612768051
  0
LINE
  8
_0-0_
  6
CONTINUOUS
 62
    4
 10
126.33966666528877
 20
22.379728051375764
 11
127.97311202204716
 21
20.746282694617463
  0
LINE
  8
_0-0_
  6
CONTINUOUS
 62
    4
 10
129.25271616196065
 20
19.466678554703833
 11
134.53125170870985
 21
14.188143007954693
  0
LINE
  8
_0-0_
  6
CONTINUOUS
 62
    4
 10
126.45982165216728
 20
22.542415776972263
 11
128.09597809395561
 21
20.906259335183933
  0
LINE
  8
_0-0_
  6
CONTINUOUS
 62
    4
 10
128.80776510842537
 20
20.194472320714226
 11
134.74882302599818
 21
14.253414403141392
  0
LINE
  8
_0-0_
  6
CONTINUOUS
 62
    4
 10
126.57997663904573
 20
22.705103502568832
 11
128.21884416586414
 21
21.066235975750502
  0
LINE
  8
_0-0_
  6
CONTINUOUS
 62
    4
 10
128.36281405489004
 20
20.922266086724463
 11
134.94675558257651
 21
14.338324559038085
  0
LINE
  8
_0-0_
  6
CONTINUOUS
 62
    4
 10
126.7001316259242
 20
22.867791228165316
 11
135.065154857566
 21
14.50276799652363
  0
LINE
  8
_0-0_
  6
CONTINUOUS
 62
    4
 10
126.82028661280194
 20
23.030478953760877
 11
135.18355413255463
 21
14.667211434008152
  0
LINE
  8
_0-0_
  6
CONTINUOUS
 62
    4
 10
126.92616405910714
 20
23.207444219930608
 11
130.66022017446696
 21
19.473388104570915
  0
LINE
  8
_0-0_
  6
CONTINUOUS
 62
    4
 10
130.73115188621503
 20
19.402456392822899
 11
135.26107027709807
 21
14.872538001939859
  0
LINE
  8
_0-0_
  6
CONTINUOUS
 62
    4
 10
126.92616405910675
 20
23.490286932406008
 11
130.76374779250821
 21
19.652703199004748
  0
LINE
  8
_0-0_
  6
CONTINUOUS
 62
    4
 10
131.01399459868989
 20
19.402456392823012
 11
135.19368512162467
 21
15.222765869888292
  0
LINE
  8
_0-0_
  6
CONTINUOUS
 62
    4
 10
126.95266651044543
 20
23.746627193542395
 11
130.86727541054941
 21
19.832018293438523
  0
LINE
  8
_0-0_
  6
CONTINUOUS
 62
    4
 10
131.29683731116469
 20
19.40245639282324
 11
134.93969706456048
 21
15.759596639427457
  0
LINE
  8
_0-0_
  6
CONTINUOUS
 62
    4
 10
127.03751932418717
 20
23.944617092274058
 11
130.97080302858987
 21
20.011333387871247
  0
LINE
  8
_0-0_
  6
CONTINUOUS
 62
    4
 10
131.57968002363808
 20
19.402456392823012
 11
134.55023252097996
 21
16.431903895481184
  0
LINE
  8
_0-0_
  6
CONTINUOUS
 62
    4
 10
127.15470273738192
 20
24.110276391554194
 11
131.07433064663095
 21
20.190648482305193
  0
LINE
  8
_0-0_
  6
CONTINUOUS
 62
    4
 10
131.86252273611339
 20
19.402456392822785
 11
134.1607679773966
 21
17.104211151539687
  0
LINE
  8
_0-0_
  6
CONTINUOUS
 62
    4
 10
127.28780519031139
 20
24.260016651099846
 11
131.17785826467221
 21
20.369963576739025
  0
LINE
  8
_0-0_
  6
CONTINUOUS
 62
    4
 10
132.14536544858825
 20
19.402456392822955
 11
133.77130343381324
 21
17.776518407597962
  0
LINE
  8
_0-0_
  6
CONTINUOUS
 62
    4
 10
127.42090764324077
 20
24.409756910645427
 11
131.28138588271335
 21
20.549278671172843
  0
LINE
  8
_0-0_
  6
CONTINUOUS
 62
    4
 10
132.42820816106305
 20
19.402456392823183
 11
133.38183889022937
 21
18.448825663656919
  0
LINE
  8
_0-0_
  6
CONTINUOUS
 62
    4
 10
127.55984806159114
 20
24.553659204768252
 11
131.38491350075387
 21
20.72859376560551
  0
LINE
  8
_0-0_
  6
CONTINUOUS
 62
    4
 10
132.71105087353644
 20
19.402456392823012
 11
132.99237434664562
 21
19.121132919713887
  0
LINE
  8
_0-0_
  6
CONTINUOUS
 62
    4
 10
127.67555644396722
 20
24.720793534867113
 11
131.48844111879495
 21
20.907908860039498
  0
LINE
  8
_0-0_
  6
CONTINUOUS
 62
    4
 10
127.82480905761568
 20
24.854383633693857
 11
131.59196873683621
 21
21.08722395447333
  0
LINE
  8
_0-0_
  6
CONTINUOUS
 62
    4
 10
128.07437615685814
 20
24.887659246926347
 11
131.69549635487741
 21
21.266539048907049
  0
LINE
  8
_0-0_
  6
CONTINUOUS
 62
    4
 10
128.31339306972035
 20
24.931485046539279
 11
131.34525084989068
 21
21.899627266368952
  0
LINE
  8
_0-0_
  6
CONTINUOUS
 62
    4
 10
128.55061598985907
 20
24.977104838873657
 11
130.91784408437221
 21
22.609876744360506
  0
LINE
  8
_0-0_
  6
CONTINUOUS
 62
    4
 10
128.81165853017242
 20
24.998905011035419
 11
130.49043731885476
 21
23.320126222353139
  0
LINE
  8
_0-0_
  6
CONTINUOUS
 62
    4
 10
129.18864026384023
 20
24.904765989842559
 11
129.98938351757212
 21
24.104022736110579
  0
LINE
  8
_0-0_
  6
CONTINUOUS
 62
    7
 10
135.95024927994089
 20
22.460123784416538
 11
135.95024927994089
 21
25.384147429786296
  0
LINE
  8
_0-0_
  6
CONTINUOUS
 62
    7
 10
135.75024927994085
 20
22.502007653380389
 11
135.75024927994085
 21
25.342263560822417
  0
LINE
  8
_0-0_
  6
CONTINUOUS
 62
    7
 10
135.55024927994086
 20
22.5745272662937
 11
135.55024927994086
 21
25.269743947909106
  0
LINE
  8
_0-0_
  6
CONTINUOUS
 62
    7
 10
135.35024927994087
 20
22.683050026729944
 11
135.35024927994087
 21
25.16122118747289
  0
LINE
  8
_0-0_
  6
CONTINUOUS
 62
    7
 10
135.15024927994088
 20
22.838337696625132
 11
135.15024927994088
 21
25.005933517577702
  0
LINE
  8
_0-0_
  6
CONTINUOUS
 62
    7
 10
134.95024927994089
 20
23.06545436765218
 11
134.95024927994089
 21
24.778816846550654
  0
LINE
  8
_0-0_
  6
CONTINUOUS
 62
    7
 10
134.7502492799409
 20
23.460413199920708
 11
134.7502492799409
 21
24.383858014282168
  0
LINE
  8
_0-0_
  6
CONTINUOUS
 62
    7
 10
130.64120816974867
 20
19.440458346444615
 11
134.89732729344257
 21
19.440458346444615
  0
LINE
  8
_0-0_
  6
CONTINUOUS
 62
    7
 10
130.75667822358656
 20
19.640458346444603
 11
134.78185723960468
 21
19.640458346444603
  0
LINE
  8
_0-0_
  6
CONTINUOUS
 62
    7
 10
130.87214827742449
 20
19.840458346444592
 11
134.66638718576672
 21
19.840458346444592
  0
LINE
  8
_0-0_
  6
CONTINUOUS
 62
    7
 10
130.98761833126241
 20
20.040458346444609
 11
134.5509171319288
 21
20.040458346444609
  0
LINE
  8
_0-0_
  6
CONTINUOUS
 62
    7
 10
131.10308838510036
 20
20.240458346444598
 11
134.43544707809087
 21
20.240458346444598
  0
LINE
  8
_0-0_
  6
CONTINUOUS
 62
    7
 10
131.21855843893829
 20
20.440458346444615
 11
134.31997702425292
 21
20.440458346444615
  0
LINE
  8
_0-0_
  6
CONTINUOUS
 62
    7
 10
131.33402849277618
 20
20.640458346444589
 11
134.20450697041503
 21
20.640458346444589
  0
LINE
  8
_0-0_
  6
CONTINUOUS
 62
    7
 10
131.44949854661414
 20
20.840458346444606
 11
134.08903691657707
 21
20.840458346444606
  0
LINE
  8
_0-0_
  6
CONTINUOUS
 62
    7
 10
131.56496860045206
 20
21.040458346444595
 11
133.97356686273915
 21
21.040458346444595
  0
LINE
  8
_0-0_
  6
CONTINUOUS
 62
    7
 10
131.68043865428999
 20
21.240458346444612
 11
133.85809680890122
 21
21.240458346444612
  0
LINE
  8
_0-0_
  6
CONTINUOUS
 62
    7
 10
131.79590870812791
 20
21.440458346444586
 11
133.7426267550633
 21
21.440458346444586
  0
LINE
  8
_0-0_
  6
CONTINUOUS
 62
    7
 10
131.91137876196584
 20
21.640458346444603
 11
133.62715670122537
 21
21.640458346444603
  0
LINE
  8
_0-0_
  6
CONTINUOUS
 62
    7
 10
132.02684881580376
 20
21.840458346444592
 11
133.51168664738742
 21
21.840458346444592
  0
LINE
  8
_0-0_
  6
CONTINUOUS
 62
    7
 10
132.14231886964171
 20
22.040458346444595
 11
133.3962165935495
 21
22.040458346444595
  0
LINE
  8
_0-0_
  6
CONTINUOUS
 62
    7
 10
132.25778892347961
 20
22.240458346444612
 11
133.28074653971157
 21
22.240458346444612
  0
LINE
  8
_0-0_
  6
CONTINUOUS
 62
    7
 10
132.37325897731753
 20
22.440458346444586
 11
133.16527648587365
 21
22.440458346444586
  0
LINE
  8
_0-0_
  6
CONTINUOUS
 62
    7
 10
132.48872903115546
 20
22.640458346444603
 11
133.04980643203572
 21
22.640458346444603
  0
LINE
  8
_0-0_
  6
CONTINUOUS
 62
    7
 10
132.60419908499341
 20
22.840458346444592
 11
132.93433637819777
 21
22.840458346444592
  0
LINE
  8
_0-0_
  6
CONTINUOUS
 62
    7
 10
132.71966913883134
 20
23.040458346444609
 11
132.81886632435987
 21
23.040458346444609
  0
LINE
  8
_0-0_
  6
CONTINUOUS
 62
    7
 10
134.75024927994085
 20
19.40245639282324
 11
134.75024927994085
 21
19.695204938505924
  0
LINE
  8
_0-0_
  6
CONTINUOUS
 62
    7
 10
134.55024927994083
 20
19.40245639282324
 11
134.55024927994083
 21
20.041615100019698
  0
LINE
  8
_0-0_
  6
CONTINUOUS
 62
    7
 10
134.35024927994084
 20
19.40245639282324
 11
134.35024927994084
 21
20.388025261533471
  0
LINE
  8
_0-0_
  6
CONTINUOUS
 62
    7
 10
134.15024927994085
 20
19.40245639282324
 11
134.15024927994085
 21
20.734435423047202
  0
LINE
  8
_0-0_
  6
CONTINUOUS
 62
    7
 10
133.95024927994086
 20
19.40245639282324
 11
133.95024927994086
 21
21.080845584560976
  0
LINE
  8
_0-0_
  6
CONTINUOUS
 62
    7
 10
133.75024927994085
 20
19.40245639282324
 11
133.75024927994085
 21
21.427255746074735
  0
LINE
  8
_0-0_
  6
CONTINUOUS
 62
    7
 10
133.55024927994083
 20
19.40245639282324
 11
133.55024927994083
 21
21.773665907588494
  0
LINE
  8
_0-0_
  6
CONTINUOUS
 62
    7
 10
133.35024927994084
 20
19.40245639282324
 11
133.35024927994084
 21
22.120076069102254
  0
LINE
  8
_0-0_
  6
CONTINUOUS
 62
    7
 10
133.15024927994085
 20
19.40245639282324
 11
133.15024927994085
 21
22.466486230615999
  0
LINE
  8
_0-0_
  6
CONTINUOUS
 62
    7
 10
132.95024927994086
 20
19.40245639282324
 11
132.95024927994086
 21
22.812896392129772
  0
LINE
  8
_0-0_
  6
CONTINUOUS
 62
    7
 10
132.75024927994085
 20
19.40245639282324
 11
132.75024927994085
 21
23.093424704548923
  0
LINE
  8
_0-0_
  6
CONTINUOUS
 62
    7
 10
132.55024927994083
 20
19.40245639282324
 11
132.55024927994083
 21
22.747014543035149
  0
LINE
  8
_0-0_
  6
CONTINUOUS
 62
    7
 10
132.35024927994084
 20
19.40245639282324
 11
132.35024927994084
 21
22.400604381521347
  0
LINE
  8
_0-0_
  6
CONTINUOUS
 62
    7
 10
132.15024927994085
 20
19.40245639282324
 11
132.15024927994085
 21
22.054194220007631
  0
LINE
  8
_0-0_
  6
CONTINUOUS
 62
    7
 10
131.95024927994086
 20
19.40245639282324
 11
131.95024927994086
 21
21.707784058493829
  0
LINE
  8
_0-0_
  6
CONTINUOUS
 62
    7
 10
131.75024927994085
 20
19.40245639282324
 11
131.75024927994085
 21
21.361373896980055
  0
LINE
  8
_0-0_
  6
CONTINUOUS
 62
    7
 10
131.55024927994083
 20
19.40245639282324
 11
131.55024927994083
 21
21.014963735466296
  0
LINE
  8
_0-0_
  6
CONTINUOUS
 62
    7
 10
131.35024927994084
 20
19.40245639282324
 11
131.35024927994084
 21
20.668553573952522
  0
LINE
  8
_0-0_
  6
CONTINUOUS
 62
    7
 10
131.15024927994085
 20
19.40245639282324
 11
131.15024927994085
 21
20.322143412438777
  0
LINE
  8
_0-0_
  6
CONTINUOUS
 62
    7
 10
130.95024927994086
 20
19.40245639282324
 11
130.95024927994086
 21
19.975733250925003
  0
LINE
  8
_0-0_
  6
CONTINUOUS
 62
    7
 10
130.75024927994085
 20
19.40245639282324
 11
130.75024927994085
 21
19.62932308941123
  0
TEXT
  8
_0-0_
 62
    4
 10
266.12621158683709
 20
18.838966595682223
 40
2.5
 41
1
 50
0
  1
SCALE
  0
LINE
  8
_0-0_
  6
CONTINUOUS
 62
    2
 10
261.75121158683709
 20
21.588966595682194
 11
261.75121158683709
 21
10.338966596807296
  0
LINE
  8
ADD_LINE
  6
DOT
 62
    7
 10
269.25121158683709
 20
21.588966595682194
 11
269.25121158683709
 21
10.338966596807296
  0
LINE
  8
_0-0_
  6
CONTINUOUS
 62
    2
 10
276.75121158683709
 20
21.588966595682194
 11
276.75121158683709
 21
10.338966596807296
  0
LINE
  8
ADD_LINE
  6
DOT
 62
    7
 10
281.75121158683709
 20
21.588966595682194
 11
281.75121158683709
 21
10.338966596807296
  0
LINE
  8
_0-0_
  6
CONTINUOUS
 62
    2
 10
306.75121158683709
 20
18.588966595682223
 11
241.75121158683709
 21
18.588966595682223
  0
LINE
  8
ADD_LINE
  6
DOT
 62
    7
 10
241.75121158683709
 20
20.088966595682223
 11
306.75121158683709
 21
20.088966595682223
  0
LINE
  8
ADD_LINE
  6
DOT
 62
    7
 10
241.75121158683709
 20
14.838966596357295
 11
174.30465463589576
 21
14.838966596357295
  0
LINE
  8
ADD_LINE
  6
DOT
 62
    7
 10
251.75121158683709
 20
21.588966595682194
 11
251.75121158683709
 21
10.338966596807296
  0
LINE
  8
_0-0_
  6
CONTINUOUS
 62
    2
 10
286.75121158683709
 20
28.338966595007207
 11
286.75121158683709
 21
10.338966596807296
  0
LINE
  8
ADD_LINE
  6
DOT
 62
    7
 10
291.75121158683709
 20
28.338966595007207
 11
291.75121158683709
 21
10.338966596807296
  0
LINE
  8
_0-0_
  6
CONTINUOUS
 62
    2
 10
296.75121158683709
 20
28.338966595007207
 11
296.75121158683709
 21
10.338966596807296
  0
LINE
  8
ADD_LINE
  6
DOT
 62
    7
 10
301.75121158683709
 20
28.338966595007207
 11
301.75121158683709
 21
10.338966596807296
  0
LINE
  8
_0-0_
  6
CONTINUOUS
 62
    2
 10
306.75121158683709
 20
24.963966595344715
 11
296.75121158683709
 21
24.963966595344715
  0
LINE
  8
ADD_LINE
  6
DOT
 62
    7
 10
241.75121158683709
 20
24.963966595344715
 11
296.75121158683709
 21
24.963966595344715
  0
LINE
  8
ADD_LINE
  6
DOT
 62
    7
 10
296.75121158683709
 20
26.651466595175961
 11
306.75121158683709
 21
26.651466595175961
  0
LINE
  8
ADD_LINE
  6
DOT
 62
    7
 10
296.75121158683709
 20
23.276466595513455
 11
306.75121158683709
 21
23.276466595513455
  0
LINE
  8
_0-0_
  6
CONTINUOUS
 62
    1
 10
306.75121158683709
 20
21.588966595682194
 11
241.75121158683709
 21
21.588966595682194
  0
LINE
  8
ADD_LINE
  6
DOT
 62
    7
 10
289.25121158683709
 20
28.338966595007207
 11
289.25121158683709
 21
10.338966596807296
  0
CIRCLE
  8
_0-0_
  6
CONTINUOUS
 62
    2
 10
289.25121158683709
 20
24.963966595344715
 40
2
  0
CIRCLE
  8
_0-0_
  6
CONTINUOUS
 62
    2
 10
289.25121158683709
 20
24.963966595344715
 40
1
  0
LINE
  8
_0-0_
  6
CENTER1
 62
    7
 10
289.25121158683709
 20
27.463966595344715
 11
289.25121158683709
 21
22.463966595344715
  0
TEXT
  8
_0-0_
 62
    4
 10
249.25121158683709
 20
18.838966595682223
 40
2.5
 41
1
 50
0
  1
日付
  0
TEXT
  8
_0-0_
 62
    4
 10
299.25121158683709
 20
25.401466595175961
 40
2.5
 41
1
 50
0
  1
単位
  0
TEXT
  8
_0-0_
 62
    4
 10
300.50121158683709
 20
22.026466595513455
 40
2.5
 41
1
 50
0
  1
mm
  0
LINE
  8
_0-0_
  6
CONTINUOUS
 62
    2
 10
292.25121158683709
 20
25.963966595344701
 11
295.75121158683709
 21
26.963966595344701
  0
LINE
  8
_0-0_
  6
CONTINUOUS
 62
    2
 10
295.75121158683709
 20
26.963966595344701
 11
295.75121158683709
 21
22.963966595344715
  0
LINE
  8
_0-0_
  6
CONTINUOUS
 62
    2
 10
292.25121158683709
 20
23.963966595344715
 11
295.75121158683709
 21
22.963966595344715
  0
LINE
  8
_0-0_
  6
CONTINUOUS
 62
    2
 10
292.25121158683709
 20
25.963966595344701
 11
292.25121158683709
 21
23.963966595344715
  0
LINE
  8
_0-0_
  6
CENTER1
 62
    7
 10
286.75121158683709
 20
24.963966595344715
 11
296.25121158683709
 21
24.963966595344715
  0
LINE
  8
_0-0_
  6
CONTINUOUS
 62
    1
 10
109.30465463589576
 20
148.92140570550148
 11
114.30465463589576
 21
148.92140570550148
  0
LINE
  8
_0-0_
  6
CONTINUOUS
 62
    1
 10
210.52793311136642
 20
292.5038448141957
 11
210.52793311136642
 21
287.5038448141957
  0
LINE
  8
_0-0_
  6
CONTINUOUS
 62
    1
 10
306.75121158683709
 20
148.92140570550148
 11
311.75121158683709
 21
148.92140570550148
  0
LINE
  8
_0-0_
  6
CONTINUOUS
 62
    1
 10
210.52793311136642
 20
10.338966596807296
 11
210.52793311136642
 21
5.3389665968072961
  0
LINE
  8
_0-0_
  6
CONTINUOUS
 62
    1
 10
241.75121158683709
 20
19.338966595907266
 11
174.30465463589576
 21
19.338966595907266
  0
LINE
  8
_0-0_
  6
CONTINUOUS
 62
    1
 10
174.30465463589576
 20
10.338966596807296
 11
174.30465463589576
 21
28.338966595007207
  0
LINE
  8
ADD_LINE
  6
DOT
 62
    7
 10
241.75121158683709
 20
23.838966595457237
 11
174.30465463589576
 21
23.838966595457237
  0
LINE
  8
ADD_LINE
  6
DOT
 62
    7
 10
208.02793311136642
 20
10.338966596807296
 11
208.02793311136642
 21
28.338966595007207
  0
TEXT
  8
_0-0_
 62
    4
 10
175.30465463589576
 20
24.838966595007207
 40
2.5
 41
1
 50
0
  1
品番
  0
TEXT
  8
_0-0_
 62
    4
 10
175.30465463589576
 20
15.838966595907266
 40
2.5
 41
1
 50
0
  1
名称
  0
LINE
  8
_0-1_
  6
CONTINUOUS
 62
    7
 10
167.06147042756422
 20
180.45694503250735
 11
227.06147042756433
 21
180.45694503250735
  0
LINE
  8
_0-1_
  6
CONTINUOUS
 62
    7
 10
167.06147042756422
 20
215.45694503250741
 11
167.06147042756422
 21
180.45694503250735
  0
LINE
  8
_0-1_
  6
CONTINUOUS
 62
    7
 10
239.32222256066433
 20
187.03100120270744
 11
244.42012595476433
 21
187.65694503250745
  0
LINE
  8
_0-1_
  6
CONTINUOUS
 62
    7
 10
234.06147042756433
 20
186.75694503250745
 11
239.32222256066433
 21
187.03100120270744
  0
LINE
  8
_0-1_
  6
CONTINUOUS
 62
    7
 10
234.06147042756433
 20
187.15378095650743
 11
244.11032750996432
 21
187.62888364250733
  0
LINE
  8
_0-1_
  6
CONTINUOUS
 62
    7
 10
244.42012595476433
 20
187.65694503250745
 11
244.51253739786421
 21
187.65936491130745
  0
LINE
  8
_0-1_
  6
CONTINUOUS
 62
    7
 10
264.65020137916429
 20
188.18668820090744
 11
267.67029759866421
 21
188.26577220360744
  0
LINE
  8
_0-1_
  6
CONTINUOUS
 62
    7
 10
268.06147042756436
 20
188.27601542470745
 11
271.60073585606432
 21
188.36869435160745
  0
LINE
  8
_0-1_
  6
CONTINUOUS
 62
    7
 10
234.06147042756433
 20
186.75694503250745
 11
233.26984106176423
 21
186.75694503250745
  0
LINE
  8
_0-1_
  6
CONTINUOUS
 62
    7
 10
234.06147042756433
 20
187.15378095650743
 11
233.13941109856432
 21
187.15378095650743
  0
LINE
  8
_0-1_
  6
CONTINUOUS
 62
    7
 10
246.46381032926433
 20
187.23076634710745
 11
263.35118834726433
 21
187.23076634710745
  0
LINE
  8
_0-1_
  6
CONTINUOUS
 62
    7
 10
172.0614704275643
 20
205.45694503250735
 11
172.0614704275643
 21
215.45694503250741
  0
LINE
  8
_0-1_
  6
CONTINUOUS
 62
    7
 10
244.51249373726432
 20
192.06829888650745
 11
246.46381032926433
 21
192.28343183480743
  0
LINE
  8
_0-1_
  6
CONTINUOUS
 62
    7
 10
244.51249373726432
 20
192.24150396720745
 11
246.46381032926433
 21
192.45663691560745
  0
LINE
  8
_0-1_
  6
CONTINUOUS
 62
    7
 10
234.06147042756433
 20
187.89922858590745
 11
239.51757803346433
 21
188.10997667520735
  0
LINE
  8
_0-1_
  6
CONTINUOUS
 62
    7
 10
234.06147042756433
 20
190.30320266110735
 11
244.11032750996432
 21
190.41093296100735
  0
LINE
  8
_0-1_
  6
CONTINUOUS
 62
    7
 10
234.06147042756433
 20
187.89922858590745
 11
233.26984106176423
 21
187.89922858590745
  0
LINE
  8
_0-1_
  6
CONTINUOUS
 62
    7
 10
268.06147042756436
 20
188.65694503250745
 11
267.67029759866421
 21
188.65694503250745
  0
LINE
  8
_0-1_
  6
CONTINUOUS
 62
    7
 10
248.02664147836421
 20
189.55694503250734
 11
247.56147042756433
 21
189.55694503250734
  0
LINE
  8
_0-1_
  6
CONTINUOUS
 62
    7
 10
232.96492739526423
 20
189.55694503250734
 11
231.56147042756433
 21
189.55694503250734
  0
LINE
  8
_0-1_
  6
CONTINUOUS
 62
    7
 10
230.96492739526423
 20
189.55694503250734
 11
229.56147042756433
 21
189.55694503250734
  0
LINE
  8
_0-1_
  6
CONTINUOUS
 62
    7
 10
228.96492739526423
 20
189.55694503250734
 11
227.56147042756433
 21
189.55694503250734
  0
LINE
  8
_0-1_
  6
CONTINUOUS
 62
    7
 10
234.06147042756433
 20
190.30320266110735
 11
233.13941109856432
 21
190.30320266110735
  0
LINE
  8
_0-1_
  6
CONTINUOUS
 62
    7
 10
233.26984106176423
 20
190.65694503250745
 11
239.32222256066433
 21
190.65694503250745
  0
LINE
  8
_0-1_
  6
CONTINUOUS
 62
    7
 10
234.06147042756433
 20
191.01068740390744
 11
233.13941109856432
 21
191.01068740390744
  0
LINE
  8
_0-1_
  6
CONTINUOUS
 62
    7
 10
233.06147042756433
 20
191.75694503250745
 11
232.65801331976431
 21
191.75694503250745
  0
LINE
  8
_0-1_
  6
CONTINUOUS
 62
    7
 10
232.06147042756433
 20
191.75694503250745
 11
230.65801331976422
 21
191.75694503250745
  0
LINE
  8
_0-1_
  6
CONTINUOUS
 62
    7
 10
230.06147042756433
 20
191.75694503250745
 11
228.65801331976431
 21
191.75694503250745
  0
LINE
  8
_0-1_
  6
CONTINUOUS
 62
    7
 10
228.06147042756433
 20
191.75694503250745
 11
227.06147042756433
 21
191.75694503250745
  0
LINE
  8
_0-1_
  6
CONTINUOUS
 62
    7
 10
246.46381032926433
 20
192.28343183480743
 11
263.35118834726433
 21
192.28343183480743
  0
LINE
  8
_0-1_
  6
CONTINUOUS
 62
    7
 10
246.46381032926433
 20
192.45663691560745
 11
263.35118834726433
 21
192.45663691560745
  0
LINE
  8
_0-1_
  6
CONTINUOUS
 62
    7
 10
234.06147042756433
 20
191.01068740390744
 11
244.11032750996432
 21
190.90295710400744
  0
LINE
  8
_0-1_
  6
CONTINUOUS
 62
    7
 10
268.06147042756436
 20
192.65694503250745
 11
267.67029759866421
 21
192.65694503250745
  0
LINE
  8
_0-1_
  6
CONTINUOUS
 62
    7
 10
234.06147042756433
 20
193.41466147910745
 11
233.26984106176423
 21
193.41466147910745
  0
LINE
  8
_0-1_
  6
CONTINUOUS
 62
    7
 10
234.06147042756433
 20
194.16010910850744
 11
233.13941109856432
 21
194.16010910850744
  0
LINE
  8
_0-1_
  6
CONTINUOUS
 62
    7
 10
234.06147042756433
 20
194.55694503250734
 11
233.26984106176423
 21
194.55694503250734
  0
LINE
  8
_0-1_
  6
CONTINUOUS
 62
    7
 10
244.42012595476433
 20
193.65694503250745
 11
245.55033303856433
 21
193.62734951850734
  0
LINE
  8
_0-1_
  6
CONTINUOUS
 62
    7
 10
262.06147042756436
 20
193.19499016980734
 11
267.67029759866421
 21
193.04811786140743
  0
LINE
  8
_0-1_
  6
CONTINUOUS
 62
    7
 10
268.06147042756436
 20
193.03787464040735
 11
271.60073585606432
 21
192.94519571340734
  0
LINE
  8
_0-1_
  6
CONTINUOUS
 62
    7
 10
234.06147042756433
 20
193.41466147910745
 11
239.51757803346433
 21
193.20391338980733
  0
LINE
  8
_0-1_
  6
CONTINUOUS
 62
    7
 10
234.06147042756433
 20
194.16010910850744
 11
244.11032750996432
 21
193.68500642250734
  0
LINE
  8
_0-1_
  6
CONTINUOUS
 62
    7
 10
234.06147042756433
 20
194.55694503250734
 11
239.32222256066433
 21
194.28288886230743
  0
LINE
  8
_0-1_
  6
CONTINUOUS
 62
    7
 10
239.32222256066433
 20
194.28288886230743
 11
244.42012595476433
 21
193.65694503250745
  0
LINE
  8
_0-1_
  6
CONTINUOUS
 62
    7
 10
244.51249373726432
 20
187.66103224380734
 11
246.46381032926433
 21
187.23076634710745
  0
LINE
  8
_0-1_
  6
CONTINUOUS
 62
    7
 10
239.32222256066433
 20
202.03100120270733
 11
244.42012595476433
 21
202.65694503250745
  0
LINE
  8
_0-1_
  6
CONTINUOUS
 62
    7
 10
234.06147042756433
 20
201.75694503250742
 11
239.32222256066433
 21
202.03100120270733
  0
LINE
  8
_0-1_
  6
CONTINUOUS
 62
    7
 10
234.06147042756433
 20
202.15378095650732
 11
244.11032750996432
 21
202.62888364250745
  0
LINE
  8
_0-1_
  6
CONTINUOUS
 62
    7
 10
234.06147042756433
 20
202.89922858590745
 11
239.51757803346433
 21
203.10997667520741
  0
LINE
  8
_0-1_
  6
CONTINUOUS
 62
    7
 10
244.42012595476433
 20
202.65694503250745
 11
246.13834297586433
 21
202.70193812870741
  0
LINE
  8
_0-1_
  6
CONTINUOUS
 62
    7
 10
264.19045961106428
 20
203.17464943900745
 11
267.67029759866421
 21
203.2657722036073
  0
LINE
  8
_0-1_
  6
CONTINUOUS
 62
    7
 10
268.06147042756436
 20
203.27601542470745
 11
271.60073585006432
 21
203.36869435140744
  0
LINE
  8
_0-1_
  6
CONTINUOUS
 62
    7
 10
234.06147042756433
 20
201.75694503250742
 11
233.26984106176423
 21
201.75694503250742
  0
LINE
  8
_0-1_
  6
CONTINUOUS
 62
    7
 10
234.06147042756433
 20
202.15378095650732
 11
233.13941109856432
 21
202.15378095650732
  0
LINE
  8
_0-1_
  6
CONTINUOUS
 62
    7
 10
246.46381032926433
 20
202.63978725310744
 11
263.35118834726433
 21
202.63978725310744
  0
LINE
  8
_0-1_
  6
CONTINUOUS
 62
    7
 10
246.46381032926433
 20
202.73978725310735
 11
263.35118834726433
 21
202.73978725310735
  0
LINE
  8
_0-1_
  6
CONTINUOUS
 62
    7
 10
234.06147042756433
 20
202.89922858590745
 11
233.26984106176423
 21
202.89922858590745
  0
LINE
  8
_0-1_
  6
CONTINUOUS
 62
    7
 10
187.06147042756433
 20
205.45694503250735
 11
187.06147042756433
 21
215.45694503250741
  0
LINE
  8
_0-1_
  6
CONTINUOUS
 62
    7
 10
244.51249373726432
 20
208.20148161500742
 11
246.46381032926433
 21
208.57410281200731
  0
LINE
  8
_0-1_
  6
CONTINUOUS
 62
    7
 10
244.51249373726432
 20
208.30148161500745
 11
246.46381032926433
 21
208.67410281200745
  0
LINE
  8
_0-1_
  6
CONTINUOUS
 62
    7
 10
234.06147042756433
 20
205.30320266110732
 11
244.11032750996432
 21
205.4109329610074
  0
LINE
  8
_0-1_
  6
CONTINUOUS
 62
    7
 10
262.06147042756436
 20
205.30440725060731
 11
245.58193410566423
 21
205.21761764420745
  0
LINE
  8
_0-1_
  6
CONTINUOUS
 62
    7
 10
268.06147042756436
 20
203.65694503250745
 11
267.67029759866421
 21
203.65694503250745
  0
LINE
  8
_0-1_
  6
CONTINUOUS
 62
    7
 10
232.96492739526423
 20
204.55694503250731
 11
231.56147042756433
 21
204.55694503250731
  0
LINE
  8
_0-1_
  6
CONTINUOUS
 62
    7
 10
230.96492739526423
 20
204.55694503250731
 11
229.56147042756433
 21
204.55694503250731
  0
LINE
  8
_0-1_
  6
CONTINUOUS
 62
    7
 10
228.96492739526423
 20
204.55694503250731
 11
227.56147042756433
 21
204.55694503250731
  0
LINE
  8
_0-1_
  6
CONTINUOUS
 62
    7
 10
234.06147042756433
 20
205.30320266110732
 11
233.13941109856432
 21
205.30320266110732
  0
LINE
  8
_0-1_
  6
CONTINUOUS
 62
    7
 10
172.0614704275643
 20
205.45694503250735
 11
187.06147042756433
 21
205.45694503250735
  0
LINE
  8
_0-1_
  6
CONTINUOUS
 62
    7
 10
233.26984106176423
 20
205.65694503250745
 11
239.32222256066433
 21
205.65694503250745
  0
LINE
  8
_0-1_
  6
CONTINUOUS
 62
    7
 10
234.06147042756433
 20
206.01068740390741
 11
233.13941109856432
 21
206.01068740390741
  0
LINE
  8
_0-1_
  6
CONTINUOUS
 62
    7
 10
233.06147042756433
 20
206.75694503250742
 11
232.65801331976431
 21
206.75694503250742
  0
LINE
  8
_0-1_
  6
CONTINUOUS
 62
    7
 10
232.06147042756433
 20
206.75694503250742
 11
230.65801331976422
 21
206.75694503250742
  0
LINE
  8
_0-1_
  6
CONTINUOUS
 62
    7
 10
230.06147042756433
 20
206.75694503250742
 11
228.65801331976431
 21
206.75694503250742
  0
LINE
  8
_0-1_
  6
CONTINUOUS
 62
    7
 10
228.06147042756433
 20
206.75694503250742
 11
227.06147042756433
 21
206.75694503250742
  0
LINE
  8
_0-1_
  6
CONTINUOUS
 62
    7
 10
268.06147042756436
 20
207.65694503250745
 11
267.67029759866421
 21
207.65694503250745
  0
LINE
  8
_0-1_
  6
CONTINUOUS
 62
    7
 10
234.06147042756433
 20
208.41466147910745
 11
233.26984106176423
 21
208.41466147910745
  0
LINE
  8
_0-1_
  6
CONTINUOUS
 62
    7
 10
246.46381032926433
 20
208.57410281200731
 11
263.35118834726433
 21
208.57410281200731
  0
LINE
  8
_0-1_
  6
CONTINUOUS
 62
    7
 10
245.58193410566423
 20
206.09627242080745
 11
262.06147042756436
 21
206.00948281440742
  0
LINE
  8
_0-1_
  6
CONTINUOUS
 62
    7
 10
234.06147042756433
 20
206.01068740390741
 11
244.11032750996432
 21
205.90295710400744
  0
LINE
  8
_0-1_
  6
CONTINUOUS
 62
    7
 10
244.51249373726432
 20
203.01240845000734
 11
246.46381032926433
 21
202.63978725310744
  0
LINE
  8
_0-1_
  6
CONTINUOUS
 62
    7
 10
244.51249373726432
 20
203.11240845000742
 11
246.46381032926433
 21
202.73978725310735
  0
LINE
  8
_0-1_
  6
CONTINUOUS
 62
    7
 10
246.46381032926433
 20
208.67410281200745
 11
263.35118834726433
 21
208.67410281200745
  0
LINE
  8
_0-1_
  6
CONTINUOUS
 62
    7
 10
234.06147042756433
 20
209.16010910850741
 11
233.13941109856432
 21
209.16010910850741
  0
LINE
  8
_0-1_
  6
CONTINUOUS
 62
    7
 10
234.06147042756433
 20
209.55694503250731
 11
233.26984106176423
 21
209.55694503250731
  0
LINE
  8
_0-1_
  6
CONTINUOUS
 62
    7
 10
244.42012595476433
 20
208.65694503250745
 11
246.13834297586433
 21
208.61195193640742
  0
LINE
  8
_0-1_
  6
CONTINUOUS
 62
    7
 10
264.19045961106428
 20
208.13924062600745
 11
267.67029759866421
 21
208.04811786140732
  0
LINE
  8
_0-1_
  6
CONTINUOUS
 62
    7
 10
268.06147042756436
 20
208.03787464040744
 11
271.60073585006432
 21
207.9451957136074
  0
LINE
  8
_0-1_
  6
CONTINUOUS
 62
    7
 10
234.06147042756433
 20
208.41466147910745
 11
239.51757803346433
 21
208.20391338980744
  0
LINE
  8
_0-1_
  6
CONTINUOUS
 62
    7
 10
234.06147042756433
 20
209.16010910850741
 11
244.11032750996432
 21
208.6850064225074
  0
LINE
  8
_0-1_
  6
CONTINUOUS
 62
    7
 10
234.06147042756433
 20
209.55694503250731
 11
239.32222256066433
 21
209.28288886230735
  0
LINE
  8
_0-1_
  6
CONTINUOUS
 62
    7
 10
239.32222256066433
 20
209.28288886230735
 11
244.42012595476433
 21
208.65694503250745
  0
LINE
  8
_0-1_
  6
CONTINUOUS
 62
    7
 10
263.35118834726433
 20
192.28343183480743
 11
264.65305458366436
 21
191.80442106490744
  0
LINE
  8
_0-1_
  6
CONTINUOUS
 62
    7
 10
263.35118834726433
 20
192.45663691560745
 11
264.65305458366436
 21
191.97762614570735
  0
LINE
  8
_0-1_
  6
CONTINUOUS
 62
    7
 10
227.06147042756433
 20
215.45694503250741
 11
187.06147042756433
 21
215.45694503250741
  0
LINE
  8
_0-1_
  6
CONTINUOUS
 62
    7
 10
172.0614704275643
 20
215.45694503250741
 11
167.06147042756422
 21
215.45694503250741
  0
LINE
  8
_0-1_
  6
CONTINUOUS
 62
    7
 10
227.06359292826431
 20
189.34952418980734
 11
227.06356680626433
 21
189.34958011750734
  0
LINE
  8
_0-1_
  6
CONTINUOUS
 62
    7
 10
228.55934789026432
 20
191.96436595360734
 11
228.55909687436423
 21
191.96490293370735
  0
LINE
  8
_0-1_
  6
CONTINUOUS
 62
    7
 10
229.06363656786422
 20
189.34943077630734
 11
229.06359299956432
 21
189.34952403720735
  0
LINE
  8
_0-1_
  6
CONTINUOUS
 62
    7
 10
230.55934796476433
 20
191.96436579420745
 11
230.55925159436433
 21
191.96457204850745
  0
LINE
  8
_0-1_
  6
CONTINUOUS
 62
    7
 10
231.06359295716433
 20
189.34952412800735
 11
231.06351546426433
 21
189.34969006720743
  0
LINE
  8
_0-1_
  6
CONTINUOUS
 62
    7
 10
232.55934790746423
 20
191.96436591680745
 11
232.55910038906433
 21
191.96489542050745
  0
LINE
  8
_0-1_
  6
CONTINUOUS
 62
    7
 10
228.55934789026432
 20
206.96436595360734
 11
228.55909687436423
 21
206.96490293370732
  0
LINE
  8
_0-1_
  6
CONTINUOUS
 62
    7
 10
229.06363656786422
 20
204.34943077630743
 11
229.06359299956432
 21
204.3495240372074
  0
LINE
  8
_0-1_
  6
CONTINUOUS
 62
    7
 10
230.55934796476433
 20
206.96436579420742
 11
230.55925159436433
 21
206.96457204850742
  0
LINE
  8
_0-1_
  6
CONTINUOUS
 62
    7
 10
227.06359292826431
 20
204.34952418980731
 11
227.06356680626433
 21
204.34958011750734
  0
LINE
  8
_0-1_
  6
CONTINUOUS
 62
    7
 10
231.06359295716433
 20
204.34952412800732
 11
231.06351546426433
 21
204.34969006720735
  0
LINE
  8
_0-1_
  6
CONTINUOUS
 62
    7
 10
263.35118834726433
 20
208.57410281200731
 11
264.65305458366436
 21
207.74443182110741
  0
LINE
  8
_0-1_
  6
CONTINUOUS
 62
    7
 10
263.35118834726433
 20
208.67410281200745
 11
264.65305458366436
 21
207.84443182110743
  0
LINE
  8
_0-1_
  6
CONTINUOUS
 62
    7
 10
232.55934790746423
 20
206.96436591680742
 11
232.55910038906433
 21
206.96489542050745
  0
LINE
  8
_0-1_
  6
CONTINUOUS
 62
    7
 10
227.06147042756433
 20
180.45694503250735
 11
227.06147042756433
 21
215.45694503250741
  0
LINE
  8
_0-1_
  6
CONTINUOUS
 62
    7
 10
233.06147042756433
 20
187.70694503250735
 11
233.06147042756433
 21
193.60694503250744
  0
LINE
  8
_0-1_
  6
CONTINUOUS
 62
    7
 10
233.06147042756433
 20
202.70694503250741
 11
233.06147042756433
 21
208.60694503250744
  0
LINE
  8
_0-1_
  6
CONTINUOUS
 62
    7
 10
234.06147042756433
 20
186.75694503250745
 11
234.06147042756433
 21
194.55694503250734
  0
LINE
  8
_0-1_
  6
CONTINUOUS
 62
    7
 10
234.06147042756433
 20
201.75694503250742
 11
234.06147042756433
 21
209.55694503250731
  0
LINE
  8
_0-1_
  6
CONTINUOUS
 62
    7
 10
227.55934792546432
 20
204.3495241868074
 11
227.55913441486433
 21
204.3490673873074
  0
LINE
  8
_0-1_
  6
CONTINUOUS
 62
    7
 10
244.42012595476433
 20
208.65694503250745
 11
244.42012595476433
 21
202.65694503250745
  0
LINE
  8
_0-1_
  6
CONTINUOUS
 62
    7
 10
244.42012595476433
 20
187.65694503250745
 11
244.42012595476433
 21
193.65694503250745
  0
LINE
  8
_0-1_
  6
CONTINUOUS
 62
    7
 10
246.46381032926433
 20
192.28343183480743
 11
246.46381032926433
 21
192.45663691560745
  0
LINE
  8
_0-1_
  6
CONTINUOUS
 62
    7
 10
246.46381032926433
 20
202.63978725310744
 11
246.46381032926433
 21
202.73978725310735
  0
LINE
  8
_0-1_
  6
CONTINUOUS
 62
    7
 10
246.46381032926433
 20
208.57410281200731
 11
246.46381032926433
 21
208.67410281200745
  0
LINE
  8
_0-1_
  6
CONTINUOUS
 62
    7
 10
230.06360607776432
 20
206.96439402520741
 11
230.06359301236421
 21
206.96436605530744
  0
LINE
  8
_0-1_
  6
CONTINUOUS
 62
    7
 10
232.06359293726433
 20
206.96436589440742
 11
232.06356490536433
 21
206.96430587740741
  0
LINE
  8
_0-1_
  6
CONTINUOUS
 62
    7
 10
231.55934795296423
 20
204.34952424570741
 11
231.55927902046423
 21
204.34937670220745
  0
LINE
  8
_0-1_
  6
CONTINUOUS
 62
    7
 10
229.55934792606433
 20
204.34952418810741
 11
229.55917457746432
 21
204.34915326900745
  0
LINE
  8
_0-1_
  6
CONTINUOUS
 62
    7
 10
230.06360607776432
 20
191.96439402520744
 11
230.06359301236421
 21
191.96436605530744
  0
LINE
  8
_0-1_
  6
CONTINUOUS
 62
    7
 10
232.06359293726433
 20
191.96436589440745
 11
232.06356490536433
 21
191.96430587740744
  0
LINE
  8
_0-1_
  6
CONTINUOUS
 62
    7
 10
231.55934795296423
 20
189.34952424570744
 11
231.55927902046423
 21
189.34937670220745
  0
LINE
  8
_0-1_
  6
CONTINUOUS
 62
    7
 10
227.55934792546432
 20
189.34952418680734
 11
227.55913441486433
 21
189.34906738730734
  0
LINE
  8
_0-1_
  6
CONTINUOUS
 62
    7
 10
229.55934792606433
 20
189.34952418810735
 11
229.55917457746432
 21
189.34915326900745
  0
LINE
  8
_0-1_
  6
CONTINUOUS
 62
    7
 10
262.06147042756436
 20
206.00948281440742
 11
262.06147042756436
 21
205.30440725060731
  0
LINE
  8
_0-1_
  6
CONTINUOUS
 62
    7
 10
262.06147042756436
 20
193.19499016980734
 11
262.06147042756436
 21
193.17038694170745
  0
LINE
  8
_0-1_
  6
CONTINUOUS
 62
    7
 10
262.06147042756436
 20
189.69383789410745
 11
262.06147042756436
 21
189.08901197450743
  0
LINE
  8
_0-1_
  6
CONTINUOUS
 62
    7
 10
263.35118834726433
 20
192.28343183480743
 11
263.35118834726433
 21
192.45663691560745
  0
LINE
  8
_0-1_
  6
CONTINUOUS
 62
    7
 10
263.35118834726433
 20
202.63978725310744
 11
263.35118834726433
 21
202.73978725310735
  0
LINE
  8
_0-1_
  6
CONTINUOUS
 62
    7
 10
263.35118834726433
 20
208.57410281200731
 11
263.35118834726433
 21
208.67410281200745
  0
LINE
  8
_0-1_
  6
CONTINUOUS
 62
    7
 10
267.67029759866421
 20
208.04811786140732
 11
267.67029759866421
 21
203.2657722036073
  0
LINE
  8
_0-1_
  6
CONTINUOUS
 62
    7
 10
267.67029759866421
 20
193.04801034730744
 11
267.67029759866421
 21
188.26587971770735
  0
LINE
  8
_0-1_
  6
CONTINUOUS
 62
    7
 10
268.06147042756436
 20
188.27612247820733
 11
268.06147042756436
 21
193.03776758680735
  0
LINE
  8
_0-1_
  6
CONTINUOUS
 62
    7
 10
268.06147042756436
 20
203.27601542470745
 11
268.06147042756436
 21
208.03787464040744
  0
LINE
  8
_0-1_
  6
CONTINUOUS
 62
    9
 10
271.60073585006432
 20
207.9451957136074
 11
271.60073585006432
 21
203.36869435140744
  0
LINE
  8
_0-1_
  6
CONTINUOUS
 62
    9
 10
271.60073585526436
 20
192.94519571350745
 11
271.60073585526436
 21
188.36869435160745
  0
LINE
  8
_0-1_
  6
CONTINUOUS
 62
    7
 10
273.06147042756436
 20
206.44570972610745
 11
273.06147042756436
 21
204.86818033890745
  0
LINE
  8
_0-1_
  6
CONTINUOUS
 62
    7
 10
273.06147042756436
 20
191.44567451390745
 11
273.06147042756436
 21
189.86821555110743
  0
LINE
  8
_0-1_
  6
CONTINUOUS
 62
    7
 10
263.35118834726433
 20
202.73978725310735
 11
264.65305458366436
 21
203.56945824390732
  0
LINE
  8
_0-1_
  6
CONTINUOUS
 62
    7
 10
263.35118834726433
 20
202.63978725310744
 11
264.65305458366436
 21
203.46945824390741
  0
LINE
  8
_0-1_
  6
CONTINUOUS
 62
    7
 10
263.35118834726433
 20
187.23076634710745
 11
264.65305458366436
 21
188.18878788700744
  0
LINE
  8
_0-1_
  6
CONTINUOUS
 62
    7
 10
167.06147042756422
 20
114.08390015320742
 11
167.06147042756422
 21
99.083900153207424
  0
LINE
  8
_0-1_
  6
CONTINUOUS
 62
    7
 10
172.0614704275643
 20
114.08390015320742
 11
172.0614704275643
 21
99.083900153207424
  0
LINE
  8
_0-1_
  6
CONTINUOUS
 62
    7
 10
187.06147042756433
 20
114.08390015320742
 11
187.06147042756433
 21
99.083900153207424
  0
LINE
  8
_0-1_
  6
CONTINUOUS
 62
    7
 10
167.06147042756422
 20
99.083900153207424
 11
227.06147042756433
 21
99.083900153207424
  0
LINE
  8
_0-1_
  6
CONTINUOUS
 62
    7
 10
239.32222256066433
 20
103.75795632340743
 11
244.42012595476433
 21
104.38390015320742
  0
LINE
  8
_0-1_
  6
CONTINUOUS
 62
    7
 10
234.06147042756433
 20
103.48390015320743
 11
239.32222256066433
 21
103.75795632340743
  0
LINE
  8
_0-1_
  6
CONTINUOUS
 62
    7
 10
234.06147042756433
 20
103.88073607720743
 11
244.11032750996432
 21
104.35583876320743
  0
LINE
  8
_0-1_
  6
CONTINUOUS
 62
    7
 10
223.06147042756433
 20
109.02727582620743
 11
221.81147042756433
 21
108.30558798970742
  0
LINE
  8
_0-1_
  6
CONTINUOUS
 62
    7
 10
244.51249373726432
 20
110.37981294190743
 11
246.46381032926433
 21
110.81007883860742
  0
LINE
  8
_0-1_
  6
CONTINUOUS
 62
    7
 10
234.06147042756433
 20
104.62618370660742
 11
239.51757803346433
 21
104.83693179590742
  0
LINE
  8
_0-1_
  6
CONTINUOUS
 62
    7
 10
244.42012595476433
 20
104.38390015320742
 11
246.13834297586433
 21
104.42889324930742
  0
LINE
  8
_0-1_
  6
CONTINUOUS
 62
    7
 10
262.06147042756436
 20
104.84585501590742
 11
267.67029759866421
 21
104.99272732430742
  0
LINE
  8
_0-1_
  6
CONTINUOUS
 62
    7
 10
268.06147042756436
 20
105.00297054540742
 11
271.60073585606432
 21
105.09564947230743
  0
LINE
  8
_0-1_
  6
CONTINUOUS
 62
    7
 10
234.06147042756433
 20
107.03015778180742
 11
244.11032750996432
 21
107.13788808170743
  0
LINE
  8
_0-1_
  6
CONTINUOUS
 62
    7
 10
234.06147042756433
 20
103.48390015320743
 11
233.26984106176423
 21
103.48390015320743
  0
LINE
  8
_0-1_
  6
CONTINUOUS
 62
    7
 10
234.06147042756433
 20
103.88073607720743
 11
233.13941109856432
 21
103.88073607720743
  0
LINE
  8
_0-1_
  6
CONTINUOUS
 62
    7
 10
246.46381032926433
 20
104.36674237370742
 11
263.35118834726433
 21
104.36674237370742
  0
LINE
  8
_0-1_
  6
CONTINUOUS
 62
    7
 10
246.46381032926433
 20
104.46674237370742
 11
263.35118834726433
 21
104.46674237370742
  0
LINE
  8
_0-1_
  6
CONTINUOUS
 62
    7
 10
234.06147042756433
 20
104.62618370660742
 11
233.26984106176423
 21
104.62618370660742
  0
LINE
  8
_0-1_
  6
CONTINUOUS
 62
    7
 10
268.06147042756436
 20
105.38390015320742
 11
267.67029759866421
 21
105.38390015320742
  0
LINE
  8
_0-1_
  6
CONTINUOUS
 62
    7
 10
246.46381032926433
 20
105.58420827010742
 11
263.35118834726433
 21
105.58420827010742
  0
LINE
  8
_0-1_
  6
CONTINUOUS
 62
    7
 10
246.46381032926433
 20
105.75741335090743
 11
263.35118834726433
 21
105.75741335090743
  0
LINE
  8
_0-1_
  6
CONTINUOUS
 62
    7
 10
232.46492739526423
 20
106.28390015320743
 11
231.06147042756433
 21
106.28390015320743
  0
LINE
  8
_0-1_
  6
CONTINUOUS
 62
    7
 10
230.46492739526423
 20
106.28390015320743
 11
229.06147042756433
 21
106.28390015320743
  0
LINE
  8
_0-1_
  6
CONTINUOUS
 62
    7
 10
228.46492739526423
 20
106.28390015320743
 11
227.06147042756433
 21
106.28390015320743
  0
LINE
  8
_0-1_
  6
CONTINUOUS
 62
    7
 10
234.06147042756433
 20
107.03015778180742
 11
233.13941109856432
 21
107.03015778180742
  0
LINE
  8
_0-1_
  6
CONTINUOUS
 62
    7
 10
221.81147042756433
 20
108.30558798970742
 11
221.81147042756433
 21
106.86221231670743
  0
LINE
  8
_0-1_
  6
CONTINUOUS
 62
    7
 10
224.31147042756433
 20
106.86221231670743
 11
224.31147042756433
 21
108.30558798970742
  0
LINE
  8
_0-1_
  6
CONTINUOUS
 62
    7
 10
223.06147042756433
 20
106.14052448020742
 11
224.31147042756433
 21
106.86221231670743
  0
LINE
  8
_0-1_
  6
CONTINUOUS
 62
    7
 10
233.26984106176423
 20
107.38390015320742
 11
239.32222256066433
 21
107.38390015320742
  0
LINE
  8
_0-1_
  6
CONTINUOUS
 62
    7
 10
234.06147042756433
 20
107.73764252460741
 11
233.13941109856432
 21
107.73764252460741
  0
LINE
  8
_0-1_
  6
CONTINUOUS
 62
    7
 10
247.56147042756433
 20
108.48390015320743
 11
246.15801331976431
 21
108.48390015320743
  0
LINE
  8
_0-1_
  6
CONTINUOUS
 62
    7
 10
233.06147042756433
 20
108.48390015320743
 11
232.15801331976422
 21
108.48390015320743
  0
LINE
  8
_0-1_
  6
CONTINUOUS
 62
    7
 10
231.56147042756433
 20
108.48390015320743
 11
230.15801331976422
 21
108.48390015320743
  0
LINE
  8
_0-1_
  6
CONTINUOUS
 62
    7
 10
229.56147042756433
 20
108.48390015320743
 11
228.15801331976422
 21
108.48390015320743
  0
LINE
  8
_0-1_
  6
CONTINUOUS
 62
    7
 10
227.56147042756433
 20
108.48390015320743
 11
227.06147042756433
 21
108.48390015320743
  0
LINE
  8
_0-1_
  6
CONTINUOUS
 62
    7
 10
268.06147042756436
 20
109.38390015320742
 11
267.67029759866421
 21
109.38390015320742
  0
LINE
  8
_0-1_
  6
CONTINUOUS
 62
    7
 10
234.06147042756433
 20
110.14161659980742
 11
233.26984106176423
 21
110.14161659980742
  0
LINE
  8
_0-1_
  6
CONTINUOUS
 62
    7
 10
234.06147042756433
 20
107.73764252460741
 11
244.11032750996432
 21
107.62991222470743
  0
LINE
  8
_0-1_
  6
CONTINUOUS
 62
    7
 10
234.06147042756433
 20
110.14161659980742
 11
239.51757803346433
 21
109.93086851050742
  0
LINE
  8
_0-1_
  6
CONTINUOUS
 62
    7
 10
244.51249373726432
 20
105.79934121850742
 11
246.46381032926433
 21
105.58420827010742
  0
LINE
  8
_0-1_
  6
CONTINUOUS
 62
    7
 10
244.51249373726432
 20
105.97254629920742
 11
246.46381032926433
 21
105.75741335090743
  0
LINE
  8
_0-1_
  6
CONTINUOUS
 62
    7
 10
245.98878257206422
 20
104.45745313400742
 11
246.46381032926433
 21
104.36674237370742
  0
LINE
  8
_0-1_
  6
CONTINUOUS
 62
    7
 10
221.81147042756433
 20
106.86221231670743
 11
223.06147042756433
 21
106.14052448020742
  0
LINE
  8
_0-1_
  6
CONTINUOUS
 62
    7
 10
224.31147042756433
 20
108.30558798970742
 11
223.06147042756433
 21
109.02727582620743
  0
LINE
  8
_0-1_
  6
CONTINUOUS
 62
    7
 10
227.06147042756433
 20
114.08390015320742
 11
227.06147042756433
 21
99.083900153207424
  0
LINE
  8
_0-1_
  6
CONTINUOUS
 62
    7
 10
229.56381027056423
 20
108.69178598790741
 11
229.56359294366433
 21
108.69132102890742
  0
LINE
  8
_0-1_
  6
CONTINUOUS
 62
    7
 10
227.56383692186432
 20
108.69184296490741
 11
227.56359300496433
 21
108.69132116010742
  0
LINE
  8
_0-1_
  6
CONTINUOUS
 62
    7
 10
246.46381032926433
 20
110.81007883860742
 11
263.35118834726433
 21
110.81007883860742
  0
LINE
  8
_0-1_
  6
CONTINUOUS
 62
    7
 10
234.06147042756433
 20
110.88706422920743
 11
233.13941109856432
 21
110.88706422920743
  0
LINE
  8
_0-1_
  6
CONTINUOUS
 62
    7
 10
234.06147042756433
 20
111.28390015320743
 11
233.26984106176423
 21
111.28390015320743
  0
LINE
  8
_0-1_
  6
CONTINUOUS
 62
    7
 10
167.06147042756422
 20
114.08390015320742
 11
227.06147042756433
 21
114.08390015320742
  0
LINE
  8
_0-1_
  6
CONTINUOUS
 62
    7
 10
244.42012595476433
 20
110.38390015320742
 11
244.51253739786421
 21
110.38148027440742
  0
LINE
  8
_0-1_
  6
CONTINUOUS
 62
    7
 10
264.65020137916429
 20
109.85415698480743
 11
267.67029759866421
 21
109.77507298210743
  0
LINE
  8
_0-1_
  6
CONTINUOUS
 62
    7
 10
268.06147042756436
 20
109.76482976100742
 11
271.60073585606432
 21
109.67215083410743
  0
LINE
  8
_0-1_
  6
CONTINUOUS
 62
    7
 10
234.06147042756433
 20
110.88706422920743
 11
244.11032750996432
 21
110.41196154320743
  0
LINE
  8
_0-1_
  6
CONTINUOUS
 62
    7
 10
234.06147042756433
 20
111.28390015320743
 11
239.32222256066433
 21
111.00984398300743
  0
LINE
  8
_0-1_
  6
CONTINUOUS
 62
    7
 10
239.32222256066433
 20
111.00984398300743
 11
244.42012595476433
 21
110.38390015320742
  0
LINE
  8
_0-1_
  6
CONTINUOUS
 62
    7
 10
228.56379959846433
 20
106.07603713670743
 11
228.56359297046433
 21
106.07647922020743
  0
LINE
  8
_0-1_
  6
CONTINUOUS
 62
    7
 10
228.05938372016433
 20
108.69124435960742
 11
228.05934796616432
 21
108.69132091180742
  0
LINE
  8
_0-1_
  6
CONTINUOUS
 62
    7
 10
229.05941354766432
 20
106.07661982240742
 11
229.05934796006431
 21
106.07647938150743
  0
LINE
  8
_0-1_
  6
CONTINUOUS
 62
    7
 10
231.56386962596423
 20
108.69191286960742
 11
231.56359300696431
 21
108.69132116430742
  0
LINE
  8
_0-1_
  6
CONTINUOUS
 62
    7
 10
230.56385128736423
 20
106.07592663370743
 11
230.56359296596423
 21
106.07647922990742
  0
LINE
  8
_0-1_
  6
CONTINUOUS
 62
    7
 10
232.56382286736431
 20
106.07598738710742
 11
232.56359298076421
 21
106.07647919810742
  0
LINE
  8
_0-1_
  6
CONTINUOUS
 62
    7
 10
230.05940091556423
 20
108.69120753700743
 11
230.05934791056433
 21
108.69132103090743
  0
LINE
  8
_0-1_
  6
CONTINUOUS
 62
    7
 10
232.05937411576423
 20
108.69126492500743
 11
232.05934795376433
 21
108.69132093820743
  0
LINE
  8
_0-1_
  6
CONTINUOUS
 62
    7
 10
233.06147042756433
 20
104.43390015320742
 11
233.06147042756433
 21
110.33390015320742
  0
LINE
  8
_0-1_
  6
CONTINUOUS
 62
    7
 10
234.06147042756433
 20
103.48390015320743
 11
234.06147042756433
 21
111.28390015320743
  0
LINE
  8
_0-1_
  6
CONTINUOUS
 62
    7
 10
263.35118834726433
 20
105.75741335090743
 11
264.65305458366436
 21
106.23642412080743
  0
LINE
  8
_0-1_
  6
CONTINUOUS
 62
    7
 10
263.35118834726433
 20
105.58420827010742
 11
264.65305458366436
 21
106.06321904000743
  0
LINE
  8
_0-1_
  6
CONTINUOUS
 62
    7
 10
244.42012595476433
 20
104.38390015320742
 11
244.42012595476433
 21
110.38390015320742
  0
LINE
  8
_0-1_
  6
CONTINUOUS
 62
    7
 10
246.46381032926433
 20
104.36674237370742
 11
246.46381032926433
 21
104.46674237370742
  0
LINE
  8
_0-1_
  6
CONTINUOUS
 62
    7
 10
246.46381032926433
 20
105.58420827010742
 11
246.46381032926433
 21
105.75741335090743
  0
LINE
  8
_0-1_
  6
CONTINUOUS
 62
    7
 10
263.35118834726433
 20
104.46674237370742
 11
264.02682232216432
 21
104.89731956650742
  0
LINE
  8
_0-1_
  6
CONTINUOUS
 62
    7
 10
263.35118834726433
 20
104.36674237370742
 11
264.19045961106428
 21
104.90160455970742
  0
LINE
  8
_0-1_
  6
CONTINUOUS
 62
    7
 10
263.35118834726433
 20
110.81007883860742
 11
264.65305458366436
 21
109.85205729880742
  0
LINE
  8
_0-1_
  6
CONTINUOUS
 62
    7
 10
262.06147042756436
 20
108.95183321120743
 11
262.06147042756436
 21
108.34700729160743
  0
LINE
  8
_0-1_
  6
CONTINUOUS
 62
    7
 10
262.06147042756436
 20
104.87045824400742
 11
262.06147042756436
 21
104.84585501590742
  0
LINE
  8
_0-1_
  6
CONTINUOUS
 62
    7
 10
263.35118834726433
 20
104.36674237370742
 11
263.35118834726433
 21
104.46674237370742
  0
LINE
  8
_0-1_
  6
CONTINUOUS
 62
    7
 10
263.35118834726433
 20
105.58420827010742
 11
263.35118834726433
 21
105.75741335090743
  0
LINE
  8
_0-1_
  6
CONTINUOUS
 62
    7
 10
267.67029759866421
 20
109.77496546800741
 11
267.67029759866421
 21
104.99283483840742
  0
LINE
  8
_0-1_
  6
CONTINUOUS
 62
    7
 10
268.06147042756436
 20
105.00307759890742
 11
268.06147042756436
 21
109.76472270750743
  0
LINE
  8
_0-1_
  6
CONTINUOUS
 62
    9
 10
271.60073585526436
 20
109.67215083410743
 11
271.60073585526436
 21
105.09564947230743
  0
LINE
  8
_0-1_
  6
CONTINUOUS
 62
    7
 10
273.06147042756436
 20
108.17262963460742
 11
273.06147042756436
 21
106.59517067180741
  0
ARC
  8
_0-1_
  6
CONTINUOUS
 62
    7
 10
271.56147042756436
 20
206.44570972610745
 40
1.5
 50
0
 51
88.500000000000213
  0
ARC
  8
_0-1_
  6
CONTINUOUS
 62
    7
 10
271.56147042756436
 20
204.86818033890745
 40
1.5
 50
271.50000000000063
 51
0.0000000000007887
  0
ARC
  8
_0-1_
  6
CONTINUOUS
 62
    7
 10
235.56096273366433
 20
208.55656436270732
 40
2.5
 50
156.4123021754003
 51
178.8452819342003
  0
ARC
  8
_0-1_
  6
CONTINUOUS
 62
    7
 10
235.56096273366433
 20
202.75732570230741
 40
2.5
 50
181.15471806580041
 51
193.9990038871004
  0
ARC
  8
_0-1_
  6
CONTINUOUS
 62
    7
 10
271.56147042756436
 20
189.86818033890745
 40
1.5
 50
271.50000023070049
 51
0.0000000000008014
  0
ARC
  8
_0-1_
  6
CONTINUOUS
 62
    7
 10
271.56147042756436
 20
191.44570972610745
 40
1.5
 50
0
 51
88.499999769300217
  0
ARC
  8
_0-1_
  6
CONTINUOUS
 62
    7
 10
235.56096273366433
 20
193.55656436270735
 40
2.5
 50
156.4123021754003
 51
178.8452819342003
  0
ARC
  8
_0-1_
  6
CONTINUOUS
 62
    7
 10
235.56096273366433
 20
187.75732570230744
 40
2.5
 50
181.15471806580041
 51
193.9990038871004
  0
ARC
  8
_0-1_
  6
CONTINUOUS
 62
    2
 10
223.06147042756433
 20
107.58390015320742
 40
2.2000000000000002
 50
255.00000000000051
 51
195.00000000000043
  0
CIRCLE
  8
_0-1_
  6
CONTINUOUS
 62
    7
 10
223.06147042756433
 20
107.58390015320742
 40
2.5
  0
ARC
  8
_0-1_
  6
CONTINUOUS
 62
    7
 10
271.56147042756436
 20
108.17266484680742
 40
1.5
 50
0
 51
88.499999769300217
  0
ARC
  8
_0-1_
  6
CONTINUOUS
 62
    7
 10
271.56147042756436
 20
106.59513545960742
 40
1.5
 50
271.50000023070049
 51
0.0000000000008014
  0
ARC
  8
_0-1_
  6
CONTINUOUS
 62
    7
 10
235.56096273366433
 20
104.48428082300741
 40
2.5
 50
181.15471806580041
 51
193.9990038871004
  0
ARC
  8
_0-1_
  6
CONTINUOUS
 62
    7
 10
235.56096273366433
 20
110.28351948340743
 40
2.5
 50
156.4123021754003
 51
178.8452819342003
  0
CIRCLE
  8
_0-1_
  6
CONTINUOUS
 62
    7
 10
223.06147042756433
 20
107.58390015320742
 40
2
  0
INSERT
  2
-002-_D2
  8
_0-1_
 10
56.003926944964292
 20
40.289560597907425
 41
1
 42
1
 50
0
  0
INSERT
  2
-000-_D0
  8
_0-1_
 10
56.003926944964292
 20
40.289560597907425
 41
1
 42
1
 50
0
  0
INSERT
  2
-001-_D1
  8
_0-1_
 10
56.003926944964292
 20
40.289560597907425
 41
1
 42
1
 50
0
  0
TEXT
  8
_0-0_
 62
    4
 10
265.50121158683709
 20
13.213966596244745
 40
2.5
 41
1
 50
0
  1
S=1：1
  0
TEXT
  8
_0-0_
 62
    4
 10
246.75121158683709
 20
13.213966596244745
 40
2.5
 41
1
 50
0
  1
06.06.05
  0
TEXT
  8
_0-0_
 62
    3
 10
186.15293311136642
 20
21.338966595457237
 40
5
 41
1
 50
0
  1
GS-20921.031/142
  0
TEXT
  8
_0-0_
 62
    7
 10
201.52793311136642
 20
12.838966596357295
 40
4
 41
1
 50
0
  1
フック
  0
ENDSEC
  0
EOF
