  0
SECTION
  2
HEADER
  9
$ACADVER
  1
AC1018
  9
$ACADMAINTVER
 70
     0
  9
$DWGCODEPAGE
  3
ASCII
  9
$INSBASE
 10
0.0
 20
0.0
 30
0.0
  9
$EXTMIN
 10
1.000000000000000E+20
 20
1.000000000000000E+20
 30
1.000000000000000E+20
  9
$EXTMAX
 10
-1.000000000000000E+20
 20
-1.000000000000000E+20
 30
-1.000000000000000E+20
  9
$LIMMIN
 10
0.0
 20
0.0
  9
$LIMMAX
 10
12.0
 20
9.0
  9
$ORTHOMODE
 70
     0
  9
$REGENMODE
 70
     1
  9
$FILLMODE
 70
     1
  9
$QTEXTMODE
 70
     0
  9
$MIRRTEXT
 70
     1
  9
$LTSCALE
 40
1.0
  9
$ATTMODE
 70
     1
  9
$TEXTSIZE
 40
0.2
  9
$TRACEWID
 40
0.05
  9
$TEXTSTYLE
  7
Standard
  9
$CLAYER
  8
0
  9
$CELTYPE
  6
ByLayer
  9
$CECOLOR
 62
   256
  9
$CELTSCALE
 40
1.0
  9
$DISPSILH
 70
     0
  9
$DIMSCALE
 40
1.0
  9
$DIMASZ
 40
0.18
  9
$DIMEXO
 40
0.0625
  9
$DIMDLI
 40
0.38
  9
$DIMRND
 40
0.0
  9
$DIMDLE
 40
0.0
  9
$DIMEXE
 40
0.18
  9
$DIMTP
 40
0.0
  9
$DIMTM
 40
0.0
  9
$DIMTXT
 40
0.18
  9
$DIMCEN
 40
0.09
  9
$DIMTSZ
 40
0.0
  9
$DIMTOL
 70
     0
  9
$DIMLIM
 70
     0
  9
$DIMTIH
 70
     1
  9
$DIMTOH
 70
     1
  9
$DIMSE1
 70
     0
  9
$DIMSE2
 70
     0
  9
$DIMTAD
 70
     0
  9
$DIMZIN
 70
     0
  9
$DIMBLK
  1

  9
$DIMASO
 70
     1
  9
$DIMSHO
 70
     1
  9
$DIMPOST
  1

  9
$DIMAPOST
  1

  9
$DIMALT
 70
     0
  9
$DIMALTD
 70
     2
  9
$DIMALTF
 40
25.4
  9
$DIMLFAC
 40
1.0
  9
$DIMTOFL
 70
     0
  9
$DIMTVP
 40
0.0
  9
$DIMTIX
 70
     0
  9
$DIMSOXD
 70
     0
  9
$DIMSAH
 70
     0
  9
$DIMBLK1
  1

  9
$DIMBLK2
  1

  9
$DIMSTYLE
  2
Standard
  9
$DIMCLRD
 70
     0
  9
$DIMCLRE
 70
     0
  9
$DIMCLRT
 70
     0
  9
$DIMTFAC
 40
1.0
  9
$DIMGAP
 40
0.09
  9
$DIMJUST
 70
     0
  9
$DIMSD1
 70
     0
  9
$DIMSD2
 70
     0
  9
$DIMTOLJ
 70
     1
  9
$DIMTZIN
 70
     0
  9
$DIMALTZ
 70
     0
  9
$DIMALTTZ
 70
     0
  9
$DIMUPT
 70
     0
  9
$DIMDEC
 70
     4
  9
$DIMTDEC
 70
     4
  9
$DIMALTU
 70
     2
  9
$DIMALTTD
 70
     2
  9
$DIMTXSTY
  7
Standard
  9
$DIMAUNIT
 70
     0
  9
$DIMADEC
 70
     0
  9
$DIMALTRND
 40
0.0
  9
$DIMAZIN
 70
     0
  9
$DIMDSEP
 70
    46
  9
$DIMATFIT
 70
     3
  9
$DIMFRAC
 70
     0
  9
$DIMLDRBLK
  1

  9
$DIMLUNIT
 70
     2
  9
$DIMLWD
 70
    -2
  9
$DIMLWE
 70
    -2
  9
$DIMTMOVE
 70
     0
  9
$LUNITS
 70
     2
  9
$LUPREC
 70
     4
  9
$SKETCHINC
 40
0.1
  9
$FILLETRAD
 40
0.5
  9
$AUNITS
 70
     0
  9
$AUPREC
 70
     0
  9
$MENU
  1
.
  9
$ELEVATION
 40
0.0
  9
$PELEVATION
 40
0.0
  9
$THICKNESS
 40
0.0
  9
$LIMCHECK
 70
     0
  9
$CHAMFERA
 40
0.5
  9
$CHAMFERB
 40
0.5
  9
$CHAMFERC
 40
1.0
  9
$CHAMFERD
 40
0.0
  9
$SKPOLY
 70
     0
  9
$TDCREATE
 40
2456497.533710995
  9
$TDUCREATE
 40
2456497.158710995
  9
$TDUPDATE
 40
2456497.533711007
  9
$TDUUPDATE
 40
2456497.158711007
  9
$TDINDWG
 40
0.0000000116
  9
$TDUSRTIMER
 40
0.0000000116
  9
$USRTIMER
 70
     1
  9
$ANGBASE
 50
0.0
  9
$ANGDIR
 70
     0
  9
$PDMODE
 70
     0
  9
$PDSIZE
 40
0.0
  9
$PLINEWID
 40
0.0
  9
$SPLFRAME
 70
     0
  9
$SPLINETYPE
 70
     6
  9
$SPLINESEGS
 70
     8
  9
$HANDSEED
  5
363
  9
$SURFTAB1
 70
     6
  9
$SURFTAB2
 70
     6
  9
$SURFTYPE
 70
     6
  9
$SURFU
 70
     6
  9
$SURFV
 70
     6
  9
$UCSBASE
  2

  9
$UCSNAME
  2

  9
$UCSORG
 10
0.0
 20
0.0
 30
0.0
  9
$UCSXDIR
 10
1.0
 20
0.0
 30
0.0
  9
$UCSYDIR
 10
0.0
 20
1.0
 30
0.0
  9
$UCSORTHOREF
  2

  9
$UCSORTHOVIEW
 70
     0
  9
$UCSORGTOP
 10
0.0
 20
0.0
 30
0.0
  9
$UCSORGBOTTOM
 10
0.0
 20
0.0
 30
0.0
  9
$UCSORGLEFT
 10
0.0
 20
0.0
 30
0.0
  9
$UCSORGRIGHT
 10
0.0
 20
0.0
 30
0.0
  9
$UCSORGFRONT
 10
0.0
 20
0.0
 30
0.0
  9
$UCSORGBACK
 10
0.0
 20
0.0
 30
0.0
  9
$PUCSBASE
  2

  9
$PUCSNAME
  2

  9
$PUCSORG
 10
0.0
 20
0.0
 30
0.0
  9
$PUCSXDIR
 10
1.0
 20
0.0
 30
0.0
  9
$PUCSYDIR
 10
0.0
 20
1.0
 30
0.0
  9
$PUCSORTHOREF
  2

  9
$PUCSORTHOVIEW
 70
     0
  9
$PUCSORGTOP
 10
0.0
 20
0.0
 30
0.0
  9
$PUCSORGBOTTOM
 10
0.0
 20
0.0
 30
0.0
  9
$PUCSORGLEFT
 10
0.0
 20
0.0
 30
0.0
  9
$PUCSORGRIGHT
 10
0.0
 20
0.0
 30
0.0
  9
$PUCSORGFRONT
 10
0.0
 20
0.0
 30
0.0
  9
$PUCSORGBACK
 10
0.0
 20
0.0
 30
0.0
  9
$USERI1
 70
     0
  9
$USERI2
 70
     0
  9
$USERI3
 70
     0
  9
$USERI4
 70
     0
  9
$USERI5
 70
     0
  9
$USERR1
 40
0.0
  9
$USERR2
 40
0.0
  9
$USERR3
 40
0.0
  9
$USERR4
 40
0.0
  9
$USERR5
 40
0.0
  9
$WORLDVIEW
 70
     1
  9
$SHADEDGE
 70
     3
  9
$SHADEDIF
 70
    70
  9
$TILEMODE
 70
     1
  9
$MAXACTVP
 70
    64
  9
$PINSBASE
 10
0.0
 20
0.0
 30
0.0
  9
$PLIMCHECK
 70
     0
  9
$PEXTMIN
 10
1.000000000000000E+20
 20
1.000000000000000E+20
 30
1.000000000000000E+20
  9
$PEXTMAX
 10
-1.000000000000000E+20
 20
-1.000000000000000E+20
 30
-1.000000000000000E+20
  9
$PLIMMIN
 10
0.0
 20
0.0
  9
$PLIMMAX
 10
12.0
 20
9.0
  9
$UNITMODE
 70
     0
  9
$VISRETAIN
 70
     1
  9
$PLINEGEN
 70
     0
  9
$PSLTSCALE
 70
     1
  9
$TREEDEPTH
 70
  3020
  9
$CMLSTYLE
  2
Standard
  9
$CMLJUST
 70
     0
  9
$CMLSCALE
 40
1.0
  9
$PROXYGRAPHICS
 70
     1
  9
$MEASUREMENT
 70
     0
  9
$CELWEIGHT
370
    -1
  9
$ENDCAPS
280
     0
  9
$JOINSTYLE
280
     0
  9
$LWDISPLAY
290
     1
  9
$INSUNITS
 70
     1
  9
$HYPERLINKBASE
  1

  9
$STYLESHEET
  1

  9
$XEDIT
290
     1
  9
$CEPSNTYPE
380
     0
  9
$PSTYLEMODE
290
     1
  9
$FINGERPRINTGUID
  2
{E8F349C3-9069-4EF5-A244-D05C3FC9901E}
  9
$VERSIONGUID
  2
{FAEB1C32-E019-11D5-929B-00C0DF256EC4}
  9
$EXTNAMES
290
     1
  9
$PSVPSCALE
 40
0.0
  9
$OLESTARTUP
290
     0
  9
$SORTENTS
280
   127
  9
$INDEXCTL
280
     0
  9
$HIDETEXT
280
     1
  9
$XCLIPFRAME
290
     0
  9
$HALOGAP
280
     0
  9
$OBSCOLOR
 70
   257
  9
$OBSLTYPE
280
     0
  9
$INTERSECTIONDISPLAY
280
     0
  9
$INTERSECTIONCOLOR
 70
   257
  9
$DIMASSOC
280
     2
  9
$PROJECTNAME
  1

  0
ENDSEC
  0
SECTION
  2
CLASSES
  0
CLASS
  1
ACDBDICTIONARYWDFLT
  2
AcDbDictionaryWithDefault
  3
ObjectDBX Classes
 90
        0
 91
        3
280
     0
281
     0
  0
CLASS
  1
VISUALSTYLE
  2
AcDbVisualStyle
  3
ObjectDBX Classes
 90
     4095
 91
        3
280
     0
281
     0
  0
ENDSEC
  0
SECTION
  2
TABLES
  0
TABLE
  2
VPORT
  5
8
330
0
100
AcDbSymbolTable
 70
     1
  0
VPORT
  5
29
330
8
100
AcDbSymbolTableRecord
100
AcDbViewportTableRecord
  2
*Active
 70
     0
 10
0.0
 20
0.0
 11
1.0
 21
1.0
 12
0.0
 22
0.0
 13
0.0
 23
0.0
 14
0.5
 24
0.5
 15
0.5
 25
0.5
 16
0.0
 26
0.0
 36
1.0
 17
29.43250367559409
 27
37.5025590461754
 37
0.0
 40
47.3109108375892
 41
1.220272513564401
 42
50.0
 43
0.0
 44
0.0
 50
0.0
 51
0.0
 71
     0
 72
   100
 73
     1
 74
     3
 75
     0
 76
     0
 77
     0
 78
     0
281
     0
 65
     1
110
0.0
120
0.0
130
0.0
111
1.0
121
0.0
131
0.0
112
0.0
122
1.0
132
0.0
 79
     0
146
0.0
  0
ENDTAB
  0
TABLE
  2
LTYPE
  5
5
330
0
100
AcDbSymbolTable
 70
     3
  0
LTYPE
  5
14
330
5
100
AcDbSymbolTableRecord
100
AcDbLinetypeTableRecord
  2
ByBlock
 70
     0
  3

 72
    65
 73
     0
 40
0.0
  0
LTYPE
  5
15
330
5
100
AcDbSymbolTableRecord
100
AcDbLinetypeTableRecord
  2
ByLayer
 70
     0
  3

 72
    65
 73
     0
 40
0.0
  0
LTYPE
  5
16
330
5
100
AcDbSymbolTableRecord
100
AcDbLinetypeTableRecord
  2
Continuous
 70
     0
  3
Solid line
 72
    65
 73
     0
 40
0.0
  0
LTYPE
  5
3F
330
5
100
AcDbSymbolTableRecord
100
AcDbLinetypeTableRecord
  2
AI-Linetype-1
 70
     0
  3
Adobe Illustrator Linetype No. 1
 72
    65
 73
     2
 40
1.825555619767259
 49
0.4563889049418148
 74
     0
 49
-1.369166714825444
 74
     0
  0
LTYPE
  5
43
330
5
100
AcDbSymbolTableRecord
100
AcDbLinetypeTableRecord
  2
AI-Linetype-2
 70
     0
  3
Adobe Illustrator Linetype No. 2
 72
    65
 73
     2
 40
1.825555619767259
 49
0.4563889049418148
 74
     0
 49
-1.369166714825444
 74
     0
  0
ENDTAB
  0
TABLE
  2
LAYER
  5
2
330
0
100
AcDbSymbolTable
 70
     2
  0
LAYER
  5
10
330
2
100
AcDbSymbolTableRecord
100
AcDbLayerTableRecord
  2
0
 70
     0
 62
     7
  6
Continuous
370
    -3
390
F
  0
LAYER
  5
3B
330
2
100
AcDbSymbolTableRecord
100
AcDbLayerTableRecord
  2
\U+30EC\U+30A4\U+30E4\U+30FC 1
 70
     0
 62
     7
  6
Continuous
370
    -3
390
F
  0
ENDTAB
  0
TABLE
  2
STYLE
  5
3
330
0
100
AcDbSymbolTable
 70
     1
  0
STYLE
  5
11
330
3
100
AcDbSymbolTableRecord
100
AcDbTextStyleTableRecord
  2
Standard
 70
     0
 40
0.0
 41
1.0
 50
0.0
 71
     0
 42
0.2
  3
txt
  4

  0
ENDTAB
  0
TABLE
  2
VIEW
  5
6
330
0
100
AcDbSymbolTable
 70
     0
  0
ENDTAB
  0
TABLE
  2
UCS
  5
7
330
0
100
AcDbSymbolTable
 70
     0
  0
ENDTAB
  0
TABLE
  2
APPID
  5
9
330
0
100
AcDbSymbolTable
 70
     1
  0
APPID
  5
12
330
9
100
AcDbSymbolTableRecord
100
AcDbRegAppTableRecord
  2
ACAD
 70
     0
  0
ENDTAB
  0
TABLE
  2
DIMSTYLE
  5
A
330
0
100
AcDbSymbolTable
 70
     1
100
AcDbDimStyleTable
  0
DIMSTYLE
105
27
330
A
100
AcDbSymbolTableRecord
100
AcDbDimStyleTableRecord
  2
Standard
 70
     0
340
11
  0
ENDTAB
  0
TABLE
  2
BLOCK_RECORD
  5
1
330
0
100
AcDbSymbolTable
 70
    13
  0
BLOCK_RECORD
  5
1F
330
1
100
AcDbSymbolTableRecord
100
AcDbBlockTableRecord
  2
*Model_Space
340
22
  0
BLOCK_RECORD
  5
1B
330
1
100
AcDbSymbolTableRecord
100
AcDbBlockTableRecord
  2
*Paper_Space
340
1E
  0
BLOCK_RECORD
  5
23
330
1
100
AcDbSymbolTableRecord
100
AcDbBlockTableRecord
  2
*Paper_Space0
340
26
  0
BLOCK_RECORD
  5
22D
330
1
100
AcDbSymbolTableRecord
100
AcDbBlockTableRecord
  2
block 2
340
0
102
{BLKREFS
331
22E
102
}
  0
BLOCK_RECORD
  5
231
330
1
100
AcDbSymbolTableRecord
100
AcDbBlockTableRecord
  2
block 3
340
0
102
{BLKREFS
331
232
102
}
  0
BLOCK_RECORD
  5
267
330
1
100
AcDbSymbolTableRecord
100
AcDbBlockTableRecord
  2
block 4
340
0
102
{BLKREFS
331
268
102
}
  0
BLOCK_RECORD
  5
26B
330
1
100
AcDbSymbolTableRecord
100
AcDbBlockTableRecord
  2
block 5
340
0
102
{BLKREFS
331
26C
102
}
  0
BLOCK_RECORD
  5
297
330
1
100
AcDbSymbolTableRecord
100
AcDbBlockTableRecord
  2
block 6
340
0
102
{BLKREFS
331
298
102
}
  0
BLOCK_RECORD
  5
29B
330
1
100
AcDbSymbolTableRecord
100
AcDbBlockTableRecord
  2
block 7
340
0
102
{BLKREFS
331
29C
102
}
  0
BLOCK_RECORD
  5
2D3
330
1
100
AcDbSymbolTableRecord
100
AcDbBlockTableRecord
  2
block 8
340
0
102
{BLKREFS
331
2D4
102
}
  0
BLOCK_RECORD
  5
2D7
330
1
100
AcDbSymbolTableRecord
100
AcDbBlockTableRecord
  2
block 9
340
0
102
{BLKREFS
331
2D8
102
}
  0
BLOCK_RECORD
  5
2FF
330
1
100
AcDbSymbolTableRecord
100
AcDbBlockTableRecord
  2
block 10
340
0
102
{BLKREFS
331
300
102
}
  0
BLOCK_RECORD
  5
303
330
1
100
AcDbSymbolTableRecord
100
AcDbBlockTableRecord
  2
block 11
340
0
102
{BLKREFS
331
304
102
}
  0
BLOCK_RECORD
  5
329
330
1
100
AcDbSymbolTableRecord
100
AcDbBlockTableRecord
  2
block 12
340
0
102
{BLKREFS
331
32A
102
}
  0
BLOCK_RECORD
  5
32D
330
1
100
AcDbSymbolTableRecord
100
AcDbBlockTableRecord
  2
block 13
340
0
102
{BLKREFS
331
32E
102
}
  0
ENDTAB
  0
ENDSEC
  0
SECTION
  2
BLOCKS
  0
BLOCK
  5
20
330
1F
100
AcDbEntity
  8
0
100
AcDbBlockBegin
  2
*Model_Space
 70
     0
 71
     0
 10
0.0
 20
0.0
 30
0.0
  3
*Model_Space
  1

  0
ENDBLK
  5
21
330
1F
100
AcDbEntity
  8
0
100
AcDbBlockEnd
  0
BLOCK
  5
1C
330
1B
100
AcDbEntity
 67
     1
  8
0
100
AcDbBlockBegin
  2
*Paper_Space
 70
     0
 71
     0
 10
0.0
 20
0.0
 30
0.0
  3
*Paper_Space
  1

  0
ENDBLK
  5
1D
330
1B
100
AcDbEntity
 67
     1
  8
0
100
AcDbBlockEnd
  0
BLOCK
  5
24
330
23
100
AcDbEntity
  8
0
100
AcDbBlockBegin
  2
*Paper_Space0
 70
     0
 71
     0
 10
0.0
 20
0.0
 30
0.0
  3
*Paper_Space0
  1

  0
ENDBLK
  5
25
330
23
100
AcDbEntity
  8
0
100
AcDbBlockEnd
  0
BLOCK
  5
22F
330
22D
100
AcDbEntity
  8
0
100
AcDbBlockBegin
  2
block 2
 70
     0
 71
     0
 10
0.0
 20
0.0
 30
0.0
  3
block 2
  1

  0
INSERT
  5
232
330
22D
100
AcDbEntity
  8
\U+30EC\U+30A4\U+30E4\U+30FC 1
100
AcDbBlockReference
  2
block 3
 10
0.0
 20
0.0
 30
0.0
  0
POLYLINE
  5
249
330
22D
100
AcDbEntity
  8
\U+30EC\U+30A4\U+30E4\U+30FC 1
 62
     7
370
    18
100
AcDb2dPolyline
 66
     1
 10
0.0
 20
0.0
 30
0.0
  0
VERTEX
  5
24A
330
249
100
AcDbEntity
  8
\U+30EC\U+30A4\U+30E4\U+30FC 1
 62
     7
370
    18
100
AcDbVertex
100
AcDb2dVertex
 10
42.98896335317334
 20
43.59926242099625
 30
0.0
  0
VERTEX
  5
24B
330
249
100
AcDbEntity
  8
\U+30EC\U+30A4\U+30E4\U+30FC 1
 62
     7
370
    18
100
AcDbVertex
100
AcDb2dVertex
 10
57.73260371814618
 20
43.59926242099625
 30
0.0
  0
SEQEND
  5
24C
330
249
100
AcDbEntity
  8
\U+30EC\U+30A4\U+30E4\U+30FC 1
370
    18
  0
POLYLINE
  5
24D
330
22D
100
AcDbEntity
  8
\U+30EC\U+30A4\U+30E4\U+30FC 1
 62
     7
370
    18
100
AcDb2dPolyline
 66
     1
 10
0.0
 20
0.0
 30
0.0
  0
VERTEX
  5
24E
330
24D
100
AcDbEntity
  8
\U+30EC\U+30A4\U+30E4\U+30FC 1
 62
     7
370
    18
100
AcDbVertex
100
AcDb2dVertex
 10
42.01882382453132
 20
19.49994232961475
 30
0.0
  0
VERTEX
  5
24F
330
24D
100
AcDbEntity
  8
\U+30EC\U+30A4\U+30E4\U+30FC 1
 62
     7
370
    18
100
AcDbVertex
100
AcDb2dVertex
 10
57.73260371814618
 20
19.49994232961475
 30
0.0
  0
SEQEND
  5
250
330
24D
100
AcDbEntity
  8
\U+30EC\U+30A4\U+30E4\U+30FC 1
370
    18
  0
POLYLINE
  5
251
330
22D
100
AcDbEntity
  8
\U+30EC\U+30A4\U+30E4\U+30FC 1
 62
     7
370
    18
100
AcDb2dPolyline
 66
     1
 10
0.0
 20
0.0
 30
0.0
  0
VERTEX
  5
252
330
251
100
AcDbEntity
  8
\U+30EC\U+30A4\U+30E4\U+30FC 1
 62
     7
370
    18
100
AcDbVertex
100
AcDb2dVertex
 10
57.52624236244427
 20
43.59926242099625
 30
0.0
  0
VERTEX
  5
253
330
251
100
AcDbEntity
  8
\U+30EC\U+30A4\U+30E4\U+30FC 1
 62
     7
370
    18
100
AcDbVertex
100
AcDb2dVertex
 10
57.52624236244427
 20
31.54968850274945
 30
0.0
  0
SEQEND
  5
254
330
251
100
AcDbEntity
  8
\U+30EC\U+30A4\U+30E4\U+30FC 1
370
    18
  0
POLYLINE
  5
255
330
22D
100
AcDbEntity
  8
\U+30EC\U+30A4\U+30E4\U+30FC 1
 62
     7
370
    18
100
AcDb2dPolyline
 66
     1
 10
0.0
 20
0.0
 30
0.0
  0
VERTEX
  5
256
330
255
100
AcDbEntity
  8
\U+30EC\U+30A4\U+30E4\U+30FC 1
 62
     7
370
    18
100
AcDbVertex
100
AcDb2dVertex
 10
57.52624236244427
 20
19.49994232961475
 30
0.0
  0
VERTEX
  5
257
330
255
100
AcDbEntity
  8
\U+30EC\U+30A4\U+30E4\U+30FC 1
 62
     7
370
    18
100
AcDbVertex
100
AcDb2dVertex
 10
57.52624236244427
 20
31.54968850274945
 30
0.0
  0
SEQEND
  5
258
330
255
100
AcDbEntity
  8
\U+30EC\U+30A4\U+30E4\U+30FC 1
370
    18
  0
POLYLINE
  5
259
330
22D
100
AcDbEntity
  8
\U+30EC\U+30A4\U+30E4\U+30FC 1
370
     0
100
AcDb2dPolyline
 66
     1
 10
0.0
 20
0.0
 30
0.0
  0
VERTEX
  5
25A
330
259
100
AcDbEntity
  8
\U+30EC\U+30A4\U+30E4\U+30FC 1
370
     0
100
AcDbVertex
100
AcDb2dVertex
 10
57.59824490558567
 20
43.18653970959244
 30
0.0
  0
VERTEX
  5
25B
330
259
100
AcDbEntity
  8
\U+30EC\U+30A4\U+30E4\U+30FC 1
370
     0
100
AcDbVertex
100
AcDb2dVertex
 10
57.52624236244427
 20
43.59926242099625
 30
0.0
  0
VERTEX
  5
25C
330
259
100
AcDbEntity
  8
\U+30EC\U+30A4\U+30E4\U+30FC 1
370
     0
100
AcDbVertex
100
AcDb2dVertex
 10
57.45389530952708
 20
43.18653970959244
 30
0.0
  0
VERTEX
  5
25D
330
259
100
AcDbEntity
  8
\U+30EC\U+30A4\U+30E4\U+30FC 1
370
     0
100
AcDbVertex
100
AcDb2dVertex
 10
57.59824490558567
 20
43.18653970959244
 30
0.0
  0
SEQEND
  5
25E
330
259
100
AcDbEntity
  8
\U+30EC\U+30A4\U+30E4\U+30FC 1
370
     0
  0
HATCH
  5
25F
330
22D
100
AcDbEntity
  8
\U+30EC\U+30A4\U+30E4\U+30FC 1
 62
     7
100
AcDbHatch
 10
0.0
 20
0.0
 30
0.0
210
0.0
220
0.0
230
1.0
  2
SOLID
 70
     1
 71
     0
 91
        1
 92
        1
 93
        3
 72
     1
 10
57.59824490558567
 20
43.18653970959244
 11
57.52624236244427
 21
43.59926242099625
 72
     1
 10
57.52624236244427
 20
43.59926242099625
 11
57.45389530952708
 21
43.18653970959244
 72
     1
 10
57.45389530952708
 20
43.18653970959244
 11
57.59824490558567
 21
43.18653970959244
 97
        0
 75
     2
 76
     1
 98
        0
  0
POLYLINE
  5
260
330
22D
100
AcDbEntity
  8
\U+30EC\U+30A4\U+30E4\U+30FC 1
370
     0
100
AcDb2dPolyline
 66
     1
 10
0.0
 20
0.0
 30
0.0
  0
VERTEX
  5
261
330
260
100
AcDbEntity
  8
\U+30EC\U+30A4\U+30E4\U+30FC 1
370
     0
100
AcDbVertex
100
AcDb2dVertex
 10
57.45389530952708
 20
19.91266504101856
 30
0.0
  0
VERTEX
  5
262
330
260
100
AcDbEntity
  8
\U+30EC\U+30A4\U+30E4\U+30FC 1
370
     0
100
AcDbVertex
100
AcDb2dVertex
 10
57.52624236244427
 20
19.49994232961475
 30
0.0
  0
VERTEX
  5
263
330
260
100
AcDbEntity
  8
\U+30EC\U+30A4\U+30E4\U+30FC 1
370
     0
100
AcDbVertex
100
AcDb2dVertex
 10
57.59824490558567
 20
19.91266504101856
 30
0.0
  0
VERTEX
  5
264
330
260
100
AcDbEntity
  8
\U+30EC\U+30A4\U+30E4\U+30FC 1
370
     0
100
AcDbVertex
100
AcDb2dVertex
 10
57.45389530952708
 20
19.91266504101856
 30
0.0
  0
SEQEND
  5
265
330
260
100
AcDbEntity
  8
\U+30EC\U+30A4\U+30E4\U+30FC 1
370
     0
  0
HATCH
  5
266
330
22D
100
AcDbEntity
  8
\U+30EC\U+30A4\U+30E4\U+30FC 1
 62
     7
100
AcDbHatch
 10
0.0
 20
0.0
 30
0.0
210
0.0
220
0.0
230
1.0
  2
SOLID
 70
     1
 71
     0
 91
        1
 92
        1
 93
        3
 72
     1
 10
57.45389530952708
 20
19.91266504101856
 11
57.52624236244427
 21
19.49994232961475
 72
     1
 10
57.52624236244427
 20
19.49994232961475
 11
57.59824490558567
 21
19.91266504101856
 72
     1
 10
57.59824490558567
 20
19.91266504101856
 11
57.45389530952708
 21
19.91266504101856
 97
        0
 75
     2
 76
     1
 98
        0
  0
ENDBLK
  5
230
330
22D
100
AcDbEntity
  8
0
100
AcDbBlockEnd
  0
BLOCK
  5
233
330
231
100
AcDbEntity
  8
0
100
AcDbBlockBegin
  2
block 3
 70
     0
 71
     0
 10
0.0
 20
0.0
 30
0.0
  3
block 3
  1

  0
SPLINE
  5
235
330
231
100
AcDbEntity
  8
\U+30EC\U+30A4\U+30E4\U+30FC 1
370
     0
100
AcDbSpline
210
0.0
220
0.0
230
1.0
 70
    11
 71
     3
 72
    47
 73
    43
 74
     0
 42
0.0000000001
 43
0.0000000001
 40
0.0
 40
0.0
 40
0.0
 40
0.0
 40
1.0
 40
1.0
 40
1.0
 40
2.0
 40
2.0
 40
2.0
 40
3.0
 40
3.0
 40
3.0
 40
4.0
 40
4.0
 40
4.0
 40
5.0
 40
5.0
 40
5.0
 40
6.0
 40
6.0
 40
6.0
 40
7.0
 40
7.0
 40
7.0
 40
8.0
 40
8.0
 40
8.0
 40
9.0
 40
9.0
 40
9.0
 40
10.0
 40
10.0
 40
10.0
 40
11.0
 40
11.0
 40
11.0
 40
12.0
 40
12.0
 40
12.0
 40
13.0
 40
13.0
 40
13.0
 40
14.0
 40
14.0
 40
14.0
 40
14.0
 10
57.45389530952708
 20
31.17468961179532
 30
0.0
 10
57.45389530952708
 20
31.17468961179532
 30
0.0
 10
57.45389530952708
 20
30.00576794251892
 30
0.0
 10
57.45389530952708
 20
30.00576794251892
 30
0.0
 10
57.45389530952708
 20
30.00576794251892
 30
0.0
 10
57.22893042593218
 20
30.00576794251892
 30
0.0
 10
57.22893042593218
 20
30.00576794251892
 30
0.0
 10
57.22893042593218
 20
30.00576794251892
 30
0.0
 10
57.00672162054365
 20
30.21350733732401
 30
0.0
 10
57.00672162054365
 20
30.21350733732401
 30
0.0
 10
56.64085223864812
 20
30.56662985751508
 30
0.0
 10
56.40141794446978
 20
30.77436925232017
 30
0.0
 10
56.14923678858699
 20
30.77436925232017
 30
0.0
 10
55.9862836646354
 20
30.77436925232017
 30
0.0
 10
55.85020230319591
 20
30.68789729859533
 30
0.0
 10
55.85020230319591
 20
30.48291398199661
 30
0.0
 10
55.85020230319591
 20
30.34683262055713
 30
0.0
 10
55.92186033656152
 20
30.22074204261573
 30
0.0
 10
55.9862836646354
 20
30.13427008889089
 30
0.0
 10
55.9862836646354
 20
30.13427008889089
 30
0.0
 10
55.72445623503031
 20
30.03298421480682
 30
0.0
 10
55.72445623503031
 20
30.03298421480682
 30
0.0
 10
55.6355727128749
 20
30.14908400925012
 30
0.0
 10
55.55633546444178
 20
30.34200948369598
 30
0.0
 10
55.55633546444178
 20
30.55698358379279
 30
0.0
 10
55.55633546444178
 20
30.95730394326794
 30
0.0
 10
55.81092818875515
 20
31.13989412443991
 30
0.0
 10
56.11478581100737
 20
31.13989412443991
 30
0.0
 10
56.44585970554749
 20
31.13989412443991
 30
0.0
 10
56.71767791865066
 20
30.91527375062081
 30
0.0
 10
56.99190770018441
 20
30.64345553751763
 30
0.0
 10
56.99190770018441
 20
30.64345553751763
 30
0.0
 10
57.14521455041371
 20
30.48773711885776
 30
0.0
 10
57.14521455041371
 20
30.48773711885776
 30
0.0
 10
57.14521455041371
 20
30.48773711885776
 30
0.0
 10
57.15003768727486
 20
30.48773711885776
 30
0.0
 10
57.15003768727486
 20
30.48773711885776
 30
0.0
 10
57.15003768727486
 20
30.48773711885776
 30
0.0
 10
57.15003768727486
 20
31.17468961179532
 30
0.0
 10
57.15003768727486
 20
31.17468961179532
 30
0.0
 10
57.15003768727486
 20
31.17468961179532
 30
0.0
 10
57.45389530952708
 20
31.17468961179532
 30
0.0
 10
57.45389530952708
 20
31.17468961179532
 30
0.0
  0
HATCH
  5
236
330
231
100
AcDbEntity
  8
\U+30EC\U+30A4\U+30E4\U+30FC 1
 62
     7
100
AcDbHatch
 10
0.0
 20
0.0
 30
0.0
210
0.0
220
0.0
230
1.0
  2
SOLID
 70
     1
 71
     0
 91
        1
 92
        1
 93
        1
 72
     4
 94
        3
 73
     0
 74
     1
 95
       47
 96
       43
 40
0.0
 40
0.0
 40
0.0
 40
0.0
 40
1.0
 40
1.0
 40
1.0
 40
2.0
 40
2.0
 40
2.0
 40
3.0
 40
3.0
 40
3.0
 40
4.0
 40
4.0
 40
4.0
 40
5.0
 40
5.0
 40
5.0
 40
6.0
 40
6.0
 40
6.0
 40
7.0
 40
7.0
 40
7.0
 40
8.0
 40
8.0
 40
8.0
 40
9.0
 40
9.0
 40
9.0
 40
10.0
 40
10.0
 40
10.0
 40
11.0
 40
11.0
 40
11.0
 40
12.0
 40
12.0
 40
12.0
 40
13.0
 40
13.0
 40
13.0
 40
14.0
 40
14.0
 40
14.0
 40
14.0
 10
57.45389530952708
 20
31.17468961179532
 10
57.45389530952708
 20
31.17468961179532
 10
57.45389530952708
 20
30.00576794251892
 10
57.45389530952708
 20
30.00576794251892
 10
57.45389530952708
 20
30.00576794251892
 10
57.22893042593218
 20
30.00576794251892
 10
57.22893042593218
 20
30.00576794251892
 10
57.22893042593218
 20
30.00576794251892
 10
57.00672162054365
 20
30.21350733732401
 10
57.00672162054365
 20
30.21350733732401
 10
56.64085223864812
 20
30.56662985751508
 10
56.40141794446978
 20
30.77436925232017
 10
56.14923678858699
 20
30.77436925232017
 10
55.9862836646354
 20
30.77436925232017
 10
55.85020230319591
 20
30.68789729859533
 10
55.85020230319591
 20
30.48291398199661
 10
55.85020230319591
 20
30.34683262055713
 10
55.92186033656152
 20
30.22074204261573
 10
55.9862836646354
 20
30.13427008889089
 10
55.9862836646354
 20
30.13427008889089
 10
55.72445623503031
 20
30.03298421480682
 10
55.72445623503031
 20
30.03298421480682
 10
55.6355727128749
 20
30.14908400925012
 10
55.55633546444178
 20
30.34200948369598
 10
55.55633546444178
 20
30.55698358379279
 10
55.55633546444178
 20
30.95730394326794
 10
55.81092818875515
 20
31.13989412443991
 10
56.11478581100737
 20
31.13989412443991
 10
56.44585970554749
 20
31.13989412443991
 10
56.71767791865066
 20
30.91527375062081
 10
56.99190770018441
 20
30.64345553751763
 10
56.99190770018441
 20
30.64345553751763
 10
57.14521455041371
 20
30.48773711885776
 10
57.14521455041371
 20
30.48773711885776
 10
57.14521455041371
 20
30.48773711885776
 10
57.15003768727486
 20
30.48773711885776
 10
57.15003768727486
 20
30.48773711885776
 10
57.15003768727486
 20
30.48773711885776
 10
57.15003768727486
 20
31.17468961179532
 10
57.15003768727486
 20
31.17468961179532
 10
57.15003768727486
 20
31.17468961179532
 10
57.45389530952708
 20
31.17468961179532
 10
57.45389530952708
 20
31.17468961179532
 97
        0
 75
     2
 76
     1
 98
        0
  0
SPLINE
  5
237
330
231
100
AcDbEntity
  8
\U+30EC\U+30A4\U+30E4\U+30FC 1
370
     0
100
AcDbSpline
210
0.0
220
0.0
230
1.0
 70
    11
 71
     3
 72
    59
 73
    55
 74
     0
 42
0.0000000001
 43
0.0000000001
 40
0.0
 40
0.0
 40
0.0
 40
0.0
 40
1.0
 40
1.0
 40
1.0
 40
2.0
 40
2.0
 40
2.0
 40
3.0
 40
3.0
 40
3.0
 40
4.0
 40
4.0
 40
4.0
 40
5.0
 40
5.0
 40
5.0
 40
6.0
 40
6.0
 40
6.0
 40
7.0
 40
7.0
 40
7.0
 40
8.0
 40
8.0
 40
8.0
 40
9.0
 40
9.0
 40
9.0
 40
10.0
 40
10.0
 40
10.0
 40
11.0
 40
11.0
 40
11.0
 40
12.0
 40
12.0
 40
12.0
 40
13.0
 40
13.0
 40
13.0
 40
14.0
 40
14.0
 40
14.0
 40
15.0
 40
15.0
 40
15.0
 40
16.0
 40
16.0
 40
16.0
 40
17.0
 40
17.0
 40
17.0
 40
18.0
 40
18.0
 40
18.0
 40
18.0
 10
56.44827127397807
 20
32.17928011801695
 30
0.0
 10
56.49512460348634
 20
32.38701951282204
 30
0.0
 10
56.66324537407487
 20
32.55996342027171
 30
0.0
 10
56.91783809838824
 20
32.55996342027171
 30
0.0
 10
57.22893042593218
 20
32.55996342027171
 30
0.0
 10
57.48111158181498
 20
32.31019383281949
 30
0.0
 10
57.48111158181498
 20
31.87542249576473
 30
0.0
 10
57.48111158181498
 20
31.67767388445773
 30
0.0
 10
57.42909060566976
 20
31.4999068401469
 30
0.0
 10
57.36742335580224
 20
31.40620018113034
 30
0.0
 10
57.36742335580224
 20
31.40620018113034
 30
0.0
 10
57.09078200583792
 20
31.48750448821824
 30
0.0
 10
57.09078200583792
 20
31.48750448821824
 30
0.0
 10
57.13522376691562
 20
31.55675095315327
 30
0.0
 10
57.19206787992199
 20
31.70764623495199
 30
0.0
 10
57.19206787992199
 20
31.8506177919074
 30
0.0
 10
57.19206787992199
 20
32.0755826755023
 30
0.0
 10
57.05357495005193
 20
32.18685933308446
 30
0.0
 10
56.90061260959843
 20
32.18685933308446
 30
0.0
 10
56.69046164636277
 20
32.18685933308446
 30
0.0
 10
56.59158734070927
 20
32.0039246421367
 30
0.0
 10
56.59158734070927
 20
31.80376446239912
 30
0.0
 10
56.59158734070927
 20
31.80376446239912
 30
0.0
 10
56.59158734070927
 20
31.67767388445773
 30
0.0
 10
56.59158734070927
 20
31.67767388445773
 30
0.0
 10
56.59158734070927
 20
31.67767388445773
 30
0.0
 10
56.33458304796532
 20
31.67767388445773
 30
0.0
 10
56.33458304796532
 20
31.67767388445773
 30
0.0
 10
56.33458304796532
 20
31.67767388445773
 30
0.0
 10
56.33458304796532
 20
31.7965297571074
 30
0.0
 10
56.33458304796532
 20
31.7965297571074
 30
0.0
 10
56.33458304796532
 20
31.94225739226918
 30
0.0
 10
56.25293423110163
 20
32.13001522007809
 30
0.0
 10
56.07275561836024
 20
32.13001522007809
 30
0.0
 10
55.94184190355769
 20
32.13001522007809
 30
0.0
 10
55.84537916633477
 20
32.04354326635325
 30
0.0
 10
55.84537916633477
 20
31.87059935890358
 30
0.0
 10
55.84537916633477
 20
31.74209721253161
 30
0.0
 10
55.90222327934114
 20
31.61600663459021
 30
0.0
 10
55.94666504041884
 20
31.54434860122461
 30
0.0
 10
55.94666504041884
 20
31.54434860122461
 30
0.0
 10
55.68483761081375
 20
31.46786743099786
 30
0.0
 10
55.68483761081375
 20
31.46786743099786
 30
0.0
 10
55.62041428273987
 20
31.56433016822078
 30
0.0
 10
55.55633546444178
 20
31.75449956446027
 30
0.0
 10
55.55633546444178
 20
31.95465974419784
 30
0.0
 10
55.55633546444178
 20
32.31294991102586
 30
0.0
 10
55.76648642767744
 20
32.50070773883477
 30
0.0
 10
56.0134999369233
 20
32.50070773883477
 30
0.0
 10
56.20608090159335
 20
32.50070773883477
 30
0.0
 10
56.36662245711437
 20
32.38460794439146
 30
0.0
 10
56.44344813711692
 20
32.17928011801695
 30
0.0
 10
56.44344813711692
 20
32.17928011801695
 30
0.0
 10
56.44827127397807
 20
32.17928011801695
 30
0.0
 10
56.44827127397807
 20
32.17928011801695
 30
0.0
  0
HATCH
  5
238
330
231
100
AcDbEntity
  8
\U+30EC\U+30A4\U+30E4\U+30FC 1
 62
     7
100
AcDbHatch
 10
0.0
 20
0.0
 30
0.0
210
0.0
220
0.0
230
1.0
  2
SOLID
 70
     1
 71
     0
 91
        1
 92
        1
 93
        1
 72
     4
 94
        3
 73
     0
 74
     1
 95
       59
 96
       55
 40
0.0
 40
0.0
 40
0.0
 40
0.0
 40
1.0
 40
1.0
 40
1.0
 40
2.0
 40
2.0
 40
2.0
 40
3.0
 40
3.0
 40
3.0
 40
4.0
 40
4.0
 40
4.0
 40
5.0
 40
5.0
 40
5.0
 40
6.0
 40
6.0
 40
6.0
 40
7.0
 40
7.0
 40
7.0
 40
8.0
 40
8.0
 40
8.0
 40
9.0
 40
9.0
 40
9.0
 40
10.0
 40
10.0
 40
10.0
 40
11.0
 40
11.0
 40
11.0
 40
12.0
 40
12.0
 40
12.0
 40
13.0
 40
13.0
 40
13.0
 40
14.0
 40
14.0
 40
14.0
 40
15.0
 40
15.0
 40
15.0
 40
16.0
 40
16.0
 40
16.0
 40
17.0
 40
17.0
 40
17.0
 40
18.0
 40
18.0
 40
18.0
 40
18.0
 10
56.44827127397807
 20
32.17928011801695
 10
56.49512460348634
 20
32.38701951282204
 10
56.66324537407487
 20
32.55996342027171
 10
56.91783809838824
 20
32.55996342027171
 10
57.22893042593218
 20
32.55996342027171
 10
57.48111158181498
 20
32.31019383281949
 10
57.48111158181498
 20
31.87542249576473
 10
57.48111158181498
 20
31.67767388445773
 10
57.42909060566976
 20
31.4999068401469
 10
57.36742335580224
 20
31.40620018113034
 10
57.36742335580224
 20
31.40620018113034
 10
57.09078200583792
 20
31.48750448821824
 10
57.09078200583792
 20
31.48750448821824
 10
57.13522376691562
 20
31.55675095315327
 10
57.19206787992199
 20
31.70764623495199
 10
57.19206787992199
 20
31.8506177919074
 10
57.19206787992199
 20
32.0755826755023
 10
57.05357495005193
 20
32.18685933308446
 10
56.90061260959843
 20
32.18685933308446
 10
56.69046164636277
 20
32.18685933308446
 10
56.59158734070927
 20
32.0039246421367
 10
56.59158734070927
 20
31.80376446239912
 10
56.59158734070927
 20
31.80376446239912
 10
56.59158734070927
 20
31.67767388445773
 10
56.59158734070927
 20
31.67767388445773
 10
56.59158734070927
 20
31.67767388445773
 10
56.33458304796532
 20
31.67767388445773
 10
56.33458304796532
 20
31.67767388445773
 10
56.33458304796532
 20
31.67767388445773
 10
56.33458304796532
 20
31.7965297571074
 10
56.33458304796532
 20
31.7965297571074
 10
56.33458304796532
 20
31.94225739226918
 10
56.25293423110163
 20
32.13001522007809
 10
56.07275561836024
 20
32.13001522007809
 10
55.94184190355769
 20
32.13001522007809
 10
55.84537916633477
 20
32.04354326635325
 10
55.84537916633477
 20
31.87059935890358
 10
55.84537916633477
 20
31.74209721253161
 10
55.90222327934114
 20
31.61600663459021
 10
55.94666504041884
 20
31.54434860122461
 10
55.94666504041884
 20
31.54434860122461
 10
55.68483761081375
 20
31.46786743099786
 10
55.68483761081375
 20
31.46786743099786
 10
55.62041428273987
 20
31.56433016822078
 10
55.55633546444178
 20
31.75449956446027
 10
55.55633546444178
 20
31.95465974419784
 10
55.55633546444178
 20
32.31294991102586
 10
55.76648642767744
 20
32.50070773883477
 10
56.0134999369233
 20
32.50070773883477
 10
56.20608090159335
 20
32.50070773883477
 10
56.36662245711437
 20
32.38460794439146
 10
56.44344813711692
 20
32.17928011801695
 10
56.44344813711692
 20
32.17928011801695
 10
56.44827127397807
 20
32.17928011801695
 10
56.44827127397807
 20
32.17928011801695
 97
        0
 75
     2
 76
     1
 98
        0
  0
POLYLINE
  5
239
330
231
100
AcDbEntity
  8
\U+30EC\U+30A4\U+30E4\U+30FC 1
370
     0
100
AcDb2dPolyline
 66
     1
 10
0.0
 20
0.0
 30
0.0
  0
VERTEX
  5
23A
330
239
100
AcDbEntity
  8
\U+30EC\U+30A4\U+30E4\U+30FC 1
370
     0
100
AcDbVertex
100
AcDb2dVertex
 10
57.45389530952708
 20
33.87116762695193
 30
0.0
  0
VERTEX
  5
23B
330
239
100
AcDbEntity
  8
\U+30EC\U+30A4\U+30E4\U+30FC 1
370
     0
100
AcDbVertex
100
AcDb2dVertex
 10
57.45389530952708
 20
33.5325145173443
 30
0.0
  0
VERTEX
  5
23C
330
239
100
AcDbEntity
  8
\U+30EC\U+30A4\U+30E4\U+30FC 1
370
     0
100
AcDbVertex
100
AcDb2dVertex
 10
56.99190770018441
 20
33.5325145173443
 30
0.0
  0
VERTEX
  5
23D
330
239
100
AcDbEntity
  8
\U+30EC\U+30A4\U+30E4\U+30FC 1
370
     0
100
AcDbVertex
100
AcDb2dVertex
 10
56.99190770018441
 20
32.77907163767808
 30
0.0
  0
VERTEX
  5
23E
330
239
100
AcDbEntity
  8
\U+30EC\U+30A4\U+30E4\U+30FC 1
370
     0
100
AcDbVertex
100
AcDb2dVertex
 10
56.75454046466086
 20
32.77907163767808
 30
0.0
  0
VERTEX
  5
23F
330
239
100
AcDbEntity
  8
\U+30EC\U+30A4\U+30E4\U+30FC 1
370
     0
100
AcDbVertex
100
AcDb2dVertex
 10
55.58596330516025
 20
33.45844491554812
 30
0.0
  0
VERTEX
  5
240
330
239
100
AcDbEntity
  8
\U+30EC\U+30A4\U+30E4\U+30FC 1
370
     0
100
AcDbVertex
100
AcDb2dVertex
 10
55.58596330516025
 20
33.87116762695193
 30
0.0
  0
VERTEX
  5
241
330
239
100
AcDbEntity
  8
\U+30EC\U+30A4\U+30E4\U+30FC 1
370
     0
100
AcDbVertex
100
AcDb2dVertex
 10
56.71526635022009
 20
33.87116762695193
 30
0.0
  0
VERTEX
  5
242
330
239
100
AcDbEntity
  8
\U+30EC\U+30A4\U+30E4\U+30FC 1
370
     0
100
AcDbVertex
100
AcDb2dVertex
 10
56.71526635022009
 20
34.08614172704874
 30
0.0
  0
VERTEX
  5
243
330
239
100
AcDbEntity
  8
\U+30EC\U+30A4\U+30E4\U+30FC 1
370
     0
100
AcDbVertex
100
AcDb2dVertex
 10
56.99190770018441
 20
34.08614172704874
 30
0.0
  0
VERTEX
  5
244
330
239
100
AcDbEntity
  8
\U+30EC\U+30A4\U+30E4\U+30FC 1
370
     0
100
AcDbVertex
100
AcDb2dVertex
 10
56.99190770018441
 20
33.87116762695193
 30
0.0
  0
VERTEX
  5
245
330
239
100
AcDbEntity
  8
\U+30EC\U+30A4\U+30E4\U+30FC 1
370
     0
100
AcDbVertex
100
AcDb2dVertex
 10
57.45389530952708
 20
33.87116762695193
 30
0.0
  0
SEQEND
  5
246
330
239
100
AcDbEntity
  8
\U+30EC\U+30A4\U+30E4\U+30FC 1
370
     0
  0
SPLINE
  5
247
330
231
100
AcDbEntity
  8
\U+30EC\U+30A4\U+30E4\U+30FC 1
370
     0
100
AcDbSpline
210
0.0
220
0.0
230
1.0
 70
    11
 71
     3
 72
    26
 73
    22
 74
     0
 42
0.0000000001
 43
0.0000000001
 40
0.0
 40
0.0
 40
0.0
 40
0.0
 40
1.0
 40
1.0
 40
1.0
 40
2.0
 40
2.0
 40
2.0
 40
3.0
 40
3.0
 40
3.0
 40
4.0
 40
4.0
 40
4.0
 40
5.0
 40
5.0
 40
5.0
 40
6.0
 40
6.0
 40
6.0
 40
7.0
 40
7.0
 40
7.0
 40
7.0
 10
56.71526635022009
 20
33.10497788558126
 30
0.0
 10
56.71526635022009
 20
33.10497788558126
 30
0.0
 10
56.71526635022009
 20
33.5325145173443
 30
0.0
 10
56.71526635022009
 20
33.5325145173443
 30
0.0
 10
56.71526635022009
 20
33.5325145173443
 30
0.0
 10
56.25052266267106
 20
33.5325145173443
 30
0.0
 10
56.25052266267106
 20
33.5325145173443
 30
0.0
 10
56.14200208329527
 20
33.5325145173443
 30
0.0
 10
56.02314621064559
 20
33.54009373241181
 30
0.0
 10
55.91221406283923
 20
33.54732843770353
 30
0.0
 10
55.91221406283923
 20
33.54732843770353
 30
0.0
 10
55.91221406283923
 20
33.53768216398124
 30
0.0
 10
55.91221406283923
 20
33.53768216398124
 30
0.0
 10
56.03072542571311
 20
33.48083805097487
 30
0.0
 10
56.13442286822775
 20
33.43639628989717
 30
0.0
 10
56.24087638894877
 20
33.3795521768908
 30
0.0
 10
56.24087638894877
 20
33.3795521768908
 30
0.0
 10
56.71009870358315
 20
33.10497788558126
 30
0.0
 10
56.71009870358315
 20
33.10497788558126
 30
0.0
 10
56.71009870358315
 20
33.10497788558126
 30
0.0
 10
56.71526635022009
 20
33.10497788558126
 30
0.0
 10
56.71526635022009
 20
33.10497788558126
 30
0.0
  0
HATCH
  5
248
330
231
100
AcDbEntity
  8
\U+30EC\U+30A4\U+30E4\U+30FC 1
 62
     7
100
AcDbHatch
 10
0.0
 20
0.0
 30
0.0
210
0.0
220
0.0
230
1.0
  2
SOLID
 70
     1
 71
     0
 91
        2
 92
        1
 93
       11
 72
     1
 10
57.45389530952708
 20
33.87116762695193
 11
57.45389530952708
 21
33.5325145173443
 72
     1
 10
57.45389530952708
 20
33.5325145173443
 11
56.99190770018441
 21
33.5325145173443
 72
     1
 10
56.99190770018441
 20
33.5325145173443
 11
56.99190770018441
 21
32.77907163767808
 72
     1
 10
56.99190770018441
 20
32.77907163767808
 11
56.75454046466086
 21
32.77907163767808
 72
     1
 10
56.75454046466086
 20
32.77907163767808
 11
55.58596330516025
 21
33.45844491554812
 72
     1
 10
55.58596330516025
 20
33.45844491554812
 11
55.58596330516025
 21
33.87116762695193
 72
     1
 10
55.58596330516025
 20
33.87116762695193
 11
56.71526635022009
 21
33.87116762695193
 72
     1
 10
56.71526635022009
 20
33.87116762695193
 11
56.71526635022009
 21
34.08614172704874
 72
     1
 10
56.71526635022009
 20
34.08614172704874
 11
56.99190770018441
 21
34.08614172704874
 72
     1
 10
56.99190770018441
 20
34.08614172704874
 11
56.99190770018441
 21
33.87116762695193
 72
     1
 10
56.99190770018441
 20
33.87116762695193
 11
57.45389530952708
 21
33.87116762695193
 97
        0
 92
        1
 93
        1
 72
     4
 94
        3
 73
     0
 74
     1
 95
       26
 96
       22
 40
0.0
 40
0.0
 40
0.0
 40
0.0
 40
1.0
 40
1.0
 40
1.0
 40
2.0
 40
2.0
 40
2.0
 40
3.0
 40
3.0
 40
3.0
 40
4.0
 40
4.0
 40
4.0
 40
5.0
 40
5.0
 40
5.0
 40
6.0
 40
6.0
 40
6.0
 40
7.0
 40
7.0
 40
7.0
 40
7.0
 10
56.71526635022009
 20
33.10497788558126
 10
56.71526635022009
 20
33.10497788558126
 10
56.71526635022009
 20
33.5325145173443
 10
56.71526635022009
 20
33.5325145173443
 10
56.71526635022009
 20
33.5325145173443
 10
56.25052266267106
 20
33.5325145173443
 10
56.25052266267106
 20
33.5325145173443
 10
56.14200208329527
 20
33.5325145173443
 10
56.02314621064559
 20
33.54009373241181
 10
55.91221406283923
 20
33.54732843770353
 10
55.91221406283923
 20
33.54732843770353
 10
55.91221406283923
 20
33.53768216398124
 10
55.91221406283923
 20
33.53768216398124
 10
56.03072542571311
 20
33.48083805097487
 10
56.13442286822775
 20
33.43639628989717
 10
56.24087638894877
 20
33.3795521768908
 10
56.24087638894877
 20
33.3795521768908
 10
56.71009870358315
 20
33.10497788558126
 10
56.71009870358315
 20
33.10497788558126
 10
56.71009870358315
 20
33.10497788558126
 10
56.71526635022009
 20
33.10497788558126
 10
56.71526635022009
 20
33.10497788558126
 97
        0
 75
     2
 76
     1
 98
        0
  0
ENDBLK
  5
234
330
231
100
AcDbEntity
  8
0
100
AcDbBlockEnd
  0
BLOCK
  5
269
330
267
100
AcDbEntity
  8
0
100
AcDbBlockBegin
  2
block 4
 70
     0
 71
     0
 10
0.0
 20
0.0
 30
0.0
  3
block 4
  1

  0
INSERT
  5
26C
330
267
100
AcDbEntity
  8
\U+30EC\U+30A4\U+30E4\U+30FC 1
100
AcDbBlockReference
  2
block 5
 10
0.0
 20
0.0
 30
0.0
  0
POLYLINE
  5
279
330
267
100
AcDbEntity
  8
\U+30EC\U+30A4\U+30E4\U+30FC 1
 62
     7
370
    18
100
AcDb2dPolyline
 66
     1
 10
0.0
 20
0.0
 30
0.0
  0
VERTEX
  5
27A
330
279
100
AcDbEntity
  8
\U+30EC\U+30A4\U+30E4\U+30FC 1
 62
     7
370
    18
100
AcDbVertex
100
AcDb2dVertex
 10
53.3697319174635
 20
28.82237686265908
 30
0.0
  0
VERTEX
  5
27B
330
279
100
AcDbEntity
  8
\U+30EC\U+30A4\U+30E4\U+30FC 1
 62
     7
370
    18
100
AcDbVertex
100
AcDb2dVertex
 10
53.3697319174635
 20
14.31093608657285
 30
0.0
  0
SEQEND
  5
27C
330
279
100
AcDbEntity
  8
\U+30EC\U+30A4\U+30E4\U+30FC 1
370
    18
  0
POLYLINE
  5
27D
330
267
100
AcDbEntity
  8
\U+30EC\U+30A4\U+30E4\U+30FC 1
 62
     7
370
    18
100
AcDb2dPolyline
 66
     1
 10
0.0
 20
0.0
 30
0.0
  0
VERTEX
  5
27E
330
27D
100
AcDbEntity
  8
\U+30EC\U+30A4\U+30E4\U+30FC 1
 62
     7
370
    18
100
AcDbVertex
100
AcDb2dVertex
 10
30.46189888567304
 20
28.82237686265908
 30
0.0
  0
VERTEX
  5
27F
330
27D
100
AcDbEntity
  8
\U+30EC\U+30A4\U+30E4\U+30FC 1
 62
     7
370
    18
100
AcDbVertex
100
AcDb2dVertex
 10
30.46189888567304
 20
14.31093608657285
 30
0.0
  0
SEQEND
  5
280
330
27D
100
AcDbEntity
  8
\U+30EC\U+30A4\U+30E4\U+30FC 1
370
    18
  0
POLYLINE
  5
281
330
267
100
AcDbEntity
  8
\U+30EC\U+30A4\U+30E4\U+30FC 1
 62
     7
370
    18
100
AcDb2dPolyline
 66
     1
 10
0.0
 20
0.0
 30
0.0
  0
VERTEX
  5
282
330
281
100
AcDbEntity
  8
\U+30EC\U+30A4\U+30E4\U+30FC 1
 62
     7
370
    18
100
AcDbVertex
100
AcDb2dVertex
 10
53.3697319174635
 20
14.51695293249896
 30
0.0
  0
VERTEX
  5
283
330
281
100
AcDbEntity
  8
\U+30EC\U+30A4\U+30E4\U+30FC 1
 62
     7
370
    18
100
AcDbVertex
100
AcDb2dVertex
 10
41.91581540156827
 20
14.51695293249896
 30
0.0
  0
SEQEND
  5
284
330
281
100
AcDbEntity
  8
\U+30EC\U+30A4\U+30E4\U+30FC 1
370
    18
  0
POLYLINE
  5
285
330
267
100
AcDbEntity
  8
\U+30EC\U+30A4\U+30E4\U+30FC 1
 62
     7
370
    18
100
AcDb2dPolyline
 66
     1
 10
0.0
 20
0.0
 30
0.0
  0
VERTEX
  5
286
330
285
100
AcDbEntity
  8
\U+30EC\U+30A4\U+30E4\U+30FC 1
 62
     7
370
    18
100
AcDbVertex
100
AcDb2dVertex
 10
30.46189888567304
 20
14.51695293249896
 30
0.0
  0
VERTEX
  5
287
330
285
100
AcDbEntity
  8
\U+30EC\U+30A4\U+30E4\U+30FC 1
 62
     7
370
    18
100
AcDbVertex
100
AcDb2dVertex
 10
41.91581540156827
 20
14.51695293249896
 30
0.0
  0
SEQEND
  5
288
330
285
100
AcDbEntity
  8
\U+30EC\U+30A4\U+30E4\U+30FC 1
370
    18
  0
POLYLINE
  5
289
330
267
100
AcDbEntity
  8
\U+30EC\U+30A4\U+30E4\U+30FC 1
370
     0
100
AcDb2dPolyline
 66
     1
 10
0.0
 20
0.0
 30
0.0
  0
VERTEX
  5
28A
330
289
100
AcDbEntity
  8
\U+30EC\U+30A4\U+30E4\U+30FC 1
370
     0
100
AcDbVertex
100
AcDb2dVertex
 10
52.95666469628389
 20
14.44460587958177
 30
0.0
  0
VERTEX
  5
28B
330
289
100
AcDbEntity
  8
\U+30EC\U+30A4\U+30E4\U+30FC 1
370
     0
100
AcDbVertex
100
AcDb2dVertex
 10
53.3697319174635
 20
14.51695293249896
 30
0.0
  0
VERTEX
  5
28C
330
289
100
AcDbEntity
  8
\U+30EC\U+30A4\U+30E4\U+30FC 1
370
     0
100
AcDbVertex
100
AcDb2dVertex
 10
52.95666469628389
 20
14.58929998541616
 30
0.0
  0
VERTEX
  5
28D
330
289
100
AcDbEntity
  8
\U+30EC\U+30A4\U+30E4\U+30FC 1
370
     0
100
AcDbVertex
100
AcDb2dVertex
 10
52.95666469628389
 20
14.44460587958177
 30
0.0
  0
SEQEND
  5
28E
330
289
100
AcDbEntity
  8
\U+30EC\U+30A4\U+30E4\U+30FC 1
370
     0
  0
HATCH
  5
28F
330
267
100
AcDbEntity
  8
\U+30EC\U+30A4\U+30E4\U+30FC 1
 62
     7
100
AcDbHatch
 10
0.0
 20
0.0
 30
0.0
210
0.0
220
0.0
230
1.0
  2
SOLID
 70
     1
 71
     0
 91
        1
 92
        1
 93
        3
 72
     1
 10
52.95666469628389
 20
14.44460587958177
 11
53.3697319174635
 21
14.51695293249896
 72
     1
 10
53.3697319174635
 20
14.51695293249896
 11
52.95666469628389
 21
14.58929998541616
 72
     1
 10
52.95666469628389
 20
14.58929998541616
 11
52.95666469628389
 21
14.44460587958177
 97
        0
 75
     2
 76
     1
 98
        0
  0
POLYLINE
  5
290
330
267
100
AcDbEntity
  8
\U+30EC\U+30A4\U+30E4\U+30FC 1
370
     0
100
AcDb2dPolyline
 66
     1
 10
0.0
 20
0.0
 30
0.0
  0
VERTEX
  5
291
330
290
100
AcDbEntity
  8
\U+30EC\U+30A4\U+30E4\U+30FC 1
370
     0
100
AcDbVertex
100
AcDb2dVertex
 10
30.87462159707686
 20
14.58929998541616
 30
0.0
  0
VERTEX
  5
292
330
290
100
AcDbEntity
  8
\U+30EC\U+30A4\U+30E4\U+30FC 1
370
     0
100
AcDbVertex
100
AcDb2dVertex
 10
30.46189888567304
 20
14.51695293249896
 30
0.0
  0
VERTEX
  5
293
330
290
100
AcDbEntity
  8
\U+30EC\U+30A4\U+30E4\U+30FC 1
370
     0
100
AcDbVertex
100
AcDb2dVertex
 10
30.87462159707686
 20
14.44460587958177
 30
0.0
  0
VERTEX
  5
294
330
290
100
AcDbEntity
  8
\U+30EC\U+30A4\U+30E4\U+30FC 1
370
     0
100
AcDbVertex
100
AcDb2dVertex
 10
30.87462159707686
 20
14.58929998541616
 30
0.0
  0
SEQEND
  5
295
330
290
100
AcDbEntity
  8
\U+30EC\U+30A4\U+30E4\U+30FC 1
370
     0
  0
HATCH
  5
296
330
267
100
AcDbEntity
  8
\U+30EC\U+30A4\U+30E4\U+30FC 1
 62
     7
100
AcDbHatch
 10
0.0
 20
0.0
 30
0.0
210
0.0
220
0.0
230
1.0
  2
SOLID
 70
     1
 71
     0
 91
        1
 92
        1
 93
        3
 72
     1
 10
30.87462159707686
 20
14.58929998541616
 11
30.46189888567304
 21
14.51695293249896
 72
     1
 10
30.46189888567304
 20
14.51695293249896
 11
30.87462159707686
 21
14.44460587958177
 72
     1
 10
30.87462159707686
 20
14.44460587958177
 11
30.87462159707686
 21
14.58929998541616
 97
        0
 75
     2
 76
     1
 98
        0
  0
ENDBLK
  5
26A
330
267
100
AcDbEntity
  8
0
100
AcDbBlockEnd
  0
BLOCK
  5
26D
330
26B
100
AcDbEntity
  8
0
100
AcDbBlockBegin
  2
block 5
 70
     0
 71
     0
 10
0.0
 20
0.0
 30
0.0
  3
block 5
  1

  0
SPLINE
  5
26F
330
26B
100
AcDbEntity
  8
\U+30EC\U+30A4\U+30E4\U+30FC 1
370
     0
100
AcDbSpline
210
0.0
220
0.0
230
1.0
 70
    11
 71
     3
 72
    41
 73
    37
 74
     0
 42
0.0000000001
 43
0.0000000001
 40
0.0
 40
0.0
 40
0.0
 40
0.0
 40
1.0
 40
1.0
 40
1.0
 40
2.0
 40
2.0
 40
2.0
 40
3.0
 40
3.0
 40
3.0
 40
4.0
 40
4.0
 40
4.0
 40
5.0
 40
5.0
 40
5.0
 40
6.0
 40
6.0
 40
6.0
 40
7.0
 40
7.0
 40
7.0
 40
8.0
 40
8.0
 40
8.0
 40
9.0
 40
9.0
 40
9.0
 40
10.0
 40
10.0
 40
10.0
 40
11.0
 40
11.0
 40
11.0
 40
12.0
 40
12.0
 40
12.0
 40
12.0
 10
40.07957829657469
 20
16.54163688485305
 30
0.0
 10
40.21221456025621
 20
16.36662591874859
 30
0.0
 10
40.29110729891354
 20
16.14958475999701
 30
0.0
 10
40.29110729891354
 20
15.91256203424924
 30
0.0
 10
40.29110729891354
 20
15.33723070866964
 30
0.0
 10
39.82291851360655
 20
14.86904192336265
 30
0.0
 10
39.24758718802694
 20
14.86904192336265
 30
0.0
 10
39.01056446227918
 20
14.86904192336265
 30
0.0
 10
38.79352330352759
 20
14.94793466201997
 30
0.0
 10
38.61851233742314
 20
15.0805709257015
 30
0.0
 10
38.61851233742314
 20
15.0805709257015
 30
0.0
 10
38.48036391732887
 20
14.9451785838136
 30
0.0
 10
38.48036391732887
 20
14.9451785838136
 30
0.0
 10
38.48036391732887
 20
14.9451785838136
 30
0.0
 10
38.27985922781551
 20
15.14533876355117
 30
0.0
 10
38.27985922781551
 20
15.14533876355117
 30
0.0
 10
38.27985922781551
 20
15.14533876355117
 30
0.0
 10
38.4152515697034
 20
15.28348718364544
 30
0.0
 10
38.4152515697034
 20
15.28348718364544
 30
0.0
 10
38.28295981579767
 20
15.45849814974989
 30
0.0
 10
38.20372256736455
 20
15.67553930850148
 30
0.0
 10
38.20372256736455
 20
15.91256203424924
 30
0.0
 10
38.20372256736455
 20
16.48789335982885
 30
0.0
 10
38.67191135267154
 20
16.95642665491163
 30
0.0
 10
39.24758718802694
 20
16.95642665491163
 30
0.0
 10
39.48426540399891
 20
16.95642665491163
 30
0.0
 10
39.7016510725263
 20
16.87718940647851
 30
0.0
 10
39.87666203863075
 20
16.74489765257279
 30
0.0
 10
39.87666203863075
 20
16.74489765257279
 30
0.0
 10
40.01481045872501
 20
16.88028999446068
 30
0.0
 10
40.01481045872501
 20
16.88028999446068
 30
0.0
 10
40.01481045872501
 20
16.88028999446068
 30
0.0
 10
40.21497063846259
 20
16.67978530494731
 30
0.0
 10
40.21497063846259
 20
16.67978530494731
 30
0.0
 10
40.21497063846259
 20
16.67978530494731
 30
0.0
 10
40.07957829657469
 20
16.54163688485305
 30
0.0
 10
40.07957829657469
 20
16.54163688485305
 30
0.0
  0
SPLINE
  5
270
330
26B
100
AcDbEntity
  8
\U+30EC\U+30A4\U+30E4\U+30FC 1
370
     0
100
AcDbSpline
210
0.0
220
0.0
230
1.0
 70
    11
 71
     3
 72
    17
 73
    13
 74
     0
 42
0.0000000001
 43
0.0000000001
 40
0.0
 40
0.0
 40
0.0
 40
0.0
 40
1.0
 40
1.0
 40
1.0
 40
2.0
 40
2.0
 40
2.0
 40
3.0
 40
3.0
 40
3.0
 40
4.0
 40
4.0
 40
4.0
 40
4.0
 10
39.67064519270464
 20
16.53612472844031
 30
0.0
 10
39.54937775162439
 20
16.62052962351037
 30
0.0
 10
39.40537266534159
 20
16.66841648234604
 30
0.0
 10
39.24758718802694
 20
16.66841648234604
 30
0.0
 10
38.83004133976198
 20
16.66841648234604
 30
0.0
 10
38.49138823015435
 20
16.3301078825142
 30
0.0
 10
38.49138823015435
 20
15.91256203424924
 30
0.0
 10
38.49138823015435
 20
15.75753263514097
 30
0.0
 10
38.53686352055945
 20
15.61662813684033
 30
0.0
 10
38.62402449383588
 20
15.48950402957155
 30
0.0
 10
38.62402449383588
 20
15.48950402957155
 30
0.0
 10
39.67064519270464
 20
16.53612472844031
 30
0.0
 10
39.67064519270464
 20
16.53612472844031
 30
0.0
  0
SPLINE
  5
271
330
26B
100
AcDbEntity
  8
\U+30EC\U+30A4\U+30E4\U+30FC 1
370
     0
100
AcDbSpline
210
0.0
220
0.0
230
1.0
 70
    11
 71
     3
 72
    17
 73
    13
 74
     0
 42
0.0000000001
 43
0.0000000001
 40
0.0
 40
0.0
 40
0.0
 40
0.0
 40
1.0
 40
1.0
 40
1.0
 40
2.0
 40
2.0
 40
2.0
 40
3.0
 40
3.0
 40
3.0
 40
4.0
 40
4.0
 40
4.0
 40
4.0
 10
38.82452918334925
 20
15.28934384983397
 30
0.0
 10
38.9457966244295
 20
15.20459444498812
 30
0.0
 10
39.0894572009365
 20
15.15670758615245
 30
0.0
 10
39.24758718802694
 20
15.15670758615245
 30
0.0
 10
39.67064519270464
 20
15.15670758615245
 30
0.0
 10
40.00344163612374
 20
15.50087285217282
 30
0.0
 10
40.00344163612374
 20
15.91256203424924
 30
0.0
 10
40.00344163612374
 20
16.07069202133968
 30
0.0
 10
39.95555477728807
 20
16.21435259784669
 30
0.0
 10
39.87080537244221
 20
16.33562003892694
 30
0.0
 10
39.87080537244221
 20
16.33562003892694
 30
0.0
 10
38.82452918334925
 20
15.28934384983397
 30
0.0
 10
38.82452918334925
 20
15.28934384983397
 30
0.0
  0
HATCH
  5
272
330
26B
100
AcDbEntity
  8
\U+30EC\U+30A4\U+30E4\U+30FC 1
 62
     7
100
AcDbHatch
 10
0.0
 20
0.0
 30
0.0
210
0.0
220
0.0
230
1.0
  2
SOLID
 70
     1
 71
     0
 91
        3
 92
        1
 93
        1
 72
     4
 94
        3
 73
     0
 74
     1
 95
       41
 96
       37
 40
0.0
 40
0.0
 40
0.0
 40
0.0
 40
1.0
 40
1.0
 40
1.0
 40
2.0
 40
2.0
 40
2.0
 40
3.0
 40
3.0
 40
3.0
 40
4.0
 40
4.0
 40
4.0
 40
5.0
 40
5.0
 40
5.0
 40
6.0
 40
6.0
 40
6.0
 40
7.0
 40
7.0
 40
7.0
 40
8.0
 40
8.0
 40
8.0
 40
9.0
 40
9.0
 40
9.0
 40
10.0
 40
10.0
 40
10.0
 40
11.0
 40
11.0
 40
11.0
 40
12.0
 40
12.0
 40
12.0
 40
12.0
 10
40.07957829657469
 20
16.54163688485305
 10
40.21221456025621
 20
16.36662591874859
 10
40.29110729891354
 20
16.14958475999701
 10
40.29110729891354
 20
15.91256203424924
 10
40.29110729891354
 20
15.33723070866964
 10
39.82291851360655
 20
14.86904192336265
 10
39.24758718802694
 20
14.86904192336265
 10
39.01056446227918
 20
14.86904192336265
 10
38.79352330352759
 20
14.94793466201997
 10
38.61851233742314
 20
15.0805709257015
 10
38.61851233742314
 20
15.0805709257015
 10
38.48036391732887
 20
14.9451785838136
 10
38.48036391732887
 20
14.9451785838136
 10
38.48036391732887
 20
14.9451785838136
 10
38.27985922781551
 20
15.14533876355117
 10
38.27985922781551
 20
15.14533876355117
 10
38.27985922781551
 20
15.14533876355117
 10
38.4152515697034
 20
15.28348718364544
 10
38.4152515697034
 20
15.28348718364544
 10
38.28295981579767
 20
15.45849814974989
 10
38.20372256736455
 20
15.67553930850148
 10
38.20372256736455
 20
15.91256203424924
 10
38.20372256736455
 20
16.48789335982885
 10
38.67191135267154
 20
16.95642665491163
 10
39.24758718802694
 20
16.95642665491163
 10
39.48426540399891
 20
16.95642665491163
 10
39.7016510725263
 20
16.87718940647851
 10
39.87666203863075
 20
16.74489765257279
 10
39.87666203863075
 20
16.74489765257279
 10
40.01481045872501
 20
16.88028999446068
 10
40.01481045872501
 20
16.88028999446068
 10
40.01481045872501
 20
16.88028999446068
 10
40.21497063846259
 20
16.67978530494731
 10
40.21497063846259
 20
16.67978530494731
 10
40.21497063846259
 20
16.67978530494731
 10
40.07957829657469
 20
16.54163688485305
 10
40.07957829657469
 20
16.54163688485305
 97
        0
 92
        1
 93
        1
 72
     4
 94
        3
 73
     0
 74
     1
 95
       17
 96
       13
 40
0.0
 40
0.0
 40
0.0
 40
0.0
 40
1.0
 40
1.0
 40
1.0
 40
2.0
 40
2.0
 40
2.0
 40
3.0
 40
3.0
 40
3.0
 40
4.0
 40
4.0
 40
4.0
 40
4.0
 10
39.67064519270464
 20
16.53612472844031
 10
39.54937775162439
 20
16.62052962351037
 10
39.40537266534159
 20
16.66841648234604
 10
39.24758718802694
 20
16.66841648234604
 10
38.83004133976198
 20
16.66841648234604
 10
38.49138823015435
 20
16.3301078825142
 10
38.49138823015435
 20
15.91256203424924
 10
38.49138823015435
 20
15.75753263514097
 10
38.53686352055945
 20
15.61662813684033
 10
38.62402449383588
 20
15.48950402957155
 10
38.62402449383588
 20
15.48950402957155
 10
39.67064519270464
 20
16.53612472844031
 10
39.67064519270464
 20
16.53612472844031
 97
        0
 92
        1
 93
        1
 72
     4
 94
        3
 73
     0
 74
     1
 95
       17
 96
       13
 40
0.0
 40
0.0
 40
0.0
 40
0.0
 40
1.0
 40
1.0
 40
1.0
 40
2.0
 40
2.0
 40
2.0
 40
3.0
 40
3.0
 40
3.0
 40
4.0
 40
4.0
 40
4.0
 40
4.0
 10
38.82452918334925
 20
15.28934384983397
 10
38.9457966244295
 20
15.20459444498812
 10
39.0894572009365
 20
15.15670758615245
 10
39.24758718802694
 20
15.15670758615245
 10
39.67064519270464
 20
15.15670758615245
 10
40.00344163612374
 20
15.50087285217282
 10
40.00344163612374
 20
15.91256203424924
 10
40.00344163612374
 20
16.07069202133968
 10
39.95555477728807
 20
16.21435259784669
 10
39.87080537244221
 20
16.33562003892694
 10
39.87080537244221
 20
16.33562003892694
 10
38.82452918334925
 20
15.28934384983397
 10
38.82452918334925
 20
15.28934384983397
 97
        0
 75
     2
 76
     1
 98
        0
  0
SPLINE
  5
273
330
26B
100
AcDbEntity
  8
\U+30EC\U+30A4\U+30E4\U+30FC 1
370
     0
100
AcDbSpline
210
0.0
220
0.0
230
1.0
 70
    11
 71
     3
 72
    47
 73
    43
 74
     0
 42
0.0000000001
 43
0.0000000001
 40
0.0
 40
0.0
 40
0.0
 40
0.0
 40
1.0
 40
1.0
 40
1.0
 40
2.0
 40
2.0
 40
2.0
 40
3.0
 40
3.0
 40
3.0
 40
4.0
 40
4.0
 40
4.0
 40
5.0
 40
5.0
 40
5.0
 40
6.0
 40
6.0
 40
6.0
 40
7.0
 40
7.0
 40
7.0
 40
8.0
 40
8.0
 40
8.0
 40
9.0
 40
9.0
 40
9.0
 40
10.0
 40
10.0
 40
10.0
 40
11.0
 40
11.0
 40
11.0
 40
12.0
 40
12.0
 40
12.0
 40
13.0
 40
13.0
 40
13.0
 40
14.0
 40
14.0
 40
14.0
 40
14.0
 10
41.93441892946127
 20
14.84079212174736
 30
0.0
 10
41.93441892946127
 20
14.84079212174736
 30
0.0
 10
40.76549726018487
 20
14.84079212174736
 30
0.0
 10
40.76549726018487
 20
14.84079212174736
 30
0.0
 10
40.76549726018487
 20
14.84079212174736
 30
0.0
 10
40.76549726018487
 20
15.06575700534226
 30
0.0
 10
40.76549726018487
 20
15.06575700534226
 30
0.0
 10
40.76549726018487
 20
15.06575700534226
 30
0.0
 10
40.97323665498995
 20
15.28796581073079
 30
0.0
 10
40.97323665498995
 20
15.28796581073079
 30
0.0
 10
41.32635917518103
 20
15.65383519262632
 30
0.0
 10
41.53409856998611
 20
15.89326948680466
 30
0.0
 10
41.53409856998611
 20
16.14545064268745
 30
0.0
 10
41.53409856998611
 20
16.30840376663904
 30
0.0
 10
41.44762661626127
 20
16.44448512807853
 30
0.0
 10
41.24264329966256
 20
16.44448512807853
 30
0.0
 10
41.10656193822307
 20
16.44448512807853
 30
0.0
 10
40.98047136028168
 20
16.37282709471292
 30
0.0
 10
40.89399940655684
 20
16.30840376663904
 30
0.0
 10
40.89399940655684
 20
16.30840376663904
 30
0.0
 10
40.79271353247276
 20
16.57023119624413
 30
0.0
 10
40.79271353247276
 20
16.57023119624413
 30
0.0
 10
40.90881332691607
 20
16.65945922817534
 30
0.0
 10
41.10173880136193
 20
16.73835196683266
 30
0.0
 10
41.31671290145874
 20
16.73835196683266
 30
0.0
 10
41.71703326093388
 20
16.73835196683266
 30
0.0
 10
41.89962344210585
 20
16.48375924251929
 30
0.0
 10
41.89962344210585
 20
16.17990162026707
 30
0.0
 10
41.89962344210585
 20
15.84882772572695
 30
0.0
 10
41.67500306828675
 20
15.57700951262377
 30
0.0
 10
41.40318485518358
 20
15.30277973109002
 30
0.0
 10
41.40318485518358
 20
15.30277973109002
 30
0.0
 10
41.2474664365237
 20
15.14947288086073
 30
0.0
 10
41.2474664365237
 20
15.14947288086073
 30
0.0
 10
41.2474664365237
 20
15.14947288086073
 30
0.0
 10
41.2474664365237
 20
15.14464974399958
 30
0.0
 10
41.2474664365237
 20
15.14464974399958
 30
0.0
 10
41.2474664365237
 20
15.14464974399958
 30
0.0
 10
41.93441892946127
 20
15.14464974399958
 30
0.0
 10
41.93441892946127
 20
15.14464974399958
 30
0.0
 10
41.93441892946127
 20
15.14464974399958
 30
0.0
 10
41.93441892946127
 20
14.84079212174736
 30
0.0
 10
41.93441892946127
 20
14.84079212174736
 30
0.0
  0
HATCH
  5
274
330
26B
100
AcDbEntity
  8
\U+30EC\U+30A4\U+30E4\U+30FC 1
 62
     7
100
AcDbHatch
 10
0.0
 20
0.0
 30
0.0
210
0.0
220
0.0
230
1.0
  2
SOLID
 70
     1
 71
     0
 91
        1
 92
        1
 93
        1
 72
     4
 94
        3
 73
     0
 74
     1
 95
       47
 96
       43
 40
0.0
 40
0.0
 40
0.0
 40
0.0
 40
1.0
 40
1.0
 40
1.0
 40
2.0
 40
2.0
 40
2.0
 40
3.0
 40
3.0
 40
3.0
 40
4.0
 40
4.0
 40
4.0
 40
5.0
 40
5.0
 40
5.0
 40
6.0
 40
6.0
 40
6.0
 40
7.0
 40
7.0
 40
7.0
 40
8.0
 40
8.0
 40
8.0
 40
9.0
 40
9.0
 40
9.0
 40
10.0
 40
10.0
 40
10.0
 40
11.0
 40
11.0
 40
11.0
 40
12.0
 40
12.0
 40
12.0
 40
13.0
 40
13.0
 40
13.0
 40
14.0
 40
14.0
 40
14.0
 40
14.0
 10
41.93441892946127
 20
14.84079212174736
 10
41.93441892946127
 20
14.84079212174736
 10
40.76549726018487
 20
14.84079212174736
 10
40.76549726018487
 20
14.84079212174736
 10
40.76549726018487
 20
14.84079212174736
 10
40.76549726018487
 20
15.06575700534226
 10
40.76549726018487
 20
15.06575700534226
 10
40.76549726018487
 20
15.06575700534226
 10
40.97323665498995
 20
15.28796581073079
 10
40.97323665498995
 20
15.28796581073079
 10
41.32635917518103
 20
15.65383519262632
 10
41.53409856998611
 20
15.89326948680466
 10
41.53409856998611
 20
16.14545064268745
 10
41.53409856998611
 20
16.30840376663904
 10
41.44762661626127
 20
16.44448512807853
 10
41.24264329966256
 20
16.44448512807853
 10
41.10656193822307
 20
16.44448512807853
 10
40.98047136028168
 20
16.37282709471292
 10
40.89399940655684
 20
16.30840376663904
 10
40.89399940655684
 20
16.30840376663904
 10
40.79271353247276
 20
16.57023119624413
 10
40.79271353247276
 20
16.57023119624413
 10
40.90881332691607
 20
16.65945922817534
 10
41.10173880136193
 20
16.73835196683266
 10
41.31671290145874
 20
16.73835196683266
 10
41.71703326093388
 20
16.73835196683266
 10
41.89962344210585
 20
16.48375924251929
 10
41.89962344210585
 20
16.17990162026707
 10
41.89962344210585
 20
15.84882772572695
 10
41.67500306828675
 20
15.57700951262377
 10
41.40318485518358
 20
15.30277973109002
 10
41.40318485518358
 20
15.30277973109002
 10
41.2474664365237
 20
15.14947288086073
 10
41.2474664365237
 20
15.14947288086073
 10
41.2474664365237
 20
15.14947288086073
 10
41.2474664365237
 20
15.14464974399958
 10
41.2474664365237
 20
15.14464974399958
 10
41.2474664365237
 20
15.14464974399958
 10
41.93441892946127
 20
15.14464974399958
 10
41.93441892946127
 20
15.14464974399958
 10
41.93441892946127
 20
15.14464974399958
 10
41.93441892946127
 20
14.84079212174736
 10
41.93441892946127
 20
14.84079212174736
 97
        0
 75
     2
 76
     1
 98
        0
  0
SPLINE
  5
275
330
26B
100
AcDbEntity
  8
\U+30EC\U+30A4\U+30E4\U+30FC 1
370
     0
100
AcDbSpline
210
0.0
220
0.0
230
1.0
 70
    11
 71
     3
 72
    47
 73
    43
 74
     0
 42
0.0000000001
 43
0.0000000001
 40
0.0
 40
0.0
 40
0.0
 40
0.0
 40
1.0
 40
1.0
 40
1.0
 40
2.0
 40
2.0
 40
2.0
 40
3.0
 40
3.0
 40
3.0
 40
4.0
 40
4.0
 40
4.0
 40
5.0
 40
5.0
 40
5.0
 40
6.0
 40
6.0
 40
6.0
 40
7.0
 40
7.0
 40
7.0
 40
8.0
 40
8.0
 40
8.0
 40
9.0
 40
9.0
 40
9.0
 40
10.0
 40
10.0
 40
10.0
 40
11.0
 40
11.0
 40
11.0
 40
12.0
 40
12.0
 40
12.0
 40
13.0
 40
13.0
 40
13.0
 40
14.0
 40
14.0
 40
14.0
 40
14.0
 10
43.34690901022556
 20
14.84079212174736
 30
0.0
 10
43.34690901022556
 20
14.84079212174736
 30
0.0
 10
42.17798734094916
 20
14.84079212174736
 30
0.0
 10
42.17798734094916
 20
14.84079212174736
 30
0.0
 10
42.17798734094916
 20
14.84079212174736
 30
0.0
 10
42.17798734094916
 20
15.06575700534226
 30
0.0
 10
42.17798734094916
 20
15.06575700534226
 30
0.0
 10
42.17798734094916
 20
15.06575700534226
 30
0.0
 10
42.38572673575425
 20
15.28796581073079
 30
0.0
 10
42.38572673575425
 20
15.28796581073079
 30
0.0
 10
42.73884925594532
 20
15.65383519262632
 30
0.0
 10
42.94658865075041
 20
15.89326948680466
 30
0.0
 10
42.94658865075041
 20
16.14545064268745
 30
0.0
 10
42.94658865075041
 20
16.30840376663904
 30
0.0
 10
42.86011669702557
 20
16.44448512807853
 30
0.0
 10
42.65513338042685
 20
16.44448512807853
 30
0.0
 10
42.51905201898736
 20
16.44448512807853
 30
0.0
 10
42.39296144104596
 20
16.37282709471292
 30
0.0
 10
42.30648948732113
 20
16.30840376663904
 30
0.0
 10
42.30648948732113
 20
16.30840376663904
 30
0.0
 10
42.20520361323705
 20
16.57023119624413
 30
0.0
 10
42.20520361323705
 20
16.57023119624413
 30
0.0
 10
42.32130340768036
 20
16.65945922817534
 30
0.0
 10
42.51422888212622
 20
16.73835196683266
 30
0.0
 10
42.72920298222303
 20
16.73835196683266
 30
0.0
 10
43.12952334169817
 20
16.73835196683266
 30
0.0
 10
43.31211352287014
 20
16.48375924251929
 30
0.0
 10
43.31211352287014
 20
16.17990162026707
 30
0.0
 10
43.31211352287014
 20
15.84882772572695
 30
0.0
 10
43.08749314905104
 20
15.57700951262377
 30
0.0
 10
42.81567493594786
 20
15.30277973109002
 30
0.0
 10
42.81567493594786
 20
15.30277973109002
 30
0.0
 10
42.65995651728799
 20
15.14947288086073
 30
0.0
 10
42.65995651728799
 20
15.14947288086073
 30
0.0
 10
42.65995651728799
 20
15.14947288086073
 30
0.0
 10
42.65995651728799
 20
15.14464974399958
 30
0.0
 10
42.65995651728799
 20
15.14464974399958
 30
0.0
 10
42.65995651728799
 20
15.14464974399958
 30
0.0
 10
43.34690901022556
 20
15.14464974399958
 30
0.0
 10
43.34690901022556
 20
15.14464974399958
 30
0.0
 10
43.34690901022556
 20
15.14464974399958
 30
0.0
 10
43.34690901022556
 20
14.84079212174736
 30
0.0
 10
43.34690901022556
 20
14.84079212174736
 30
0.0
  0
HATCH
  5
276
330
26B
100
AcDbEntity
  8
\U+30EC\U+30A4\U+30E4\U+30FC 1
 62
     7
100
AcDbHatch
 10
0.0
 20
0.0
 30
0.0
210
0.0
220
0.0
230
1.0
  2
SOLID
 70
     1
 71
     0
 91
        1
 92
        1
 93
        1
 72
     4
 94
        3
 73
     0
 74
     1
 95
       47
 96
       43
 40
0.0
 40
0.0
 40
0.0
 40
0.0
 40
1.0
 40
1.0
 40
1.0
 40
2.0
 40
2.0
 40
2.0
 40
3.0
 40
3.0
 40
3.0
 40
4.0
 40
4.0
 40
4.0
 40
5.0
 40
5.0
 40
5.0
 40
6.0
 40
6.0
 40
6.0
 40
7.0
 40
7.0
 40
7.0
 40
8.0
 40
8.0
 40
8.0
 40
9.0
 40
9.0
 40
9.0
 40
10.0
 40
10.0
 40
10.0
 40
11.0
 40
11.0
 40
11.0
 40
12.0
 40
12.0
 40
12.0
 40
13.0
 40
13.0
 40
13.0
 40
14.0
 40
14.0
 40
14.0
 40
14.0
 10
43.34690901022556
 20
14.84079212174736
 10
43.34690901022556
 20
14.84079212174736
 10
42.17798734094916
 20
14.84079212174736
 10
42.17798734094916
 20
14.84079212174736
 10
42.17798734094916
 20
14.84079212174736
 10
42.17798734094916
 20
15.06575700534226
 10
42.17798734094916
 20
15.06575700534226
 10
42.17798734094916
 20
15.06575700534226
 10
42.38572673575425
 20
15.28796581073079
 10
42.38572673575425
 20
15.28796581073079
 10
42.73884925594532
 20
15.65383519262632
 10
42.94658865075041
 20
15.89326948680466
 10
42.94658865075041
 20
16.14545064268745
 10
42.94658865075041
 20
16.30840376663904
 10
42.86011669702557
 20
16.44448512807853
 10
42.65513338042685
 20
16.44448512807853
 10
42.51905201898736
 20
16.44448512807853
 10
42.39296144104596
 20
16.37282709471292
 10
42.30648948732113
 20
16.30840376663904
 10
42.30648948732113
 20
16.30840376663904
 10
42.20520361323705
 20
16.57023119624413
 10
42.20520361323705
 20
16.57023119624413
 10
42.32130340768036
 20
16.65945922817534
 10
42.51422888212622
 20
16.73835196683266
 10
42.72920298222303
 20
16.73835196683266
 10
43.12952334169817
 20
16.73835196683266
 10
43.31211352287014
 20
16.48375924251929
 10
43.31211352287014
 20
16.17990162026707
 10
43.31211352287014
 20
15.84882772572695
 10
43.08749314905104
 20
15.57700951262377
 10
42.81567493594786
 20
15.30277973109002
 10
42.81567493594786
 20
15.30277973109002
 10
42.65995651728799
 20
15.14947288086073
 10
42.65995651728799
 20
15.14947288086073
 10
42.65995651728799
 20
15.14947288086073
 10
42.65995651728799
 20
15.14464974399958
 10
42.65995651728799
 20
15.14464974399958
 10
42.65995651728799
 20
15.14464974399958
 10
43.34690901022556
 20
15.14464974399958
 10
43.34690901022556
 20
15.14464974399958
 10
43.34690901022556
 20
15.14464974399958
 10
43.34690901022556
 20
14.84079212174736
 10
43.34690901022556
 20
14.84079212174736
 97
        0
 75
     2
 76
     1
 98
        0
  0
SPLINE
  5
277
330
26B
100
AcDbEntity
  8
\U+30EC\U+30A4\U+30E4\U+30FC 1
370
     0
100
AcDbSpline
210
0.0
220
0.0
230
1.0
 70
    11
 71
     3
 72
    47
 73
    43
 74
     0
 42
0.0000000001
 43
0.0000000001
 40
0.0
 40
0.0
 40
0.0
 40
0.0
 40
1.0
 40
1.0
 40
1.0
 40
2.0
 40
2.0
 40
2.0
 40
3.0
 40
3.0
 40
3.0
 40
4.0
 40
4.0
 40
4.0
 40
5.0
 40
5.0
 40
5.0
 40
6.0
 40
6.0
 40
6.0
 40
7.0
 40
7.0
 40
7.0
 40
8.0
 40
8.0
 40
8.0
 40
9.0
 40
9.0
 40
9.0
 40
10.0
 40
10.0
 40
10.0
 40
11.0
 40
11.0
 40
11.0
 40
12.0
 40
12.0
 40
12.0
 40
13.0
 40
13.0
 40
13.0
 40
14.0
 40
14.0
 40
14.0
 40
14.0
 10
44.75939909098985
 20
14.84079212174736
 30
0.0
 10
44.75939909098985
 20
14.84079212174736
 30
0.0
 10
43.59047742171344
 20
14.84079212174736
 30
0.0
 10
43.59047742171344
 20
14.84079212174736
 30
0.0
 10
43.59047742171344
 20
14.84079212174736
 30
0.0
 10
43.59047742171344
 20
15.06575700534226
 30
0.0
 10
43.59047742171344
 20
15.06575700534226
 30
0.0
 10
43.59047742171344
 20
15.06575700534226
 30
0.0
 10
43.79821681651854
 20
15.28796581073079
 30
0.0
 10
43.79821681651854
 20
15.28796581073079
 30
0.0
 10
44.15133933670961
 20
15.65383519262632
 30
0.0
 10
44.3590787315147
 20
15.89326948680466
 30
0.0
 10
44.3590787315147
 20
16.14545064268745
 30
0.0
 10
44.3590787315147
 20
16.30840376663904
 30
0.0
 10
44.27260677778986
 20
16.44448512807853
 30
0.0
 10
44.06762346119114
 20
16.44448512807853
 30
0.0
 10
43.93154209975165
 20
16.44448512807853
 30
0.0
 10
43.80545152181026
 20
16.37282709471292
 30
0.0
 10
43.71897956808542
 20
16.30840376663904
 30
0.0
 10
43.71897956808542
 20
16.30840376663904
 30
0.0
 10
43.61769369400135
 20
16.57023119624413
 30
0.0
 10
43.61769369400135
 20
16.57023119624413
 30
0.0
 10
43.73379348844465
 20
16.65945922817534
 30
0.0
 10
43.92671896289051
 20
16.73835196683266
 30
0.0
 10
44.14169306298731
 20
16.73835196683266
 30
0.0
 10
44.54201342246247
 20
16.73835196683266
 30
0.0
 10
44.72460360363443
 20
16.48375924251929
 30
0.0
 10
44.72460360363443
 20
16.17990162026707
 30
0.0
 10
44.72460360363443
 20
15.84882772572695
 30
0.0
 10
44.49998322981534
 20
15.57700951262377
 30
0.0
 10
44.22816501671215
 20
15.30277973109002
 30
0.0
 10
44.22816501671215
 20
15.30277973109002
 30
0.0
 10
44.07244659805229
 20
15.14947288086073
 30
0.0
 10
44.07244659805229
 20
15.14947288086073
 30
0.0
 10
44.07244659805229
 20
15.14947288086073
 30
0.0
 10
44.07244659805229
 20
15.14464974399958
 30
0.0
 10
44.07244659805229
 20
15.14464974399958
 30
0.0
 10
44.07244659805229
 20
15.14464974399958
 30
0.0
 10
44.75939909098985
 20
15.14464974399958
 30
0.0
 10
44.75939909098985
 20
15.14464974399958
 30
0.0
 10
44.75939909098985
 20
15.14464974399958
 30
0.0
 10
44.75939909098985
 20
14.84079212174736
 30
0.0
 10
44.75939909098985
 20
14.84079212174736
 30
0.0
  0
HATCH
  5
278
330
26B
100
AcDbEntity
  8
\U+30EC\U+30A4\U+30E4\U+30FC 1
 62
     7
100
AcDbHatch
 10
0.0
 20
0.0
 30
0.0
210
0.0
220
0.0
230
1.0
  2
SOLID
 70
     1
 71
     0
 91
        1
 92
        1
 93
        1
 72
     4
 94
        3
 73
     0
 74
     1
 95
       47
 96
       43
 40
0.0
 40
0.0
 40
0.0
 40
0.0
 40
1.0
 40
1.0
 40
1.0
 40
2.0
 40
2.0
 40
2.0
 40
3.0
 40
3.0
 40
3.0
 40
4.0
 40
4.0
 40
4.0
 40
5.0
 40
5.0
 40
5.0
 40
6.0
 40
6.0
 40
6.0
 40
7.0
 40
7.0
 40
7.0
 40
8.0
 40
8.0
 40
8.0
 40
9.0
 40
9.0
 40
9.0
 40
10.0
 40
10.0
 40
10.0
 40
11.0
 40
11.0
 40
11.0
 40
12.0
 40
12.0
 40
12.0
 40
13.0
 40
13.0
 40
13.0
 40
14.0
 40
14.0
 40
14.0
 40
14.0
 10
44.75939909098985
 20
14.84079212174736
 10
44.75939909098985
 20
14.84079212174736
 10
43.59047742171344
 20
14.84079212174736
 10
43.59047742171344
 20
14.84079212174736
 10
43.59047742171344
 20
14.84079212174736
 10
43.59047742171344
 20
15.06575700534226
 10
43.59047742171344
 20
15.06575700534226
 10
43.59047742171344
 20
15.06575700534226
 10
43.79821681651854
 20
15.28796581073079
 10
43.79821681651854
 20
15.28796581073079
 10
44.15133933670961
 20
15.65383519262632
 10
44.3590787315147
 20
15.89326948680466
 10
44.3590787315147
 20
16.14545064268745
 10
44.3590787315147
 20
16.30840376663904
 10
44.27260677778986
 20
16.44448512807853
 10
44.06762346119114
 20
16.44448512807853
 10
43.93154209975165
 20
16.44448512807853
 10
43.80545152181026
 20
16.37282709471292
 10
43.71897956808542
 20
16.30840376663904
 10
43.71897956808542
 20
16.30840376663904
 10
43.61769369400135
 20
16.57023119624413
 10
43.61769369400135
 20
16.57023119624413
 10
43.73379348844465
 20
16.65945922817534
 10
43.92671896289051
 20
16.73835196683266
 10
44.14169306298731
 20
16.73835196683266
 10
44.54201342246247
 20
16.73835196683266
 10
44.72460360363443
 20
16.48375924251929
 10
44.72460360363443
 20
16.17990162026707
 10
44.72460360363443
 20
15.84882772572695
 10
44.49998322981534
 20
15.57700951262377
 10
44.22816501671215
 20
15.30277973109002
 10
44.22816501671215
 20
15.30277973109002
 10
44.07244659805229
 20
15.14947288086073
 10
44.07244659805229
 20
15.14947288086073
 10
44.07244659805229
 20
15.14947288086073
 10
44.07244659805229
 20
15.14464974399958
 10
44.07244659805229
 20
15.14464974399958
 10
44.07244659805229
 20
15.14464974399958
 10
44.75939909098985
 20
15.14464974399958
 10
44.75939909098985
 20
15.14464974399958
 10
44.75939909098985
 20
15.14464974399958
 10
44.75939909098985
 20
14.84079212174736
 10
44.75939909098985
 20
14.84079212174736
 97
        0
 75
     2
 76
     1
 98
        0
  0
ENDBLK
  5
26E
330
26B
100
AcDbEntity
  8
0
100
AcDbBlockEnd
  0
BLOCK
  5
299
330
297
100
AcDbEntity
  8
0
100
AcDbBlockBegin
  2
block 6
 70
     0
 71
     0
 10
0.0
 20
0.0
 30
0.0
  3
block 6
  1

  0
INSERT
  5
29C
330
297
100
AcDbEntity
  8
\U+30EC\U+30A4\U+30E4\U+30FC 1
100
AcDbBlockReference
  2
block 7
 10
0.0
 20
0.0
 30
0.0
  0
POLYLINE
  5
2AD
330
297
100
AcDbEntity
  8
\U+30EC\U+30A4\U+30E4\U+30FC 1
 62
     7
370
    18
100
AcDb2dPolyline
 66
     1
 10
0.0
 20
0.0
 30
0.0
  0
VERTEX
  5
2AE
330
2AD
100
AcDbEntity
  8
\U+30EC\U+30A4\U+30E4\U+30FC 1
 62
     7
370
    18
100
AcDbVertex
100
AcDb2dVertex
 10
42.88595493021028
 20
44.46225940936565
 30
0.0
  0
VERTEX
  5
2AF
330
2AD
100
AcDbEntity
  8
\U+30EC\U+30A4\U+30E4\U+30FC 1
 62
     7
370
    18
100
AcDbVertex
100
AcDb2dVertex
 10
42.88595493021028
 20
46.53948110252865
 30
0.0
  0
SEQEND
  5
2B0
330
2AD
100
AcDbEntity
  8
\U+30EC\U+30A4\U+30E4\U+30FC 1
370
    18
  0
POLYLINE
  5
2B1
330
297
100
AcDbEntity
  8
\U+30EC\U+30A4\U+30E4\U+30FC 1
 62
     7
370
    18
100
AcDb2dPolyline
 66
     1
 10
0.0
 20
0.0
 30
0.0
  0
VERTEX
  5
2B2
330
2B1
100
AcDbEntity
  8
\U+30EC\U+30A4\U+30E4\U+30FC 1
 62
     7
370
    18
100
AcDbVertex
100
AcDb2dVertex
 10
41.3380725075581
 20
44.46225940936565
 30
0.0
  0
VERTEX
  5
2B3
330
2B1
100
AcDbEntity
  8
\U+30EC\U+30A4\U+30E4\U+30FC 1
 62
     7
370
    18
100
AcDbVertex
100
AcDb2dVertex
 10
41.3380725075581
 20
46.53948110252865
 30
0.0
  0
SEQEND
  5
2B4
330
2B1
100
AcDbEntity
  8
\U+30EC\U+30A4\U+30E4\U+30FC 1
370
    18
  0
POLYLINE
  5
2B5
330
297
100
AcDbEntity
  8
\U+30EC\U+30A4\U+30E4\U+30FC 1
370
     0
100
AcDb2dPolyline
 66
     1
 10
0.0
 20
0.0
 30
0.0
  0
VERTEX
  5
2B6
330
2B5
100
AcDbEntity
  8
\U+30EC\U+30A4\U+30E4\U+30FC 1
370
     0
100
AcDbVertex
100
AcDb2dVertex
 10
42.88595493021028
 20
46.33294749193885
 30
0.0
  0
VERTEX
  5
2B7
330
2B5
100
AcDbEntity
  8
\U+30EC\U+30A4\U+30E4\U+30FC 1
370
     0
100
AcDbVertex
100
AcDb2dVertex
 10
42.93728688680391
 20
46.33294749193885
 30
0.0
  0
SEQEND
  5
2B8
330
2B5
100
AcDbEntity
  8
\U+30EC\U+30A4\U+30E4\U+30FC 1
370
     0
  0
POLYLINE
  5
2B9
330
297
100
AcDbEntity
  8
\U+30EC\U+30A4\U+30E4\U+30FC 1
 62
     7
370
    18
100
AcDb2dPolyline
 66
     1
 10
0.0
 20
0.0
 30
0.0
  0
VERTEX
  5
2BA
330
2B9
100
AcDbEntity
  8
\U+30EC\U+30A4\U+30E4\U+30FC 1
 62
     7
370
    18
100
AcDbVertex
100
AcDb2dVertex
 10
42.93728688680391
 20
46.33294749193885
 30
0.0
  0
VERTEX
  5
2BB
330
2B9
100
AcDbEntity
  8
\U+30EC\U+30A4\U+30E4\U+30FC 1
 62
     7
370
    18
100
AcDbVertex
100
AcDb2dVertex
 10
42.11184146399629
 20
46.33294749193885
 30
0.0
  0
SEQEND
  5
2BC
330
2B9
100
AcDbEntity
  8
\U+30EC\U+30A4\U+30E4\U+30FC 1
370
    18
  0
POLYLINE
  5
2BD
330
297
100
AcDbEntity
  8
\U+30EC\U+30A4\U+30E4\U+30FC 1
370
     0
100
AcDb2dPolyline
 66
     1
 10
0.0
 20
0.0
 30
0.0
  0
VERTEX
  5
2BE
330
2BD
100
AcDbEntity
  8
\U+30EC\U+30A4\U+30E4\U+30FC 1
370
     0
100
AcDbVertex
100
AcDb2dVertex
 10
41.3380725075581
 20
46.33294749193885
 30
0.0
  0
VERTEX
  5
2BF
330
2BD
100
AcDbEntity
  8
\U+30EC\U+30A4\U+30E4\U+30FC 1
370
     0
100
AcDbVertex
100
AcDb2dVertex
 10
41.28605153141287
 20
46.33294749193885
 30
0.0
  0
SEQEND
  5
2C0
330
2BD
100
AcDbEntity
  8
\U+30EC\U+30A4\U+30E4\U+30FC 1
370
     0
  0
POLYLINE
  5
2C1
330
297
100
AcDbEntity
  8
\U+30EC\U+30A4\U+30E4\U+30FC 1
 62
     7
370
    18
100
AcDb2dPolyline
 66
     1
 10
0.0
 20
0.0
 30
0.0
  0
VERTEX
  5
2C2
330
2C1
100
AcDbEntity
  8
\U+30EC\U+30A4\U+30E4\U+30FC 1
 62
     7
370
    18
100
AcDbVertex
100
AcDb2dVertex
 10
41.28605153141287
 20
46.33294749193885
 30
0.0
  0
VERTEX
  5
2C3
330
2C1
100
AcDbEntity
  8
\U+30EC\U+30A4\U+30E4\U+30FC 1
 62
     7
370
    18
100
AcDbVertex
100
AcDb2dVertex
 10
42.11184146399629
 20
46.33294749193885
 30
0.0
  0
SEQEND
  5
2C4
330
2C1
100
AcDbEntity
  8
\U+30EC\U+30A4\U+30E4\U+30FC 1
370
    18
  0
POLYLINE
  5
2C5
330
297
100
AcDbEntity
  8
\U+30EC\U+30A4\U+30E4\U+30FC 1
370
     0
100
AcDb2dPolyline
 66
     1
 10
0.0
 20
0.0
 30
0.0
  0
VERTEX
  5
2C6
330
2C5
100
AcDbEntity
  8
\U+30EC\U+30A4\U+30E4\U+30FC 1
370
     0
100
AcDbVertex
100
AcDb2dVertex
 10
43.29867764161409
 20
46.40529454485605
 30
0.0
  0
VERTEX
  5
2C7
330
2C5
100
AcDbEntity
  8
\U+30EC\U+30A4\U+30E4\U+30FC 1
370
     0
100
AcDbVertex
100
AcDb2dVertex
 10
42.88595493021028
 20
46.33294749193885
 30
0.0
  0
VERTEX
  5
2C8
330
2C5
100
AcDbEntity
  8
\U+30EC\U+30A4\U+30E4\U+30FC 1
370
     0
100
AcDbVertex
100
AcDb2dVertex
 10
43.29867764161409
 20
46.26077269390955
 30
0.0
  0
VERTEX
  5
2C9
330
2C5
100
AcDbEntity
  8
\U+30EC\U+30A4\U+30E4\U+30FC 1
370
     0
100
AcDbVertex
100
AcDb2dVertex
 10
43.29867764161409
 20
46.40529454485605
 30
0.0
  0
SEQEND
  5
2CA
330
2C5
100
AcDbEntity
  8
\U+30EC\U+30A4\U+30E4\U+30FC 1
370
     0
  0
HATCH
  5
2CB
330
297
100
AcDbEntity
  8
\U+30EC\U+30A4\U+30E4\U+30FC 1
 62
     7
100
AcDbHatch
 10
0.0
 20
0.0
 30
0.0
210
0.0
220
0.0
230
1.0
  2
SOLID
 70
     1
 71
     0
 91
        1
 92
        1
 93
        3
 72
     1
 10
43.29867764161409
 20
46.40529454485605
 11
42.88595493021028
 21
46.33294749193885
 72
     1
 10
42.88595493021028
 20
46.33294749193885
 11
43.29867764161409
 21
46.26077269390955
 72
     1
 10
43.29867764161409
 20
46.26077269390955
 11
43.29867764161409
 21
46.40529454485605
 97
        0
 75
     2
 76
     1
 98
        0
  0
POLYLINE
  5
2CC
330
297
100
AcDbEntity
  8
\U+30EC\U+30A4\U+30E4\U+30FC 1
370
     0
100
AcDb2dPolyline
 66
     1
 10
0.0
 20
0.0
 30
0.0
  0
VERTEX
  5
2CD
330
2CC
100
AcDbEntity
  8
\U+30EC\U+30A4\U+30E4\U+30FC 1
370
     0
100
AcDbVertex
100
AcDb2dVertex
 10
40.92534979615429
 20
46.26077269390955
 30
0.0
  0
VERTEX
  5
2CE
330
2CC
100
AcDbEntity
  8
\U+30EC\U+30A4\U+30E4\U+30FC 1
370
     0
100
AcDbVertex
100
AcDb2dVertex
 10
41.3380725075581
 20
46.33294749193885
 30
0.0
  0
VERTEX
  5
2CF
330
2CC
100
AcDbEntity
  8
\U+30EC\U+30A4\U+30E4\U+30FC 1
370
     0
100
AcDbVertex
100
AcDb2dVertex
 10
40.92534979615429
 20
46.40529454485605
 30
0.0
  0
VERTEX
  5
2D0
330
2CC
100
AcDbEntity
  8
\U+30EC\U+30A4\U+30E4\U+30FC 1
370
     0
100
AcDbVertex
100
AcDb2dVertex
 10
40.92534979615429
 20
46.26077269390955
 30
0.0
  0
SEQEND
  5
2D1
330
2CC
100
AcDbEntity
  8
\U+30EC\U+30A4\U+30E4\U+30FC 1
370
     0
  0
HATCH
  5
2D2
330
297
100
AcDbEntity
  8
\U+30EC\U+30A4\U+30E4\U+30FC 1
 62
     7
100
AcDbHatch
 10
0.0
 20
0.0
 30
0.0
210
0.0
220
0.0
230
1.0
  2
SOLID
 70
     1
 71
     0
 91
        1
 92
        1
 93
        3
 72
     1
 10
40.92534979615429
 20
46.26077269390955
 11
41.3380725075581
 21
46.33294749193885
 72
     1
 10
41.3380725075581
 20
46.33294749193885
 11
40.92534979615429
 21
46.40529454485605
 72
     1
 10
40.92534979615429
 20
46.40529454485605
 11
40.92534979615429
 21
46.26077269390955
 97
        0
 75
     2
 76
     1
 98
        0
  0
ENDBLK
  5
29A
330
297
100
AcDbEntity
  8
0
100
AcDbBlockEnd
  0
BLOCK
  5
29D
330
29B
100
AcDbEntity
  8
0
100
AcDbBlockBegin
  2
block 7
 70
     0
 71
     0
 10
0.0
 20
0.0
 30
0.0
  3
block 7
  1

  0
POLYLINE
  5
29F
330
29B
100
AcDbEntity
  8
\U+30EC\U+30A4\U+30E4\U+30FC 1
370
     0
100
AcDb2dPolyline
 66
     1
 10
0.0
 20
0.0
 30
0.0
  0
VERTEX
  5
2A0
330
29F
100
AcDbEntity
  8
\U+30EC\U+30A4\U+30E4\U+30FC 1
370
     0
100
AcDbVertex
100
AcDb2dVertex
 10
41.18166506934664
 20
46.98045361554775
 30
0.0
  0
VERTEX
  5
2A1
330
29F
100
AcDbEntity
  8
\U+30EC\U+30A4\U+30E4\U+30FC 1
370
     0
100
AcDbVertex
100
AcDb2dVertex
 10
41.18166506934664
 20
48.5221348622356
 30
0.0
  0
VERTEX
  5
2A2
330
29F
100
AcDbEntity
  8
\U+30EC\U+30A4\U+30E4\U+30FC 1
370
     0
100
AcDbVertex
100
AcDb2dVertex
 10
41.17649742270969
 20
48.5221348622356
 30
0.0
  0
VERTEX
  5
2A3
330
29F
100
AcDbEntity
  8
\U+30EC\U+30A4\U+30E4\U+30FC 1
370
     0
100
AcDbVertex
100
AcDb2dVertex
 10
40.85541431166767
 20
48.35418634653497
 30
0.0
  0
VERTEX
  5
2A4
330
29F
100
AcDbEntity
  8
\U+30EC\U+30A4\U+30E4\U+30FC 1
370
     0
100
AcDbVertex
100
AcDb2dVertex
 10
40.77617706323454
 20
48.61618603102796
 30
0.0
  0
VERTEX
  5
2A5
330
29F
100
AcDbEntity
  8
\U+30EC\U+30A4\U+30E4\U+30FC 1
370
     0
100
AcDbVertex
100
AcDb2dVertex
 10
41.23092996728549
 20
48.84838561991458
 30
0.0
  0
VERTEX
  5
2A6
330
29F
100
AcDbEntity
  8
\U+30EC\U+30A4\U+30E4\U+30FC 1
370
     0
100
AcDbVertex
100
AcDb2dVertex
 10
41.53719915796828
 20
48.84838561991458
 30
0.0
  0
VERTEX
  5
2A7
330
29F
100
AcDbEntity
  8
\U+30EC\U+30A4\U+30E4\U+30FC 1
370
     0
100
AcDbVertex
100
AcDb2dVertex
 10
41.53719915796828
 20
46.98045361554775
 30
0.0
  0
VERTEX
  5
2A8
330
29F
100
AcDbEntity
  8
\U+30EC\U+30A4\U+30E4\U+30FC 1
370
     0
100
AcDbVertex
100
AcDb2dVertex
 10
41.18166506934664
 20
46.98045361554775
 30
0.0
  0
SEQEND
  5
2A9
330
29F
100
AcDbEntity
  8
\U+30EC\U+30A4\U+30E4\U+30FC 1
370
     0
  0
HATCH
  5
2AA
330
29B
100
AcDbEntity
  8
\U+30EC\U+30A4\U+30E4\U+30FC 1
 62
     7
100
AcDbHatch
 10
0.0
 20
0.0
 30
0.0
210
0.0
220
0.0
230
1.0
  2
SOLID
 70
     1
 71
     0
 91
        1
 92
        1
 93
        8
 72
     1
 10
41.18166506934664
 20
46.98045361554775
 11
41.18166506934664
 21
48.5221348622356
 72
     1
 10
41.18166506934664
 20
48.5221348622356
 11
41.17649742270969
 21
48.5221348622356
 72
     1
 10
41.17649742270969
 20
48.5221348622356
 11
40.85541431166767
 21
48.35418634653497
 72
     1
 10
40.85541431166767
 20
48.35418634653497
 11
40.77617706323454
 21
48.61618603102796
 72
     1
 10
40.77617706323454
 20
48.61618603102796
 11
41.23092996728549
 21
48.84838561991458
 72
     1
 10
41.23092996728549
 20
48.84838561991458
 11
41.53719915796828
 21
48.84838561991458
 72
     1
 10
41.53719915796828
 20
48.84838561991458
 11
41.53719915796828
 21
46.98045361554775
 72
     1
 10
41.53719915796828
 20
46.98045361554775
 11
41.18166506934664
 21
46.98045361554775
 97
        0
 75
     2
 76
     1
 98
        0
  0
SPLINE
  5
2AB
330
29B
100
AcDbEntity
  8
\U+30EC\U+30A4\U+30E4\U+30FC 1
370
     0
100
AcDbSpline
210
0.0
220
0.0
230
1.0
 70
    11
 71
     3
 72
    47
 73
    43
 74
     0
 42
0.0000000001
 43
0.0000000001
 40
0.0
 40
0.0
 40
0.0
 40
0.0
 40
1.0
 40
1.0
 40
1.0
 40
2.0
 40
2.0
 40
2.0
 40
3.0
 40
3.0
 40
3.0
 40
4.0
 40
4.0
 40
4.0
 40
5.0
 40
5.0
 40
5.0
 40
6.0
 40
6.0
 40
6.0
 40
7.0
 40
7.0
 40
7.0
 40
8.0
 40
8.0
 40
8.0
 40
9.0
 40
9.0
 40
9.0
 40
10.0
 40
10.0
 40
10.0
 40
11.0
 40
11.0
 40
11.0
 40
12.0
 40
12.0
 40
12.0
 40
13.0
 40
13.0
 40
13.0
 40
14.0
 40
14.0
 40
14.0
 40
14.0
 10
43.19187961111728
 20
48.85079718834515
 30
0.0
 10
43.19187961111728
 20
48.85079718834515
 30
0.0
 10
43.19187961111728
 20
48.5493511345235
 30
0.0
 10
43.19187961111728
 20
48.5493511345235
 30
0.0
 10
43.19187961111728
 20
48.5493511345235
 30
0.0
 10
42.55694809432494
 20
48.5493511345235
 30
0.0
 10
42.55694809432494
 20
48.5493511345235
 30
0.0
 10
42.55694809432494
 20
48.5493511345235
 30
0.0
 10
42.50768319638609
 20
48.18365400751587
 30
0.0
 10
42.50768319638609
 20
48.18365400751587
 30
0.0
 10
42.54213417396571
 20
48.18864939926491
 30
0.0
 10
42.57176201468418
 20
48.19106096769548
 30
0.0
 10
42.61138063890073
 20
48.19106096769548
 30
0.0
 10
42.93763139657971
 20
48.19106096769548
 30
0.0
 10
43.2439005872625
 20
48.00829853163562
 30
0.0
 10
43.2439005872625
 20
47.6055666037299
 30
0.0
 10
43.2439005872625
 20
47.24727643690188
 30
0.0
 10
42.96967080572875
 20
46.95323734325985
 30
0.0
 10
42.52973182203704
 20
46.95323734325985
 30
0.0
 10
42.34438556265871
 20
46.95323734325985
 30
0.0
 10
42.17660930184597
 20
47.00026292765603
 30
0.0
 10
42.08496970148419
 20
47.04970008048278
 30
0.0
 10
42.08496970148419
 20
47.04970008048278
 30
0.0
 10
42.15662773484979
 20
47.3263414304471
 30
0.0
 10
42.15662773484979
 20
47.3263414304471
 30
0.0
 10
42.23069733664597
 20
47.28689506111844
 30
0.0
 10
42.36677869808545
 20
47.23986947672226
 30
0.0
 10
42.51009476481666
 20
47.23986947672226
 30
0.0
 10
42.70026416105615
 20
47.23986947672226
 30
0.0
 10
42.8756196369364
 20
47.36096466291462
 30
0.0
 10
42.8756196369364
 20
47.57593876301143
 30
0.0
 10
42.8756196369364
 20
47.80073139171843
 30
0.0
 10
42.71025494455424
 20
47.92682196965983
 30
0.0
 10
42.39399497037336
 20
47.92682196965983
 30
0.0
 10
42.30993458507909
 20
47.92682196965983
 30
0.0
 10
42.24551125700521
 20
47.92182657791078
 30
0.0
 10
42.18384400713769
 20
47.91441961773116
 30
0.0
 10
42.18384400713769
 20
47.91441961773116
 30
0.0
 10
42.29753223315043
 20
48.85079718834515
 30
0.0
 10
42.29753223315043
 20
48.85079718834515
 30
0.0
 10
42.29753223315043
 20
48.85079718834515
 30
0.0
 10
43.19187961111728
 20
48.85079718834515
 30
0.0
 10
43.19187961111728
 20
48.85079718834515
 30
0.0
  0
HATCH
  5
2AC
330
29B
100
AcDbEntity
  8
\U+30EC\U+30A4\U+30E4\U+30FC 1
 62
     7
100
AcDbHatch
 10
0.0
 20
0.0
 30
0.0
210
0.0
220
0.0
230
1.0
  2
SOLID
 70
     1
 71
     0
 91
        1
 92
        1
 93
        1
 72
     4
 94
        3
 73
     0
 74
     1
 95
       47
 96
       43
 40
0.0
 40
0.0
 40
0.0
 40
0.0
 40
1.0
 40
1.0
 40
1.0
 40
2.0
 40
2.0
 40
2.0
 40
3.0
 40
3.0
 40
3.0
 40
4.0
 40
4.0
 40
4.0
 40
5.0
 40
5.0
 40
5.0
 40
6.0
 40
6.0
 40
6.0
 40
7.0
 40
7.0
 40
7.0
 40
8.0
 40
8.0
 40
8.0
 40
9.0
 40
9.0
 40
9.0
 40
10.0
 40
10.0
 40
10.0
 40
11.0
 40
11.0
 40
11.0
 40
12.0
 40
12.0
 40
12.0
 40
13.0
 40
13.0
 40
13.0
 40
14.0
 40
14.0
 40
14.0
 40
14.0
 10
43.19187961111728
 20
48.85079718834515
 10
43.19187961111728
 20
48.85079718834515
 10
43.19187961111728
 20
48.5493511345235
 10
43.19187961111728
 20
48.5493511345235
 10
43.19187961111728
 20
48.5493511345235
 10
42.55694809432494
 20
48.5493511345235
 10
42.55694809432494
 20
48.5493511345235
 10
42.55694809432494
 20
48.5493511345235
 10
42.50768319638609
 20
48.18365400751587
 10
42.50768319638609
 20
48.18365400751587
 10
42.54213417396571
 20
48.18864939926491
 10
42.57176201468418
 20
48.19106096769548
 10
42.61138063890073
 20
48.19106096769548
 10
42.93763139657971
 20
48.19106096769548
 10
43.2439005872625
 20
48.00829853163562
 10
43.2439005872625
 20
47.6055666037299
 10
43.2439005872625
 20
47.24727643690188
 10
42.96967080572875
 20
46.95323734325985
 10
42.52973182203704
 20
46.95323734325985
 10
42.34438556265871
 20
46.95323734325985
 10
42.17660930184597
 20
47.00026292765603
 10
42.08496970148419
 20
47.04970008048278
 10
42.08496970148419
 20
47.04970008048278
 10
42.15662773484979
 20
47.3263414304471
 10
42.15662773484979
 20
47.3263414304471
 10
42.23069733664597
 20
47.28689506111844
 10
42.36677869808545
 20
47.23986947672226
 10
42.51009476481666
 20
47.23986947672226
 10
42.70026416105615
 20
47.23986947672226
 10
42.8756196369364
 20
47.36096466291462
 10
42.8756196369364
 20
47.57593876301143
 10
42.8756196369364
 20
47.80073139171843
 10
42.71025494455424
 20
47.92682196965983
 10
42.39399497037336
 20
47.92682196965983
 10
42.30993458507909
 20
47.92682196965983
 10
42.24551125700521
 20
47.92182657791078
 10
42.18384400713769
 20
47.91441961773116
 10
42.18384400713769
 20
47.91441961773116
 10
42.29753223315043
 20
48.85079718834515
 10
42.29753223315043
 20
48.85079718834515
 10
42.29753223315043
 20
48.85079718834515
 10
43.19187961111728
 20
48.85079718834515
 10
43.19187961111728
 20
48.85079718834515
 97
        0
 75
     2
 76
     1
 98
        0
  0
ENDBLK
  5
29E
330
29B
100
AcDbEntity
  8
0
100
AcDbBlockEnd
  0
BLOCK
  5
2D5
330
2D3
100
AcDbEntity
  8
0
100
AcDbBlockBegin
  2
block 8
 70
     0
 71
     0
 10
0.0
 20
0.0
 30
0.0
  3
block 8
  1

  0
INSERT
  5
2D8
330
2D3
100
AcDbEntity
  8
\U+30EC\U+30A4\U+30E4\U+30FC 1
100
AcDbBlockReference
  2
block 9
 10
0.0
 20
0.0
 30
0.0
  0
POLYLINE
  5
2E1
330
2D3
100
AcDbEntity
  8
\U+30EC\U+30A4\U+30E4\U+30FC 1
 62
     7
370
    18
100
AcDb2dPolyline
 66
     1
 10
0.0
 20
0.0
 30
0.0
  0
VERTEX
  5
2E2
330
2E1
100
AcDbEntity
  8
\U+30EC\U+30A4\U+30E4\U+30FC 1
 62
     7
370
    18
100
AcDbVertex
100
AcDb2dVertex
 10
13.69805319543147
 20
44.22230835052362
 30
0.0
  0
VERTEX
  5
2E3
330
2E1
100
AcDbEntity
  8
\U+30EC\U+30A4\U+30E4\U+30FC 1
 62
     7
370
    18
100
AcDbVertex
100
AcDb2dVertex
 10
13.69805319543147
 20
47.8215742331541
 30
0.0
  0
SEQEND
  5
2E4
330
2E1
100
AcDbEntity
  8
\U+30EC\U+30A4\U+30E4\U+30FC 1
370
    18
  0
POLYLINE
  5
2E5
330
2D3
100
AcDbEntity
  8
\U+30EC\U+30A4\U+30E4\U+30FC 1
 62
     7
370
    18
100
AcDb2dPolyline
 66
     1
 10
0.0
 20
0.0
 30
0.0
  0
VERTEX
  5
2E6
330
2E5
100
AcDbEntity
  8
\U+30EC\U+30A4\U+30E4\U+30FC 1
 62
     7
370
    18
100
AcDbVertex
100
AcDb2dVertex
 10
19.88923837626442
 20
44.22230835052362
 30
0.0
  0
VERTEX
  5
2E7
330
2E5
100
AcDbEntity
  8
\U+30EC\U+30A4\U+30E4\U+30FC 1
 62
     7
370
    18
100
AcDbVertex
100
AcDb2dVertex
 10
19.88923837626442
 20
47.8215742331541
 30
0.0
  0
SEQEND
  5
2E8
330
2E5
100
AcDbEntity
  8
\U+30EC\U+30A4\U+30E4\U+30FC 1
370
    18
  0
POLYLINE
  5
2E9
330
2D3
100
AcDbEntity
  8
\U+30EC\U+30A4\U+30E4\U+30FC 1
 62
     7
370
    18
100
AcDb2dPolyline
 66
     1
 10
0.0
 20
0.0
 30
0.0
  0
VERTEX
  5
2EA
330
2E9
100
AcDbEntity
  8
\U+30EC\U+30A4\U+30E4\U+30FC 1
 62
     7
370
    18
100
AcDbVertex
100
AcDb2dVertex
 10
13.69805319543147
 20
47.61521287745219
 30
0.0
  0
VERTEX
  5
2EB
330
2E9
100
AcDbEntity
  8
\U+30EC\U+30A4\U+30E4\U+30FC 1
 62
     7
370
    18
100
AcDbVertex
100
AcDb2dVertex
 10
16.79347353096005
 20
47.61521287745219
 30
0.0
  0
SEQEND
  5
2EC
330
2E9
100
AcDbEntity
  8
\U+30EC\U+30A4\U+30E4\U+30FC 1
370
    18
  0
POLYLINE
  5
2ED
330
2D3
100
AcDbEntity
  8
\U+30EC\U+30A4\U+30E4\U+30FC 1
 62
     7
370
    18
100
AcDb2dPolyline
 66
     1
 10
0.0
 20
0.0
 30
0.0
  0
VERTEX
  5
2EE
330
2ED
100
AcDbEntity
  8
\U+30EC\U+30A4\U+30E4\U+30FC 1
 62
     7
370
    18
100
AcDbVertex
100
AcDb2dVertex
 10
19.88923837626442
 20
47.61521287745219
 30
0.0
  0
VERTEX
  5
2EF
330
2ED
100
AcDbEntity
  8
\U+30EC\U+30A4\U+30E4\U+30FC 1
 62
     7
370
    18
100
AcDbVertex
100
AcDb2dVertex
 10
16.79347353096005
 20
47.61521287745219
 30
0.0
  0
SEQEND
  5
2F0
330
2ED
100
AcDbEntity
  8
\U+30EC\U+30A4\U+30E4\U+30FC 1
370
    18
  0
POLYLINE
  5
2F1
330
2D3
100
AcDbEntity
  8
\U+30EC\U+30A4\U+30E4\U+30FC 1
370
     0
100
AcDb2dPolyline
 66
     1
 10
0.0
 20
0.0
 30
0.0
  0
VERTEX
  5
2F2
330
2F1
100
AcDbEntity
  8
\U+30EC\U+30A4\U+30E4\U+30FC 1
370
     0
100
AcDbVertex
100
AcDb2dVertex
 10
14.11060365194738
 20
47.68755993036939
 30
0.0
  0
VERTEX
  5
2F3
330
2F1
100
AcDbEntity
  8
\U+30EC\U+30A4\U+30E4\U+30FC 1
370
     0
100
AcDbVertex
100
AcDb2dVertex
 10
13.69805319543147
 20
47.61521287745219
 30
0.0
  0
VERTEX
  5
2F4
330
2F1
100
AcDbEntity
  8
\U+30EC\U+30A4\U+30E4\U+30FC 1
370
     0
100
AcDbVertex
100
AcDb2dVertex
 10
14.11060365194738
 20
47.54303807942289
 30
0.0
  0
VERTEX
  5
2F5
330
2F1
100
AcDbEntity
  8
\U+30EC\U+30A4\U+30E4\U+30FC 1
370
     0
100
AcDbVertex
100
AcDb2dVertex
 10
14.11060365194738
 20
47.68755993036939
 30
0.0
  0
SEQEND
  5
2F6
330
2F1
100
AcDbEntity
  8
\U+30EC\U+30A4\U+30E4\U+30FC 1
370
     0
  0
HATCH
  5
2F7
330
2D3
100
AcDbEntity
  8
\U+30EC\U+30A4\U+30E4\U+30FC 1
 62
     7
100
AcDbHatch
 10
0.0
 20
0.0
 30
0.0
210
0.0
220
0.0
230
1.0
  2
SOLID
 70
     1
 71
     0
 91
        1
 92
        1
 93
        3
 72
     1
 10
14.11060365194738
 20
47.68755993036939
 11
13.69805319543147
 21
47.61521287745219
 72
     1
 10
13.69805319543147
 20
47.61521287745219
 11
14.11060365194738
 21
47.54303807942289
 72
     1
 10
14.11060365194738
 20
47.54303807942289
 11
14.11060365194738
 21
47.68755993036939
 97
        0
 75
     2
 76
     1
 98
        0
  0
POLYLINE
  5
2F8
330
2D3
100
AcDbEntity
  8
\U+30EC\U+30A4\U+30E4\U+30FC 1
370
     0
100
AcDb2dPolyline
 66
     1
 10
0.0
 20
0.0
 30
0.0
  0
VERTEX
  5
2F9
330
2F8
100
AcDbEntity
  8
\U+30EC\U+30A4\U+30E4\U+30FC 1
370
     0
100
AcDbVertex
100
AcDb2dVertex
 10
19.47651566486061
 20
47.54303807942289
 30
0.0
  0
VERTEX
  5
2FA
330
2F8
100
AcDbEntity
  8
\U+30EC\U+30A4\U+30E4\U+30FC 1
370
     0
100
AcDbVertex
100
AcDb2dVertex
 10
19.88923837626442
 20
47.61521287745219
 30
0.0
  0
VERTEX
  5
2FB
330
2F8
100
AcDbEntity
  8
\U+30EC\U+30A4\U+30E4\U+30FC 1
370
     0
100
AcDbVertex
100
AcDb2dVertex
 10
19.47651566486061
 20
47.68755993036939
 30
0.0
  0
VERTEX
  5
2FC
330
2F8
100
AcDbEntity
  8
\U+30EC\U+30A4\U+30E4\U+30FC 1
370
     0
100
AcDbVertex
100
AcDb2dVertex
 10
19.47651566486061
 20
47.54303807942289
 30
0.0
  0
SEQEND
  5
2FD
330
2F8
100
AcDbEntity
  8
\U+30EC\U+30A4\U+30E4\U+30FC 1
370
     0
  0
HATCH
  5
2FE
330
2D3
100
AcDbEntity
  8
\U+30EC\U+30A4\U+30E4\U+30FC 1
 62
     7
100
AcDbHatch
 10
0.0
 20
0.0
 30
0.0
210
0.0
220
0.0
230
1.0
  2
SOLID
 70
     1
 71
     0
 91
        1
 92
        1
 93
        3
 72
     1
 10
19.47651566486061
 20
47.54303807942289
 11
19.88923837626442
 21
47.61521287745219
 72
     1
 10
19.88923837626442
 20
47.61521287745219
 11
19.47651566486061
 21
47.68755993036939
 72
     1
 10
19.47651566486061
 20
47.68755993036939
 11
19.47651566486061
 21
47.54303807942289
 97
        0
 75
     2
 76
     1
 98
        0
  0
ENDBLK
  5
2D6
330
2D3
100
AcDbEntity
  8
0
100
AcDbBlockEnd
  0
BLOCK
  5
2D9
330
2D7
100
AcDbEntity
  8
0
100
AcDbBlockBegin
  2
block 9
 70
     0
 71
     0
 10
0.0
 20
0.0
 30
0.0
  3
block 9
  1

  0
SPLINE
  5
2DB
330
2D7
100
AcDbEntity
  8
\U+30EC\U+30A4\U+30E4\U+30FC 1
370
     0
100
AcDbSpline
210
0.0
220
0.0
230
1.0
 70
    11
 71
     3
 72
    32
 73
    28
 74
     0
 42
0.0000000001
 43
0.0000000001
 40
0.0
 40
0.0
 40
0.0
 40
0.0
 40
1.0
 40
1.0
 40
1.0
 40
2.0
 40
2.0
 40
2.0
 40
3.0
 40
3.0
 40
3.0
 40
4.0
 40
4.0
 40
4.0
 40
5.0
 40
5.0
 40
5.0
 40
6.0
 40
6.0
 40
6.0
 40
7.0
 40
7.0
 40
7.0
 40
8.0
 40
8.0
 40
8.0
 40
9.0
 40
9.0
 40
9.0
 40
9.0
 10
15.70292783567727
 20
49.37100694979736
 30
0.0
 10
15.78440439765307
 20
49.46988125545086
 30
0.0
 10
15.91290654402504
 20
49.53654389706742
 30
0.0
 10
16.07344809954605
 20
49.53654389706742
 30
0.0
 10
16.36249180143904
 20
49.53654389706742
 30
0.0
 10
16.58487286171547
 20
49.31674666010947
 30
0.0
 10
16.58487286171547
 20
48.94364257292222
 30
0.0
 10
16.58487286171547
 20
48.59034779784324
 30
0.0
 10
16.35508484125942
 20
48.27891096052351
 30
0.0
 10
15.97715761721102
 20
48.27891096052351
 30
0.0
 10
15.55461637719702
 20
48.27891096052351
 30
0.0
 10
15.32723992517155
 20
48.61739181524324
 30
0.0
 10
15.32723992517155
 20
49.07455628772476
 30
0.0
 10
15.32723992517155
 20
49.50192066459991
 30
0.0
 10
15.51999314472951
 20
50.20127550946613
 30
0.0
 10
16.40951738583522
 20
50.20127550946613
 30
0.0
 10
16.40951738583522
 20
50.20127550946613
 30
0.0
 10
16.40951738583522
 20
49.91946651286487
 30
0.0
 10
16.40951738583522
 20
49.91946651286487
 30
0.0
 10
16.36249180143904
 20
49.91946651286487
 30
0.0
 10
16.31064308018172
 20
49.91464337600372
 30
0.0
 10
16.2489758303142
 20
49.9072364158241
 30
0.0
 10
15.90549958384542
 20
49.86021083142793
 30
0.0
 10
15.74237420500594
 20
49.61819271393112
 30
0.0
 10
15.69552087549766
 20
49.37100694979736
 30
0.0
 10
15.69552087549766
 20
49.37100694979736
 30
0.0
 10
15.70292783567727
 20
49.37100694979736
 30
0.0
 10
15.70292783567727
 20
49.37100694979736
 30
0.0
  0
SPLINE
  5
2DC
330
2D7
100
AcDbEntity
  8
\U+30EC\U+30A4\U+30E4\U+30FC 1
370
     0
100
AcDbSpline
210
0.0
220
0.0
230
1.0
 70
    11
 71
     3
 72
    17
 73
    13
 74
     0
 42
0.0000000001
 43
0.0000000001
 40
0.0
 40
0.0
 40
0.0
 40
0.0
 40
1.0
 40
1.0
 40
1.0
 40
2.0
 40
2.0
 40
2.0
 40
3.0
 40
3.0
 40
3.0
 40
4.0
 40
4.0
 40
4.0
 40
4.0
 10
16.2217595580263
 20
48.92624482924451
 30
0.0
 10
16.2217595580263
 20
49.12140961723304
 30
0.0
 10
16.12788064412185
 20
49.28212342764196
 30
0.0
 10
15.95734830510274
 20
49.28212342764196
 30
0.0
 10
15.84865547083905
 20
49.28212342764196
 30
0.0
 10
15.69052548374861
 20
49.18824451373749
 30
0.0
 10
15.69052548374861
 20
48.97826580538973
 30
0.0
 10
15.69552087549766
 20
48.73607543300503
 30
0.0
 10
15.79422292626326
 20
48.54332221344707
 30
0.0
 10
15.97457379389255
 20
48.54332221344707
 30
0.0
 10
16.13528760430147
 20
48.54332221344707
 30
0.0
 10
16.2217595580263
 20
48.71626612089675
 30
0.0
 10
16.2217595580263
 20
48.92624482924451
 30
0.0
  0
HATCH
  5
2DD
330
2D7
100
AcDbEntity
  8
\U+30EC\U+30A4\U+30E4\U+30FC 1
 62
     7
100
AcDbHatch
 10
0.0
 20
0.0
 30
0.0
210
0.0
220
0.0
230
1.0
  2
SOLID
 70
     1
 71
     0
 91
        2
 92
        1
 93
        1
 72
     4
 94
        3
 73
     0
 74
     1
 95
       32
 96
       28
 40
0.0
 40
0.0
 40
0.0
 40
0.0
 40
1.0
 40
1.0
 40
1.0
 40
2.0
 40
2.0
 40
2.0
 40
3.0
 40
3.0
 40
3.0
 40
4.0
 40
4.0
 40
4.0
 40
5.0
 40
5.0
 40
5.0
 40
6.0
 40
6.0
 40
6.0
 40
7.0
 40
7.0
 40
7.0
 40
8.0
 40
8.0
 40
8.0
 40
9.0
 40
9.0
 40
9.0
 40
9.0
 10
15.70292783567727
 20
49.37100694979736
 10
15.78440439765307
 20
49.46988125545086
 10
15.91290654402504
 20
49.53654389706742
 10
16.07344809954605
 20
49.53654389706742
 10
16.36249180143904
 20
49.53654389706742
 10
16.58487286171547
 20
49.31674666010947
 10
16.58487286171547
 20
48.94364257292222
 10
16.58487286171547
 20
48.59034779784324
 10
16.35508484125942
 20
48.27891096052351
 10
15.97715761721102
 20
48.27891096052351
 10
15.55461637719702
 20
48.27891096052351
 10
15.32723992517155
 20
48.61739181524324
 10
15.32723992517155
 20
49.07455628772476
 10
15.32723992517155
 20
49.50192066459991
 10
15.51999314472951
 20
50.20127550946613
 10
16.40951738583522
 20
50.20127550946613
 10
16.40951738583522
 20
50.20127550946613
 10
16.40951738583522
 20
49.91946651286487
 10
16.40951738583522
 20
49.91946651286487
 10
16.36249180143904
 20
49.91946651286487
 10
16.31064308018172
 20
49.91464337600372
 10
16.2489758303142
 20
49.9072364158241
 10
15.90549958384542
 20
49.86021083142793
 10
15.74237420500594
 20
49.61819271393112
 10
15.69552087549766
 20
49.37100694979736
 10
15.69552087549766
 20
49.37100694979736
 10
15.70292783567727
 20
49.37100694979736
 10
15.70292783567727
 20
49.37100694979736
 97
        0
 92
        1
 93
        1
 72
     4
 94
        3
 73
     0
 74
     1
 95
       17
 96
       13
 40
0.0
 40
0.0
 40
0.0
 40
0.0
 40
1.0
 40
1.0
 40
1.0
 40
2.0
 40
2.0
 40
2.0
 40
3.0
 40
3.0
 40
3.0
 40
4.0
 40
4.0
 40
4.0
 40
4.0
 10
16.2217595580263
 20
48.92624482924451
 10
16.2217595580263
 20
49.12140961723304
 10
16.12788064412185
 20
49.28212342764196
 10
15.95734830510274
 20
49.28212342764196
 10
15.84865547083905
 20
49.28212342764196
 10
15.69052548374861
 20
49.18824451373749
 10
15.69052548374861
 20
48.97826580538973
 10
15.69552087549766
 20
48.73607543300503
 10
15.79422292626326
 20
48.54332221344707
 10
15.97457379389255
 20
48.54332221344707
 10
16.13528760430147
 20
48.54332221344707
 10
16.2217595580263
 20
48.71626612089675
 10
16.2217595580263
 20
48.92624482924451
 97
        0
 75
     2
 76
     1
 98
        0
  0
SPLINE
  5
2DE
330
2D7
100
AcDbEntity
  8
\U+30EC\U+30A4\U+30E4\U+30FC 1
370
     0
100
AcDbSpline
210
0.0
220
0.0
230
1.0
 70
    11
 71
     3
 72
    17
 73
    13
 74
     0
 42
0.0000000001
 43
0.0000000001
 40
0.0
 40
0.0
 40
0.0
 40
0.0
 40
1.0
 40
1.0
 40
1.0
 40
2.0
 40
2.0
 40
2.0
 40
3.0
 40
3.0
 40
3.0
 40
4.0
 40
4.0
 40
4.0
 40
4.0
 10
16.74472539768489
 20
49.23509784324578
 30
0.0
 10
16.74472539768489
 20
49.80336671842156
 30
0.0
 10
16.95470410603265
 20
50.2036870778967
 30
0.0
 10
17.37483377761608
 20
50.2036870778967
 30
0.0
 10
17.81460050641989
 20
50.2036870778967
 30
0.0
 10
17.98513284543899
 20
49.76891574084194
 30
0.0
 10
17.98513284543899
 20
49.24991176360501
 30
0.0
 10
17.98513284543899
 20
48.63220573560248
 30
0.0
 10
17.75534482498295
 20
48.27891096052351
 30
0.0
 10
17.36243142568742
 20
48.27891096052351
 30
0.0
 10
16.92748783374476
 20
48.27891096052351
 30
0.0
 10
16.74472539768489
 20
48.71385455246617
 30
0.0
 10
16.74472539768489
 20
49.23509784324578
 30
0.0
  0
SPLINE
  5
2DF
330
2D7
100
AcDbEntity
  8
\U+30EC\U+30A4\U+30E4\U+30FC 1
370
     0
100
AcDbSpline
210
0.0
220
0.0
230
1.0
 70
    11
 71
     3
 72
    20
 73
    16
 74
     0
 42
0.0000000001
 43
0.0000000001
 40
0.0
 40
0.0
 40
0.0
 40
0.0
 40
1.0
 40
1.0
 40
1.0
 40
2.0
 40
2.0
 40
2.0
 40
3.0
 40
3.0
 40
3.0
 40
4.0
 40
4.0
 40
4.0
 40
5.0
 40
5.0
 40
5.0
 40
5.0
 10
17.36742681743646
 20
48.5679546624165
 30
0.0
 10
17.5353753331371
 20
48.5679546624165
 30
0.0
 10
17.61943571843136
 20
48.80514964305216
 30
0.0
 10
17.61943571843136
 20
49.2425048034254
 30
0.0
 10
17.61943571843136
 20
49.6650460434394
 30
0.0
 10
17.54278229331671
 20
49.91464337600372
 30
0.0
 10
17.36983838586704
 20
49.91464337600372
 30
0.0
 10
17.2117083987766
 20
49.91464337600372
 30
0.0
 10
17.11042252469252
 20
49.68726692397825
 30
0.0
 10
17.11042252469252
 20
49.2425048034254
 30
0.0
 10
17.11042252469252
 20
48.80032650619101
 30
0.0
 10
17.2018898701664
 20
48.5679546624165
 30
0.0
 10
17.36484299411799
 20
48.5679546624165
 30
0.0
 10
17.36484299411799
 20
48.5679546624165
 30
0.0
 10
17.36742681743646
 20
48.5679546624165
 30
0.0
 10
17.36742681743646
 20
48.5679546624165
 30
0.0
  0
HATCH
  5
2E0
330
2D7
100
AcDbEntity
  8
\U+30EC\U+30A4\U+30E4\U+30FC 1
 62
     7
100
AcDbHatch
 10
0.0
 20
0.0
 30
0.0
210
0.0
220
0.0
230
1.0
  2
SOLID
 70
     1
 71
     0
 91
        2
 92
        1
 93
        1
 72
     4
 94
        3
 73
     0
 74
     1
 95
       17
 96
       13
 40
0.0
 40
0.0
 40
0.0
 40
0.0
 40
1.0
 40
1.0
 40
1.0
 40
2.0
 40
2.0
 40
2.0
 40
3.0
 40
3.0
 40
3.0
 40
4.0
 40
4.0
 40
4.0
 40
4.0
 10
16.74472539768489
 20
49.23509784324578
 10
16.74472539768489
 20
49.80336671842156
 10
16.95470410603265
 20
50.2036870778967
 10
17.37483377761608
 20
50.2036870778967
 10
17.81460050641989
 20
50.2036870778967
 10
17.98513284543899
 20
49.76891574084194
 10
17.98513284543899
 20
49.24991176360501
 10
17.98513284543899
 20
48.63220573560248
 10
17.75534482498295
 20
48.27891096052351
 10
17.36243142568742
 20
48.27891096052351
 10
16.92748783374476
 20
48.27891096052351
 10
16.74472539768489
 20
48.71385455246617
 10
16.74472539768489
 20
49.23509784324578
 97
        0
 92
        1
 93
        1
 72
     4
 94
        3
 73
     0
 74
     1
 95
       20
 96
       16
 40
0.0
 40
0.0
 40
0.0
 40
0.0
 40
1.0
 40
1.0
 40
1.0
 40
2.0
 40
2.0
 40
2.0
 40
3.0
 40
3.0
 40
3.0
 40
4.0
 40
4.0
 40
4.0
 40
5.0
 40
5.0
 40
5.0
 40
5.0
 10
17.36742681743646
 20
48.5679546624165
 10
17.5353753331371
 20
48.5679546624165
 10
17.61943571843136
 20
48.80514964305216
 10
17.61943571843136
 20
49.2425048034254
 10
17.61943571843136
 20
49.6650460434394
 10
17.54278229331671
 20
49.91464337600372
 10
17.36983838586704
 20
49.91464337600372
 10
17.2117083987766
 20
49.91464337600372
 10
17.11042252469252
 20
49.68726692397825
 10
17.11042252469252
 20
49.2425048034254
 10
17.11042252469252
 20
48.80032650619101
 10
17.2018898701664
 20
48.5679546624165
 10
17.36484299411799
 20
48.5679546624165
 10
17.36484299411799
 20
48.5679546624165
 10
17.36742681743646
 20
48.5679546624165
 10
17.36742681743646
 20
48.5679546624165
 97
        0
 75
     2
 76
     1
 98
        0
  0
ENDBLK
  5
2DA
330
2D7
100
AcDbEntity
  8
0
100
AcDbBlockEnd
  0
BLOCK
  5
301
330
2FF
100
AcDbEntity
  8
0
100
AcDbBlockBegin
  2
block 10
 70
     0
 71
     0
 10
0.0
 20
0.0
 30
0.0
  3
block 10
  1

  0
INSERT
  5
304
330
2FF
100
AcDbEntity
  8
\U+30EC\U+30A4\U+30E4\U+30FC 1
100
AcDbBlockReference
  2
block 11
 10
0.0
 20
0.0
 30
0.0
  0
POLYLINE
  5
30B
330
2FF
100
AcDbEntity
  8
\U+30EC\U+30A4\U+30E4\U+30FC 1
 62
     7
370
    18
100
AcDb2dPolyline
 66
     1
 10
0.0
 20
0.0
 30
0.0
  0
VERTEX
  5
30C
330
30B
100
AcDbEntity
  8
\U+30EC\U+30A4\U+30E4\U+30FC 1
 62
     7
370
    18
100
AcDbVertex
100
AcDb2dVertex
 10
20.33072765394721
 20
39.98776644132501
 30
0.0
  0
VERTEX
  5
30D
330
30B
100
AcDbEntity
  8
\U+30EC\U+30A4\U+30E4\U+30FC 1
 62
     7
370
    18
100
AcDbVertex
100
AcDb2dVertex
 10
23.27370241368598
 20
39.98776644132501
 30
0.0
  0
SEQEND
  5
30E
330
30B
100
AcDbEntity
  8
\U+30EC\U+30A4\U+30E4\U+30FC 1
370
    18
  0
POLYLINE
  5
30F
330
2FF
100
AcDbEntity
  8
\U+30EC\U+30A4\U+30E4\U+30FC 1
 62
     7
370
    18
100
AcDb2dPolyline
 66
     1
 10
0.0
 20
0.0
 30
0.0
  0
VERTEX
  5
310
330
30F
100
AcDbEntity
  8
\U+30EC\U+30A4\U+30E4\U+30FC 1
 62
     7
370
    18
100
AcDbVertex
100
AcDb2dVertex
 10
20.33072765394721
 20
43.59926242099625
 30
0.0
  0
VERTEX
  5
311
330
30F
100
AcDbEntity
  8
\U+30EC\U+30A4\U+30E4\U+30FC 1
 62
     7
370
    18
100
AcDbVertex
100
AcDb2dVertex
 10
23.27370241368598
 20
43.59926242099625
 30
0.0
  0
SEQEND
  5
312
330
30F
100
AcDbEntity
  8
\U+30EC\U+30A4\U+30E4\U+30FC 1
370
    18
  0
POLYLINE
  5
313
330
2FF
100
AcDbEntity
  8
\U+30EC\U+30A4\U+30E4\U+30FC 1
 62
     7
370
    18
100
AcDb2dPolyline
 66
     1
 10
0.0
 20
0.0
 30
0.0
  0
VERTEX
  5
314
330
313
100
AcDbEntity
  8
\U+30EC\U+30A4\U+30E4\U+30FC 1
 62
     7
370
    18
100
AcDbVertex
100
AcDb2dVertex
 10
23.06734105798408
 20
39.98776644132501
 30
0.0
  0
VERTEX
  5
315
330
313
100
AcDbEntity
  8
\U+30EC\U+30A4\U+30E4\U+30FC 1
 62
     7
370
    18
100
AcDbVertex
100
AcDb2dVertex
 10
23.06734105798408
 20
41.79334217627273
 30
0.0
  0
SEQEND
  5
316
330
313
100
AcDbEntity
  8
\U+30EC\U+30A4\U+30E4\U+30FC 1
370
    18
  0
POLYLINE
  5
317
330
2FF
100
AcDbEntity
  8
\U+30EC\U+30A4\U+30E4\U+30FC 1
 62
     7
370
    18
100
AcDb2dPolyline
 66
     1
 10
0.0
 20
0.0
 30
0.0
  0
VERTEX
  5
318
330
317
100
AcDbEntity
  8
\U+30EC\U+30A4\U+30E4\U+30FC 1
 62
     7
370
    18
100
AcDbVertex
100
AcDb2dVertex
 10
23.06734105798408
 20
43.59926242099625
 30
0.0
  0
VERTEX
  5
319
330
317
100
AcDbEntity
  8
\U+30EC\U+30A4\U+30E4\U+30FC 1
 62
     7
370
    18
100
AcDbVertex
100
AcDb2dVertex
 10
23.06734105798408
 20
41.79334217627273
 30
0.0
  0
SEQEND
  5
31A
330
317
100
AcDbEntity
  8
\U+30EC\U+30A4\U+30E4\U+30FC 1
370
    18
  0
POLYLINE
  5
31B
330
2FF
100
AcDbEntity
  8
\U+30EC\U+30A4\U+30E4\U+30FC 1
370
     0
100
AcDb2dPolyline
 66
     1
 10
0.0
 20
0.0
 30
0.0
  0
VERTEX
  5
31C
330
31B
100
AcDbEntity
  8
\U+30EC\U+30A4\U+30E4\U+30FC 1
370
     0
100
AcDbVertex
100
AcDb2dVertex
 10
22.99499400506688
 20
40.40048915272882
 30
0.0
  0
VERTEX
  5
31D
330
31B
100
AcDbEntity
  8
\U+30EC\U+30A4\U+30E4\U+30FC 1
370
     0
100
AcDbVertex
100
AcDb2dVertex
 10
23.06734105798408
 20
39.98776644132501
 30
0.0
  0
VERTEX
  5
31E
330
31B
100
AcDbEntity
  8
\U+30EC\U+30A4\U+30E4\U+30FC 1
370
     0
100
AcDbVertex
100
AcDb2dVertex
 10
23.13951585601338
 20
40.40048915272882
 30
0.0
  0
VERTEX
  5
31F
330
31B
100
AcDbEntity
  8
\U+30EC\U+30A4\U+30E4\U+30FC 1
370
     0
100
AcDbVertex
100
AcDb2dVertex
 10
22.99499400506688
 20
40.40048915272882
 30
0.0
  0
SEQEND
  5
320
330
31B
100
AcDbEntity
  8
\U+30EC\U+30A4\U+30E4\U+30FC 1
370
     0
  0
HATCH
  5
321
330
2FF
100
AcDbEntity
  8
\U+30EC\U+30A4\U+30E4\U+30FC 1
 62
     7
100
AcDbHatch
 10
0.0
 20
0.0
 30
0.0
210
0.0
220
0.0
230
1.0
  2
SOLID
 70
     1
 71
     0
 91
        1
 92
        1
 93
        3
 72
     1
 10
22.99499400506688
 20
40.40048915272882
 11
23.06734105798408
 21
39.98776644132501
 72
     1
 10
23.06734105798408
 20
39.98776644132501
 11
23.13951585601338
 21
40.40048915272882
 72
     1
 10
23.13951585601338
 20
40.40048915272882
 11
22.99499400506688
 21
40.40048915272882
 97
        0
 75
     2
 76
     1
 98
        0
  0
POLYLINE
  5
322
330
2FF
100
AcDbEntity
  8
\U+30EC\U+30A4\U+30E4\U+30FC 1
370
     0
100
AcDb2dPolyline
 66
     1
 10
0.0
 20
0.0
 30
0.0
  0
VERTEX
  5
323
330
322
100
AcDbEntity
  8
\U+30EC\U+30A4\U+30E4\U+30FC 1
370
     0
100
AcDbVertex
100
AcDb2dVertex
 10
23.13951585601338
 20
43.18653970959244
 30
0.0
  0
VERTEX
  5
324
330
322
100
AcDbEntity
  8
\U+30EC\U+30A4\U+30E4\U+30FC 1
370
     0
100
AcDbVertex
100
AcDb2dVertex
 10
23.06734105798408
 20
43.59926242099625
 30
0.0
  0
VERTEX
  5
325
330
322
100
AcDbEntity
  8
\U+30EC\U+30A4\U+30E4\U+30FC 1
370
     0
100
AcDbVertex
100
AcDb2dVertex
 10
22.99499400506688
 20
43.18653970959244
 30
0.0
  0
VERTEX
  5
326
330
322
100
AcDbEntity
  8
\U+30EC\U+30A4\U+30E4\U+30FC 1
370
     0
100
AcDbVertex
100
AcDb2dVertex
 10
23.13951585601338
 20
43.18653970959244
 30
0.0
  0
SEQEND
  5
327
330
322
100
AcDbEntity
  8
\U+30EC\U+30A4\U+30E4\U+30FC 1
370
     0
  0
HATCH
  5
328
330
2FF
100
AcDbEntity
  8
\U+30EC\U+30A4\U+30E4\U+30FC 1
 62
     7
100
AcDbHatch
 10
0.0
 20
0.0
 30
0.0
210
0.0
220
0.0
230
1.0
  2
SOLID
 70
     1
 71
     0
 91
        1
 92
        1
 93
        3
 72
     1
 10
23.13951585601338
 20
43.18653970959244
 11
23.06734105798408
 21
43.59926242099625
 72
     1
 10
23.06734105798408
 20
43.59926242099625
 11
22.99499400506688
 21
43.18653970959244
 72
     1
 10
22.99499400506688
 20
43.18653970959244
 11
23.13951585601338
 21
43.18653970959244
 97
        0
 75
     2
 76
     1
 98
        0
  0
ENDBLK
  5
302
330
2FF
100
AcDbEntity
  8
0
100
AcDbBlockEnd
  0
BLOCK
  5
305
330
303
100
AcDbEntity
  8
0
100
AcDbBlockBegin
  2
block 11
 70
     0
 71
     0
 10
0.0
 20
0.0
 30
0.0
  3
block 11
  1

  0
SPLINE
  5
307
330
303
100
AcDbEntity
  8
\U+30EC\U+30A4\U+30E4\U+30FC 1
370
     0
100
AcDbSpline
210
0.0
220
0.0
230
1.0
 70
    11
 71
     3
 72
    59
 73
    55
 74
     0
 42
0.0000000001
 43
0.0000000001
 40
0.0
 40
0.0
 40
0.0
 40
0.0
 40
1.0
 40
1.0
 40
1.0
 40
2.0
 40
2.0
 40
2.0
 40
3.0
 40
3.0
 40
3.0
 40
4.0
 40
4.0
 40
4.0
 40
5.0
 40
5.0
 40
5.0
 40
6.0
 40
6.0
 40
6.0
 40
7.0
 40
7.0
 40
7.0
 40
8.0
 40
8.0
 40
8.0
 40
9.0
 40
9.0
 40
9.0
 40
10.0
 40
10.0
 40
10.0
 40
11.0
 40
11.0
 40
11.0
 40
12.0
 40
12.0
 40
12.0
 40
13.0
 40
13.0
 40
13.0
 40
14.0
 40
14.0
 40
14.0
 40
15.0
 40
15.0
 40
15.0
 40
16.0
 40
16.0
 40
16.0
 40
17.0
 40
17.0
 40
17.0
 40
18.0
 40
18.0
 40
18.0
 40
18.0
 10
21.72289165793953
 20
41.26779251329567
 30
0.0
 10
21.7699172423357
 20
41.47535965321287
 30
0.0
 10
21.93786575803634
 20
41.64830356066255
 30
0.0
 10
22.19228622746181
 20
41.64830356066255
 30
0.0
 10
22.50372306478155
 20
41.64830356066255
 30
0.0
 10
22.75573196577644
 20
41.39870622809822
 30
0.0
 10
22.75573196577644
 20
40.96376263615556
 30
0.0
 10
22.75573196577644
 20
40.76618627973646
 30
0.0
 10
22.70388324451912
 20
40.58824698053773
 30
0.0
 10
22.64204373976371
 20
40.49436806663328
 30
0.0
 10
22.64204373976371
 20
40.49436806663328
 30
0.0
 10
22.36523013491149
 20
40.57584462860908
 30
0.0
 10
22.36523013491149
 20
40.57584462860908
 30
0.0
 10
22.40984415087709
 20
40.6450910935441
 30
0.0
 10
22.46668826388346
 20
40.79581412045493
 30
0.0
 10
22.46668826388346
 20
40.93913018718613
 30
0.0
 10
22.46668826388346
 20
41.16392281589313
 30
0.0
 10
22.3281953340134
 20
41.2751994734753
 30
0.0
 10
22.175060738672
 20
41.2751994734753
 30
0.0
 10
21.96508203032424
 20
41.2751994734753
 30
0.0
 10
21.86620772467073
 20
41.09226478252753
 30
0.0
 10
21.86620772467073
 20
40.89210460278996
 30
0.0
 10
21.86620772467073
 20
40.89210460278996
 30
0.0
 10
21.86620772467073
 20
40.76618627973646
 30
0.0
 10
21.86620772467073
 20
40.76618627973646
 30
0.0
 10
21.86620772467073
 20
40.76618627973646
 30
0.0
 10
21.60920343192679
 20
40.76618627973646
 30
0.0
 10
21.60920343192679
 20
40.76618627973646
 30
0.0
 10
21.60920343192679
 20
40.76618627973646
 30
0.0
 10
21.60920343192679
 20
40.88469764261034
 30
0.0
 10
21.60920343192679
 20
40.88469764261034
 30
0.0
 10
21.60920343192679
 20
41.03059753266002
 30
0.0
 10
21.527726869951
 20
41.21835536046893
 30
0.0
 10
21.34737600232171
 20
41.21835536046893
 30
0.0
 10
21.21646228751916
 20
41.21835536046893
 30
0.0
 10
21.11999955029623
 20
41.13188340674409
 30
0.0
 10
21.11999955029623
 20
40.95893949929441
 30
0.0
 10
21.11999955029623
 20
40.83043735292244
 30
0.0
 10
21.1768436633026
 20
40.70434677498104
 30
0.0
 10
21.22128542438031
 20
40.63268874161544
 30
0.0
 10
21.22128542438031
 20
40.63268874161544
 30
0.0
 10
20.95945799477522
 20
40.55620757138869
 30
0.0
 10
20.95945799477522
 20
40.55620757138869
 30
0.0
 10
20.89520692158923
 20
40.65249805372372
 30
0.0
 10
20.83095584840325
 20
40.8428397048511
 30
0.0
 10
20.83095584840325
 20
41.04282762970078
 30
0.0
 10
20.83095584840325
 20
41.40111779652879
 30
0.0
 10
21.04093455675101
 20
41.58887562433771
 30
0.0
 10
21.28812032088477
 20
41.58887562433771
 30
0.0
 10
21.48070128555482
 20
41.58887562433771
 30
0.0
 10
21.64141509596373
 20
41.4727758298944
 30
0.0
 10
21.71789626619048
 20
41.26779251329567
 30
0.0
 10
21.71789626619048
 20
41.26779251329567
 30
0.0
 10
21.72289165793953
 20
41.26779251329567
 30
0.0
 10
21.72289165793953
 20
41.26779251329567
 30
0.0
  0
HATCH
  5
308
330
303
100
AcDbEntity
  8
\U+30EC\U+30A4\U+30E4\U+30FC 1
 62
     7
100
AcDbHatch
 10
0.0
 20
0.0
 30
0.0
210
0.0
220
0.0
230
1.0
  2
SOLID
 70
     1
 71
     0
 91
        1
 92
        1
 93
        1
 72
     4
 94
        3
 73
     0
 74
     1
 95
       59
 96
       55
 40
0.0
 40
0.0
 40
0.0
 40
0.0
 40
1.0
 40
1.0
 40
1.0
 40
2.0
 40
2.0
 40
2.0
 40
3.0
 40
3.0
 40
3.0
 40
4.0
 40
4.0
 40
4.0
 40
5.0
 40
5.0
 40
5.0
 40
6.0
 40
6.0
 40
6.0
 40
7.0
 40
7.0
 40
7.0
 40
8.0
 40
8.0
 40
8.0
 40
9.0
 40
9.0
 40
9.0
 40
10.0
 40
10.0
 40
10.0
 40
11.0
 40
11.0
 40
11.0
 40
12.0
 40
12.0
 40
12.0
 40
13.0
 40
13.0
 40
13.0
 40
14.0
 40
14.0
 40
14.0
 40
15.0
 40
15.0
 40
15.0
 40
16.0
 40
16.0
 40
16.0
 40
17.0
 40
17.0
 40
17.0
 40
18.0
 40
18.0
 40
18.0
 40
18.0
 10
21.72289165793953
 20
41.26779251329567
 10
21.7699172423357
 20
41.47535965321287
 10
21.93786575803634
 20
41.64830356066255
 10
22.19228622746181
 20
41.64830356066255
 10
22.50372306478155
 20
41.64830356066255
 10
22.75573196577644
 20
41.39870622809822
 10
22.75573196577644
 20
40.96376263615556
 10
22.75573196577644
 20
40.76618627973646
 10
22.70388324451912
 20
40.58824698053773
 10
22.64204373976371
 20
40.49436806663328
 10
22.64204373976371
 20
40.49436806663328
 10
22.36523013491149
 20
40.57584462860908
 10
22.36523013491149
 20
40.57584462860908
 10
22.40984415087709
 20
40.6450910935441
 10
22.46668826388346
 20
40.79581412045493
 10
22.46668826388346
 20
40.93913018718613
 10
22.46668826388346
 20
41.16392281589313
 10
22.3281953340134
 20
41.2751994734753
 10
22.175060738672
 20
41.2751994734753
 10
21.96508203032424
 20
41.2751994734753
 10
21.86620772467073
 20
41.09226478252753
 10
21.86620772467073
 20
40.89210460278996
 10
21.86620772467073
 20
40.89210460278996
 10
21.86620772467073
 20
40.76618627973646
 10
21.86620772467073
 20
40.76618627973646
 10
21.86620772467073
 20
40.76618627973646
 10
21.60920343192679
 20
40.76618627973646
 10
21.60920343192679
 20
40.76618627973646
 10
21.60920343192679
 20
40.76618627973646
 10
21.60920343192679
 20
40.88469764261034
 10
21.60920343192679
 20
40.88469764261034
 10
21.60920343192679
 20
41.03059753266002
 10
21.527726869951
 20
41.21835536046893
 10
21.34737600232171
 20
41.21835536046893
 10
21.21646228751916
 20
41.21835536046893
 10
21.11999955029623
 20
41.13188340674409
 10
21.11999955029623
 20
40.95893949929441
 10
21.11999955029623
 20
40.83043735292244
 10
21.1768436633026
 20
40.70434677498104
 10
21.22128542438031
 20
40.63268874161544
 10
21.22128542438031
 20
40.63268874161544
 10
20.95945799477522
 20
40.55620757138869
 10
20.95945799477522
 20
40.55620757138869
 10
20.89520692158923
 20
40.65249805372372
 10
20.83095584840325
 20
40.8428397048511
 10
20.83095584840325
 20
41.04282762970078
 10
20.83095584840325
 20
41.40111779652879
 10
21.04093455675101
 20
41.58887562433771
 10
21.28812032088477
 20
41.58887562433771
 10
21.48070128555482
 20
41.58887562433771
 10
21.64141509596373
 20
41.4727758298944
 10
21.71789626619048
 20
41.26779251329567
 10
21.71789626619048
 20
41.26779251329567
 10
21.72289165793953
 20
41.26779251329567
 10
21.72289165793953
 20
41.26779251329567
 97
        0
 75
     2
 76
     1
 98
        0
  0
SPLINE
  5
309
330
303
100
AcDbEntity
  8
\U+30EC\U+30A4\U+30E4\U+30FC 1
370
     0
100
AcDbSpline
210
0.0
220
0.0
230
1.0
 70
    11
 71
     3
 72
    47
 73
    43
 74
     0
 42
0.0000000001
 43
0.0000000001
 40
0.0
 40
0.0
 40
0.0
 40
0.0
 40
1.0
 40
1.0
 40
1.0
 40
2.0
 40
2.0
 40
2.0
 40
3.0
 40
3.0
 40
3.0
 40
4.0
 40
4.0
 40
4.0
 40
5.0
 40
5.0
 40
5.0
 40
6.0
 40
6.0
 40
6.0
 40
7.0
 40
7.0
 40
7.0
 40
8.0
 40
8.0
 40
8.0
 40
9.0
 40
9.0
 40
9.0
 40
10.0
 40
10.0
 40
10.0
 40
11.0
 40
11.0
 40
11.0
 40
12.0
 40
12.0
 40
12.0
 40
13.0
 40
13.0
 40
13.0
 40
14.0
 40
14.0
 40
14.0
 40
14.0
 10
20.85817212069114
 20
43.02358658564085
 30
0.0
 10
20.85817212069114
 20
43.02358658564085
 30
0.0
 10
21.15961817451279
 20
43.02358658564085
 30
0.0
 10
21.15961817451279
 20
43.02358658564085
 30
0.0
 10
21.15961817451279
 20
43.02358658564085
 30
0.0
 10
21.15961817451279
 20
42.38865506884851
 30
0.0
 10
21.15961817451279
 20
42.38865506884851
 30
0.0
 10
21.15961817451279
 20
42.38865506884851
 30
0.0
 10
21.52531530152043
 20
42.33921791602176
 30
0.0
 10
21.52531530152043
 20
42.33921791602176
 30
0.0
 10
21.52031990977138
 20
42.37384114848928
 30
0.0
 10
21.51790834134081
 20
42.40346898920775
 30
0.0
 10
21.51790834134081
 20
42.44308761342431
 30
0.0
 10
21.51790834134081
 20
42.76916611621538
 30
0.0
 10
21.70067077740067
 20
43.07560756178607
 30
0.0
 10
22.1034027053064
 20
43.07560756178607
 30
0.0
 10
22.46169287213441
 20
43.07560756178607
 30
0.0
 10
22.75573196577644
 20
42.80120552536442
 30
0.0
 10
22.75573196577644
 20
42.36143879656061
 30
0.0
 10
22.75573196577644
 20
42.17626479207018
 30
0.0
 10
22.70870638138027
 20
42.00814402148164
 30
0.0
 10
22.65926922855352
 20
41.91667667600776
 30
0.0
 10
22.65926922855352
 20
41.91667667600776
 30
0.0
 10
22.38262787858919
 20
41.98833470937336
 30
0.0
 10
22.38262787858919
 20
41.98833470937336
 30
0.0
 10
22.42207424791785
 20
42.06257656605744
 30
0.0
 10
22.46909983231403
 20
42.19848567260902
 30
0.0
 10
22.46909983231403
 20
42.34180173934023
 30
0.0
 10
22.46909983231403
 20
42.53197113557972
 30
0.0
 10
22.34800464612168
 20
42.70732661145997
 30
0.0
 10
22.13303054602487
 20
42.70732661145997
 30
0.0
 10
21.90823791731787
 20
42.70732661145997
 30
0.0
 10
21.78214733937647
 20
42.54178966418991
 30
0.0
 10
21.78214733937647
 20
42.22552969000903
 30
0.0
 10
21.78214733937647
 20
42.14164155960266
 30
0.0
 10
21.78714273112551
 20
42.07739048641668
 30
0.0
 10
21.79454969130513
 20
42.01555098166126
 30
0.0
 10
21.79454969130513
 20
42.01555098166126
 30
0.0
 10
20.85817212069114
 20
42.129239207674
 30
0.0
 10
20.85817212069114
 20
42.129239207674
 30
0.0
 10
20.85817212069114
 20
42.129239207674
 30
0.0
 10
20.85817212069114
 20
43.02358658564085
 30
0.0
 10
20.85817212069114
 20
43.02358658564085
 30
0.0
  0
HATCH
  5
30A
330
303
100
AcDbEntity
  8
\U+30EC\U+30A4\U+30E4\U+30FC 1
 62
     7
100
AcDbHatch
 10
0.0
 20
0.0
 30
0.0
210
0.0
220
0.0
230
1.0
  2
SOLID
 70
     1
 71
     0
 91
        1
 92
        1
 93
        1
 72
     4
 94
        3
 73
     0
 74
     1
 95
       47
 96
       43
 40
0.0
 40
0.0
 40
0.0
 40
0.0
 40
1.0
 40
1.0
 40
1.0
 40
2.0
 40
2.0
 40
2.0
 40
3.0
 40
3.0
 40
3.0
 40
4.0
 40
4.0
 40
4.0
 40
5.0
 40
5.0
 40
5.0
 40
6.0
 40
6.0
 40
6.0
 40
7.0
 40
7.0
 40
7.0
 40
8.0
 40
8.0
 40
8.0
 40
9.0
 40
9.0
 40
9.0
 40
10.0
 40
10.0
 40
10.0
 40
11.0
 40
11.0
 40
11.0
 40
12.0
 40
12.0
 40
12.0
 40
13.0
 40
13.0
 40
13.0
 40
14.0
 40
14.0
 40
14.0
 40
14.0
 10
20.85817212069114
 20
43.02358658564085
 10
20.85817212069114
 20
43.02358658564085
 10
21.15961817451279
 20
43.02358658564085
 10
21.15961817451279
 20
43.02358658564085
 10
21.15961817451279
 20
43.02358658564085
 10
21.15961817451279
 20
42.38865506884851
 10
21.15961817451279
 20
42.38865506884851
 10
21.15961817451279
 20
42.38865506884851
 10
21.52531530152043
 20
42.33921791602176
 10
21.52531530152043
 20
42.33921791602176
 10
21.52031990977138
 20
42.37384114848928
 10
21.51790834134081
 20
42.40346898920775
 10
21.51790834134081
 20
42.44308761342431
 10
21.51790834134081
 20
42.76916611621538
 10
21.70067077740067
 20
43.07560756178607
 10
22.1034027053064
 20
43.07560756178607
 10
22.46169287213441
 20
43.07560756178607
 10
22.75573196577644
 20
42.80120552536442
 10
22.75573196577644
 20
42.36143879656061
 10
22.75573196577644
 20
42.17626479207018
 10
22.70870638138027
 20
42.00814402148164
 10
22.65926922855352
 20
41.91667667600776
 10
22.65926922855352
 20
41.91667667600776
 10
22.38262787858919
 20
41.98833470937336
 10
22.38262787858919
 20
41.98833470937336
 10
22.42207424791785
 20
42.06257656605744
 10
22.46909983231403
 20
42.19848567260902
 10
22.46909983231403
 20
42.34180173934023
 10
22.46909983231403
 20
42.53197113557972
 10
22.34800464612168
 20
42.70732661145997
 10
22.13303054602487
 20
42.70732661145997
 10
21.90823791731787
 20
42.70732661145997
 10
21.78214733937647
 20
42.54178966418991
 10
21.78214733937647
 20
42.22552969000903
 10
21.78214733937647
 20
42.14164155960266
 10
21.78714273112551
 20
42.07739048641668
 10
21.79454969130513
 20
42.01555098166126
 10
21.79454969130513
 20
42.01555098166126
 10
20.85817212069114
 20
42.129239207674
 10
20.85817212069114
 20
42.129239207674
 10
20.85817212069114
 20
42.129239207674
 10
20.85817212069114
 20
43.02358658564085
 10
20.85817212069114
 20
43.02358658564085
 97
        0
 75
     2
 76
     1
 98
        0
  0
ENDBLK
  5
306
330
303
100
AcDbEntity
  8
0
100
AcDbBlockEnd
  0
BLOCK
  5
32B
330
329
100
AcDbEntity
  8
0
100
AcDbBlockBegin
  2
block 12
 70
     0
 71
     0
 10
0.0
 20
0.0
 30
0.0
  3
block 12
  1

  0
INSERT
  5
32E
330
329
100
AcDbEntity
  8
\U+30EC\U+30A4\U+30E4\U+30FC 1
100
AcDbBlockReference
  2
block 13
 10
0.0
 20
0.0
 30
0.0
  0
POLYLINE
  5
33F
330
329
100
AcDbEntity
  8
\U+30EC\U+30A4\U+30E4\U+30FC 1
 62
     7
370
    18
100
AcDb2dPolyline
 66
     1
 10
0.0
 20
0.0
 30
0.0
  0
VERTEX
  5
340
330
33F
100
AcDbEntity
  8
\U+30EC\U+30A4\U+30E4\U+30FC 1
 62
     7
370
    18
100
AcDbVertex
100
AcDb2dVertex
 10
8.998767598683829
 20
42.54678505593895
 30
0.0
  0
VERTEX
  5
341
330
33F
100
AcDbEntity
  8
\U+30EC\U+30A4\U+30E4\U+30FC 1
 62
     7
370
    18
100
AcDbVertex
100
AcDb2dVertex
 10
5.437225536503035
 20
42.54678505593895
 30
0.0
  0
SEQEND
  5
342
330
33F
100
AcDbEntity
  8
\U+30EC\U+30A4\U+30E4\U+30FC 1
370
    18
  0
POLYLINE
  5
343
330
329
100
AcDbEntity
  8
\U+30EC\U+30A4\U+30E4\U+30FC 1
 62
     7
370
    18
100
AcDb2dPolyline
 66
     1
 10
0.0
 20
0.0
 30
0.0
  0
VERTEX
  5
344
330
343
100
AcDbEntity
  8
\U+30EC\U+30A4\U+30E4\U+30FC 1
 62
     7
370
    18
100
AcDbVertex
100
AcDb2dVertex
 10
8.998767598683829
 20
40.99890263328677
 30
0.0
  0
VERTEX
  5
345
330
343
100
AcDbEntity
  8
\U+30EC\U+30A4\U+30E4\U+30FC 1
 62
     7
370
    18
100
AcDbVertex
100
AcDb2dVertex
 10
5.437225536503035
 20
40.99890263328677
 30
0.0
  0
SEQEND
  5
346
330
343
100
AcDbEntity
  8
\U+30EC\U+30A4\U+30E4\U+30FC 1
370
    18
  0
POLYLINE
  5
347
330
329
100
AcDbEntity
  8
\U+30EC\U+30A4\U+30E4\U+30FC 1
 62
     7
370
    18
100
AcDb2dPolyline
 66
     1
 10
0.0
 20
0.0
 30
0.0
  0
VERTEX
  5
348
330
347
100
AcDbEntity
  8
\U+30EC\U+30A4\U+30E4\U+30FC 1
 62
     7
370
    18
100
AcDbVertex
100
AcDb2dVertex
 10
5.64358689220494
 20
42.54678505593895
 30
0.0
  0
VERTEX
  5
349
330
347
100
AcDbEntity
  8
\U+30EC\U+30A4\U+30E4\U+30FC 1
 62
     7
370
    18
100
AcDbVertex
100
AcDb2dVertex
 10
5.64358689220494
 20
41.77284384461286
 30
0.0
  0
SEQEND
  5
34A
330
347
100
AcDbEntity
  8
\U+30EC\U+30A4\U+30E4\U+30FC 1
370
    18
  0
POLYLINE
  5
34B
330
329
100
AcDbEntity
  8
\U+30EC\U+30A4\U+30E4\U+30FC 1
 62
     7
370
    18
100
AcDb2dPolyline
 66
     1
 10
0.0
 20
0.0
 30
0.0
  0
VERTEX
  5
34C
330
34B
100
AcDbEntity
  8
\U+30EC\U+30A4\U+30E4\U+30FC 1
 62
     7
370
    18
100
AcDbVertex
100
AcDb2dVertex
 10
5.64358689220494
 20
40.99890263328677
 30
0.0
  0
VERTEX
  5
34D
330
34B
100
AcDbEntity
  8
\U+30EC\U+30A4\U+30E4\U+30FC 1
 62
     7
370
    18
100
AcDbVertex
100
AcDb2dVertex
 10
5.64358689220494
 20
41.77284384461286
 30
0.0
  0
SEQEND
  5
34E
330
34B
100
AcDbEntity
  8
\U+30EC\U+30A4\U+30E4\U+30FC 1
370
    18
  0
POLYLINE
  5
34F
330
329
100
AcDbEntity
  8
\U+30EC\U+30A4\U+30E4\U+30FC 1
370
     0
100
AcDb2dPolyline
 66
     1
 10
0.0
 20
0.0
 30
0.0
  0
VERTEX
  5
350
330
34F
100
AcDbEntity
  8
\U+30EC\U+30A4\U+30E4\U+30FC 1
370
     0
100
AcDbVertex
100
AcDb2dVertex
 10
5.715761690234237
 20
42.13406234453515
 30
0.0
  0
VERTEX
  5
351
330
34F
100
AcDbEntity
  8
\U+30EC\U+30A4\U+30E4\U+30FC 1
370
     0
100
AcDbVertex
100
AcDb2dVertex
 10
5.64358689220494
 20
42.54678505593895
 30
0.0
  0
VERTEX
  5
352
330
34F
100
AcDbEntity
  8
\U+30EC\U+30A4\U+30E4\U+30FC 1
370
     0
100
AcDbVertex
100
AcDb2dVertex
 10
5.571239839287744
 20
42.13406234453515
 30
0.0
  0
VERTEX
  5
353
330
34F
100
AcDbEntity
  8
\U+30EC\U+30A4\U+30E4\U+30FC 1
370
     0
100
AcDbVertex
100
AcDb2dVertex
 10
5.715761690234237
 20
42.13406234453515
 30
0.0
  0
SEQEND
  5
354
330
34F
100
AcDbEntity
  8
\U+30EC\U+30A4\U+30E4\U+30FC 1
370
     0
  0
HATCH
  5
355
330
329
100
AcDbEntity
  8
\U+30EC\U+30A4\U+30E4\U+30FC 1
 62
     7
100
AcDbHatch
 10
0.0
 20
0.0
 30
0.0
210
0.0
220
0.0
230
1.0
  2
SOLID
 70
     1
 71
     0
 91
        1
 92
        1
 93
        3
 72
     1
 10
5.715761690234237
 20
42.13406234453515
 11
5.64358689220494
 21
42.54678505593895
 72
     1
 10
5.64358689220494
 20
42.54678505593895
 11
5.571239839287744
 21
42.13406234453515
 72
     1
 10
5.571239839287744
 20
42.13406234453515
 11
5.715761690234237
 21
42.13406234453515
 97
        0
 75
     2
 76
     1
 98
        0
  0
POLYLINE
  5
356
330
329
100
AcDbEntity
  8
\U+30EC\U+30A4\U+30E4\U+30FC 1
370
     0
100
AcDb2dPolyline
 66
     1
 10
0.0
 20
0.0
 30
0.0
  0
VERTEX
  5
357
330
356
100
AcDbEntity
  8
\U+30EC\U+30A4\U+30E4\U+30FC 1
370
     0
100
AcDbVertex
100
AcDb2dVertex
 10
5.571239839287744
 20
41.41162534469058
 30
0.0
  0
VERTEX
  5
358
330
356
100
AcDbEntity
  8
\U+30EC\U+30A4\U+30E4\U+30FC 1
370
     0
100
AcDbVertex
100
AcDb2dVertex
 10
5.64358689220494
 20
40.99890263328677
 30
0.0
  0
VERTEX
  5
359
330
356
100
AcDbEntity
  8
\U+30EC\U+30A4\U+30E4\U+30FC 1
370
     0
100
AcDbVertex
100
AcDb2dVertex
 10
5.715761690234237
 20
41.41162534469058
 30
0.0
  0
VERTEX
  5
35A
330
356
100
AcDbEntity
  8
\U+30EC\U+30A4\U+30E4\U+30FC 1
370
     0
100
AcDbVertex
100
AcDb2dVertex
 10
5.571239839287744
 20
41.41162534469058
 30
0.0
  0
SEQEND
  5
35B
330
356
100
AcDbEntity
  8
\U+30EC\U+30A4\U+30E4\U+30FC 1
370
     0
  0
HATCH
  5
35C
330
329
100
AcDbEntity
  8
\U+30EC\U+30A4\U+30E4\U+30FC 1
 62
     7
100
AcDbHatch
 10
0.0
 20
0.0
 30
0.0
210
0.0
220
0.0
230
1.0
  2
SOLID
 70
     1
 71
     0
 91
        1
 92
        1
 93
        3
 72
     1
 10
5.571239839287744
 20
41.41162534469058
 11
5.64358689220494
 21
40.99890263328677
 72
     1
 10
5.64358689220494
 20
40.99890263328677
 11
5.715761690234237
 21
41.41162534469058
 72
     1
 10
5.715761690234237
 20
41.41162534469058
 11
5.571239839287744
 21
41.41162534469058
 97
        0
 75
     2
 76
     1
 98
        0
  0
ENDBLK
  5
32C
330
329
100
AcDbEntity
  8
0
100
AcDbBlockEnd
  0
BLOCK
  5
32F
330
32D
100
AcDbEntity
  8
0
100
AcDbBlockBegin
  2
block 13
 70
     0
 71
     0
 10
0.0
 20
0.0
 30
0.0
  3
block 13
  1

  0
POLYLINE
  5
331
330
32D
100
AcDbEntity
  8
\U+30EC\U+30A4\U+30E4\U+30FC 1
370
     0
100
AcDb2dPolyline
 66
     1
 10
0.0
 20
0.0
 30
0.0
  0
VERTEX
  5
332
330
331
100
AcDbEntity
  8
\U+30EC\U+30A4\U+30E4\U+30FC 1
370
     0
100
AcDbVertex
100
AcDb2dVertex
 10
4.802810784374389
 20
40.8068384332804
 30
0.0
  0
VERTEX
  5
333
330
331
100
AcDbEntity
  8
\U+30EC\U+30A4\U+30E4\U+30FC 1
370
     0
100
AcDbVertex
100
AcDb2dVertex
 10
3.261129537686534
 20
40.8068384332804
 30
0.0
  0
VERTEX
  5
334
330
331
100
AcDbEntity
  8
\U+30EC\U+30A4\U+30E4\U+30FC 1
370
     0
100
AcDbVertex
100
AcDb2dVertex
 10
3.261129537686534
 20
40.80201529641926
 30
0.0
  0
VERTEX
  5
335
330
331
100
AcDbEntity
  8
\U+30EC\U+30A4\U+30E4\U+30FC 1
370
     0
100
AcDbVertex
100
AcDb2dVertex
 10
3.429078053387167
 20
40.48075993048933
 30
0.0
  0
VERTEX
  5
336
330
331
100
AcDbEntity
  8
\U+30EC\U+30A4\U+30E4\U+30FC 1
370
     0
100
AcDbVertex
100
AcDb2dVertex
 10
3.16707836889418
 20
40.40169493694411
 30
0.0
  0
VERTEX
  5
337
330
331
100
AcDbEntity
  8
\U+30EC\U+30A4\U+30E4\U+30FC 1
370
     0
100
AcDbVertex
100
AcDb2dVertex
 10
2.934878780007562
 20
40.85627558610715
 30
0.0
  0
VERTEX
  5
338
330
331
100
AcDbEntity
  8
\U+30EC\U+30A4\U+30E4\U+30FC 1
370
     0
100
AcDbVertex
100
AcDb2dVertex
 10
2.934878780007562
 20
41.16271703167784
 30
0.0
  0
VERTEX
  5
339
330
331
100
AcDbEntity
  8
\U+30EC\U+30A4\U+30E4\U+30FC 1
370
     0
100
AcDbVertex
100
AcDb2dVertex
 10
4.802810784374389
 20
41.16271703167784
 30
0.0
  0
VERTEX
  5
33A
330
331
100
AcDbEntity
  8
\U+30EC\U+30A4\U+30E4\U+30FC 1
370
     0
100
AcDbVertex
100
AcDb2dVertex
 10
4.802810784374389
 20
40.8068384332804
 30
0.0
  0
SEQEND
  5
33B
330
331
100
AcDbEntity
  8
\U+30EC\U+30A4\U+30E4\U+30FC 1
370
     0
  0
HATCH
  5
33C
330
32D
100
AcDbEntity
  8
\U+30EC\U+30A4\U+30E4\U+30FC 1
 62
     7
100
AcDbHatch
 10
0.0
 20
0.0
 30
0.0
210
0.0
220
0.0
230
1.0
  2
SOLID
 70
     1
 71
     0
 91
        1
 92
        1
 93
        8
 72
     1
 10
4.802810784374389
 20
40.8068384332804
 11
3.261129537686534
 21
40.8068384332804
 72
     1
 10
3.261129537686534
 20
40.8068384332804
 11
3.261129537686534
 21
40.80201529641926
 72
     1
 10
3.261129537686534
 20
40.80201529641926
 11
3.429078053387167
 21
40.48075993048933
 72
     1
 10
3.429078053387167
 20
40.48075993048933
 11
3.16707836889418
 21
40.40169493694411
 72
     1
 10
3.16707836889418
 20
40.40169493694411
 11
2.934878780007562
 21
40.85627558610715
 72
     1
 10
2.934878780007562
 20
40.85627558610715
 11
2.934878780007562
 21
41.16271703167784
 72
     1
 10
2.934878780007562
 20
41.16271703167784
 11
4.802810784374389
 21
41.16271703167784
 72
     1
 10
4.802810784374389
 20
41.16271703167784
 11
4.802810784374389
 21
40.8068384332804
 97
        0
 75
     2
 76
     1
 98
        0
  0
SPLINE
  5
33D
330
32D
100
AcDbEntity
  8
\U+30EC\U+30A4\U+30E4\U+30FC 1
370
     0
100
AcDbSpline
210
0.0
220
0.0
230
1.0
 70
    11
 71
     3
 72
    47
 73
    43
 74
     0
 42
0.0000000001
 43
0.0000000001
 40
0.0
 40
0.0
 40
0.0
 40
0.0
 40
1.0
 40
1.0
 40
1.0
 40
2.0
 40
2.0
 40
2.0
 40
3.0
 40
3.0
 40
3.0
 40
4.0
 40
4.0
 40
4.0
 40
5.0
 40
5.0
 40
5.0
 40
6.0
 40
6.0
 40
6.0
 40
7.0
 40
7.0
 40
7.0
 40
8.0
 40
8.0
 40
8.0
 40
9.0
 40
9.0
 40
9.0
 40
10.0
 40
10.0
 40
10.0
 40
11.0
 40
11.0
 40
11.0
 40
12.0
 40
12.0
 40
12.0
 40
13.0
 40
13.0
 40
13.0
 40
14.0
 40
14.0
 40
14.0
 40
14.0
 10
2.932467211576989
 20
42.81722522993895
 30
0.0
 10
2.932467211576989
 20
42.81722522993895
 30
0.0
 10
3.233913265398637
 20
42.81722522993895
 30
0.0
 10
3.233913265398637
 20
42.81722522993895
 30
0.0
 10
3.233913265398637
 20
42.81722522993895
 30
0.0
 10
3.233913265398637
 20
42.18229371314661
 30
0.0
 10
3.233913265398637
 20
42.18229371314661
 30
0.0
 10
3.233913265398637
 20
42.18229371314661
 30
0.0
 10
3.59961039240627
 20
42.13285656031986
 30
0.0
 10
3.59961039240627
 20
42.13285656031986
 30
0.0
 10
3.594615000657226
 20
42.16747979278738
 30
0.0
 10
3.592203432226653
 20
42.19710763350584
 30
0.0
 10
3.592203432226653
 20
42.2367262577224
 30
0.0
 10
3.592203432226653
 20
42.56280476051348
 30
0.0
 10
3.77496586828652
 20
42.86924620608417
 30
0.0
 10
4.177697796192241
 20
42.86924620608417
 30
0.0
 10
4.535987963020257
 20
42.86924620608417
 30
0.0
 10
4.830027056662288
 20
42.59484416966252
 30
0.0
 10
4.830027056662288
 20
42.15507744085871
 30
0.0
 10
4.830027056662288
 20
41.96990343636827
 30
0.0
 10
4.78300147226611
 20
41.80178266577974
 30
0.0
 10
4.73356431943936
 20
41.71031532030586
 30
0.0
 10
4.73356431943936
 20
41.71031532030586
 30
0.0
 10
4.456922969475037
 20
41.78197335367146
 30
0.0
 10
4.456922969475037
 20
41.78197335367146
 30
0.0
 10
4.496369338803698
 20
41.85621521035554
 30
0.0
 10
4.543394923199875
 20
41.99212431690712
 30
0.0
 10
4.543394923199875
 20
42.13544038363833
 30
0.0
 10
4.543394923199875
 20
42.32560977987782
 30
0.0
 10
4.422299737007521
 20
42.50096525575806
 30
0.0
 10
4.207325636910712
 20
42.50096525575806
 30
0.0
 10
3.982533008203712
 20
42.50096525575806
 30
0.0
 10
3.856442430262314
 20
42.33542830848801
 30
0.0
 10
3.856442430262314
 20
42.01916833430712
 30
0.0
 10
3.856442430262314
 20
41.93528020390075
 30
0.0
 10
3.861437822011359
 20
41.87102913071477
 30
0.0
 10
3.868844782190976
 20
41.80918962595936
 30
0.0
 10
3.868844782190976
 20
41.80918962595936
 30
0.0
 10
2.932467211576989
 20
41.9228778519721
 30
0.0
 10
2.932467211576989
 20
41.9228778519721
 30
0.0
 10
2.932467211576989
 20
41.9228778519721
 30
0.0
 10
2.932467211576989
 20
42.81722522993895
 30
0.0
 10
2.932467211576989
 20
42.81722522993895
 30
0.0
  0
HATCH
  5
33E
330
32D
100
AcDbEntity
  8
\U+30EC\U+30A4\U+30E4\U+30FC 1
 62
     7
100
AcDbHatch
 10
0.0
 20
0.0
 30
0.0
210
0.0
220
0.0
230
1.0
  2
SOLID
 70
     1
 71
     0
 91
        1
 92
        1
 93
        1
 72
     4
 94
        3
 73
     0
 74
     1
 95
       47
 96
       43
 40
0.0
 40
0.0
 40
0.0
 40
0.0
 40
1.0
 40
1.0
 40
1.0
 40
2.0
 40
2.0
 40
2.0
 40
3.0
 40
3.0
 40
3.0
 40
4.0
 40
4.0
 40
4.0
 40
5.0
 40
5.0
 40
5.0
 40
6.0
 40
6.0
 40
6.0
 40
7.0
 40
7.0
 40
7.0
 40
8.0
 40
8.0
 40
8.0
 40
9.0
 40
9.0
 40
9.0
 40
10.0
 40
10.0
 40
10.0
 40
11.0
 40
11.0
 40
11.0
 40
12.0
 40
12.0
 40
12.0
 40
13.0
 40
13.0
 40
13.0
 40
14.0
 40
14.0
 40
14.0
 40
14.0
 10
2.932467211576989
 20
42.81722522993895
 10
2.932467211576989
 20
42.81722522993895
 10
3.233913265398637
 20
42.81722522993895
 10
3.233913265398637
 20
42.81722522993895
 10
3.233913265398637
 20
42.81722522993895
 10
3.233913265398637
 20
42.18229371314661
 10
3.233913265398637
 20
42.18229371314661
 10
3.233913265398637
 20
42.18229371314661
 10
3.59961039240627
 20
42.13285656031986
 10
3.59961039240627
 20
42.13285656031986
 10
3.594615000657226
 20
42.16747979278738
 10
3.592203432226653
 20
42.19710763350584
 10
3.592203432226653
 20
42.2367262577224
 10
3.592203432226653
 20
42.56280476051348
 10
3.77496586828652
 20
42.86924620608417
 10
4.177697796192241
 20
42.86924620608417
 10
4.535987963020257
 20
42.86924620608417
 10
4.830027056662288
 20
42.59484416966252
 10
4.830027056662288
 20
42.15507744085871
 10
4.830027056662288
 20
41.96990343636827
 10
4.78300147226611
 20
41.80178266577974
 10
4.73356431943936
 20
41.71031532030586
 10
4.73356431943936
 20
41.71031532030586
 10
4.456922969475037
 20
41.78197335367146
 10
4.456922969475037
 20
41.78197335367146
 10
4.496369338803698
 20
41.85621521035554
 10
4.543394923199875
 20
41.99212431690712
 10
4.543394923199875
 20
42.13544038363833
 10
4.543394923199875
 20
42.32560977987782
 10
4.422299737007521
 20
42.50096525575806
 10
4.207325636910712
 20
42.50096525575806
 10
3.982533008203712
 20
42.50096525575806
 10
3.856442430262314
 20
42.33542830848801
 10
3.856442430262314
 20
42.01916833430712
 10
3.856442430262314
 20
41.93528020390075
 10
3.861437822011359
 20
41.87102913071477
 10
3.868844782190976
 20
41.80918962595936
 10
3.868844782190976
 20
41.80918962595936
 10
2.932467211576989
 20
41.9228778519721
 10
2.932467211576989
 20
41.9228778519721
 10
2.932467211576989
 20
41.9228778519721
 10
2.932467211576989
 20
42.81722522993895
 10
2.932467211576989
 20
42.81722522993895
 97
        0
 75
     2
 76
     1
 98
        0
  0
ENDBLK
  5
330
330
32D
100
AcDbEntity
  8
0
100
AcDbBlockEnd
  0
ENDSEC
  0
SECTION
  2
ENTITIES
  0
POLYLINE
  5
3C
330
1F
100
AcDbEntity
  8
\U+30EC\U+30A4\U+30E4\U+30FC 1
  6
AI-Linetype-1
 62
     7
370
    18
100
AcDb2dPolyline
 66
     1
 10
0.0
 20
0.0
 30
0.0
  0
VERTEX
  5
3D
330
3C
100
AcDbEntity
  8
\U+30EC\U+30A4\U+30E4\U+30FC 1
  6
AI-Linetype-1
 62
     7
370
    18
100
AcDbVertex
100
AcDb2dVertex
 10
1.132403633042007
 20
50.32392098964957
 30
0.0
  0
VERTEX
  5
35E
330
3C
100
AcDbEntity
  8
0
100
AcDbVertex
100
AcDb2dVertex
 10
1.132403633042007
 20
50.32392098964957
 30
0.0
  0
SEQEND
  5
3E
330
3C
100
AcDbEntity
  8
\U+30EC\U+30A4\U+30E4\U+30FC 1
  6
AI-Linetype-1
370
    18
  0
POLYLINE
  5
40
330
1F
100
AcDbEntity
  8
\U+30EC\U+30A4\U+30E4\U+30FC 1
  6
AI-Linetype-2
 62
     7
370
    18
100
AcDb2dPolyline
 66
     1
 10
0.0
 20
0.0
 30
0.0
  0
VERTEX
  5
41
330
40
100
AcDbEntity
  8
\U+30EC\U+30A4\U+30E4\U+30FC 1
  6
AI-Linetype-2
 62
     7
370
    18
100
AcDbVertex
100
AcDb2dVertex
 10
1.132403633042007
 20
50.32392098964957
 30
0.0
  0
VERTEX
  5
35F
330
40
100
AcDbEntity
  8
0
100
AcDbVertex
100
AcDb2dVertex
 10
1.132403633042007
 20
50.32392098964957
 30
0.0
  0
SEQEND
  5
42
330
40
100
AcDbEntity
  8
\U+30EC\U+30A4\U+30E4\U+30FC 1
  6
AI-Linetype-2
370
    18
  0
POLYLINE
  5
44
330
1F
100
AcDbEntity
  8
\U+30EC\U+30A4\U+30E4\U+30FC 1
 62
     1
370
    18
100
AcDb2dPolyline
 66
     1
 10
0.0
 20
0.0
 30
0.0
  0
VERTEX
  5
45
330
44
100
AcDbEntity
  8
\U+30EC\U+30A4\U+30E4\U+30FC 1
 62
     1
370
    18
100
AcDbVertex
100
AcDb2dVertex
 10
2.164382666439431
 20
49.70466466765595
 30
0.0
  0
VERTEX
  5
360
330
44
100
AcDbEntity
  8
0
100
AcDbVertex
100
AcDb2dVertex
 10
2.164382666439431
 20
49.70466466765595
 30
0.0
  0
SEQEND
  5
46
330
44
100
AcDbEntity
  8
\U+30EC\U+30A4\U+30E4\U+30FC 1
370
    18
  0
POLYLINE
  5
47
330
1F
100
AcDbEntity
  8
\U+30EC\U+30A4\U+30E4\U+30FC 1
 62
     1
370
    18
100
AcDb2dPolyline
 66
     1
 10
0.0
 20
0.0
 30
0.0
  0
VERTEX
  5
48
330
47
100
AcDbEntity
  8
\U+30EC\U+30A4\U+30E4\U+30FC 1
 62
     1
370
    18
100
AcDbVertex
100
AcDb2dVertex
 10
2.164382666439431
 20
49.70466466765595
 30
0.0
  0
VERTEX
  5
361
330
47
100
AcDbEntity
  8
0
100
AcDbVertex
100
AcDb2dVertex
 10
2.164382666439431
 20
49.70466466765595
 30
0.0
  0
SEQEND
  5
49
330
47
100
AcDbEntity
  8
\U+30EC\U+30A4\U+30E4\U+30FC 1
370
    18
  0
POLYLINE
  5
4A
330
1F
100
AcDbEntity
  8
\U+30EC\U+30A4\U+30E4\U+30FC 1
 62
     7
370
    18
100
AcDb2dPolyline
 66
     1
 10
0.0
 20
0.0
 30
0.0
  0
VERTEX
  5
4B
330
4A
100
AcDbEntity
  8
\U+30EC\U+30A4\U+30E4\U+30FC 1
 62
     7
370
    18
100
AcDbVertex
100
AcDb2dVertex
 10
9.953231932527114
 20
42.85804963837079
 30
0.0
  0
VERTEX
  5
4C
330
4A
100
AcDbEntity
  8
\U+30EC\U+30A4\U+30E4\U+30FC 1
 62
     7
370
    18
100
AcDbVertex
100
AcDb2dVertex
 10
9.866587723914378
 20
42.80275581935551
 30
0.0
  0
SEQEND
  5
4D
330
4A
100
AcDbEntity
  8
\U+30EC\U+30A4\U+30E4\U+30FC 1
370
    18
  0
POLYLINE
  5
4E
330
1F
100
AcDbEntity
  8
\U+30EC\U+30A4\U+30E4\U+30FC 1
 62
     7
370
    18
100
AcDb2dPolyline
 66
     1
 10
0.0
 20
0.0
 30
0.0
  0
VERTEX
  5
4F
330
4E
100
AcDbEntity
  8
\U+30EC\U+30A4\U+30E4\U+30FC 1
 62
     7
370
    18
100
AcDbVertex
100
AcDb2dVertex
 10
9.953231932527114
 20
41.1845934024409
 30
0.0
  0
VERTEX
  5
50
330
4E
100
AcDbEntity
  8
\U+30EC\U+30A4\U+30E4\U+30FC 1
 62
     7
370
    18
100
AcDbVertex
100
AcDb2dVertex
 10
9.818873119966609
 20
41.13515624961416
 30
0.0
  0
SEQEND
  5
51
330
4E
100
AcDbEntity
  8
\U+30EC\U+30A4\U+30E4\U+30FC 1
370
    18
  0
POLYLINE
  5
52
330
1F
100
AcDbEntity
  8
\U+30EC\U+30A4\U+30E4\U+30FC 1
 62
     7
370
    18
100
AcDb2dPolyline
 66
     1
 10
0.0
 20
0.0
 30
0.0
  0
VERTEX
  5
53
330
52
100
AcDbEntity
  8
\U+30EC\U+30A4\U+30E4\U+30FC 1
 62
     7
370
    18
100
AcDbVertex
100
AcDb2dVertex
 10
9.953231932527114
 20
41.1668511489874
 30
0.0
  0
VERTEX
  5
54
330
52
100
AcDbEntity
  8
\U+30EC\U+30A4\U+30E4\U+30FC 1
 62
     7
370
    18
100
AcDbVertex
100
AcDb2dVertex
 10
9.818873119966609
 20
41.11724174127275
 30
0.0
  0
SEQEND
  5
55
330
52
100
AcDbEntity
  8
\U+30EC\U+30A4\U+30E4\U+30FC 1
370
    18
  0
POLYLINE
  5
56
330
1F
100
AcDbEntity
  8
\U+30EC\U+30A4\U+30E4\U+30FC 1
 62
     7
370
    18
100
AcDb2dPolyline
 66
     1
 10
0.0
 20
0.0
 30
0.0
  0
VERTEX
  5
57
330
56
100
AcDbEntity
  8
\U+30EC\U+30A4\U+30E4\U+30FC 1
 62
     7
370
    18
100
AcDbVertex
100
AcDb2dVertex
 10
8.951225249623958
 20
40.91759832619887
 30
0.0
  0
VERTEX
  5
58
330
56
100
AcDbEntity
  8
\U+30EC\U+30A4\U+30E4\U+30FC 1
 62
     7
370
    18
100
AcDbVertex
100
AcDb2dVertex
 10
8.951225249623958
 20
41.08037919526256
 30
0.0
  0
SEQEND
  5
59
330
56
100
AcDbEntity
  8
\U+30EC\U+30A4\U+30E4\U+30FC 1
370
    18
  0
POLYLINE
  5
5A
330
1F
100
AcDbEntity
  8
\U+30EC\U+30A4\U+30E4\U+30FC 1
 62
     7
370
    18
100
AcDb2dPolyline
 66
     1
 10
0.0
 20
0.0
 30
0.0
  0
VERTEX
  5
5B
330
5A
100
AcDbEntity
  8
\U+30EC\U+30A4\U+30E4\U+30FC 1
 62
     7
370
    18
100
AcDbVertex
100
AcDb2dVertex
 10
8.951225249623958
 20
42.46530849396316
 30
0.0
  0
VERTEX
  5
5C
330
5A
100
AcDbEntity
  8
\U+30EC\U+30A4\U+30E4\U+30FC 1
 62
     7
370
    18
100
AcDbVertex
100
AcDb2dVertex
 10
8.951225249623958
 20
42.62808936302685
 30
0.0
  0
SEQEND
  5
5D
330
5A
100
AcDbEntity
  8
\U+30EC\U+30A4\U+30E4\U+30FC 1
370
    18
  0
POLYLINE
  5
5E
330
1F
100
AcDbEntity
  8
\U+30EC\U+30A4\U+30E4\U+30FC 1
 62
     7
370
    18
100
AcDb2dPolyline
 66
     1
 10
0.0
 20
0.0
 30
0.0
  0
VERTEX
  5
5F
330
5E
100
AcDbEntity
  8
\U+30EC\U+30A4\U+30E4\U+30FC 1
 62
     7
370
    18
100
AcDbVertex
100
AcDb2dVertex
 10
9.10212053142268
 20
40.76274118197849
 30
0.0
  0
VERTEX
  5
60
330
5E
100
AcDbEntity
  8
\U+30EC\U+30A4\U+30E4\U+30FC 1
 62
     7
370
    18
100
AcDbVertex
100
AcDb2dVertex
 10
9.10212053142268
 20
41.23506408459505
 30
0.0
  0
SEQEND
  5
61
330
5E
100
AcDbEntity
  8
\U+30EC\U+30A4\U+30E4\U+30FC 1
370
    18
  0
POLYLINE
  5
62
330
1F
100
AcDbEntity
  8
\U+30EC\U+30A4\U+30E4\U+30FC 1
 62
     7
370
    18
100
AcDb2dPolyline
 66
     1
 10
0.0
 20
0.0
 30
0.0
  0
VERTEX
  5
63
330
62
100
AcDbEntity
  8
\U+30EC\U+30A4\U+30E4\U+30FC 1
 62
     7
370
    18
100
AcDbVertex
100
AcDb2dVertex
 10
9.10212053142268
 20
42.31062360463068
 30
0.0
  0
VERTEX
  5
64
330
62
100
AcDbEntity
  8
\U+30EC\U+30A4\U+30E4\U+30FC 1
 62
     7
370
    18
100
AcDbVertex
100
AcDb2dVertex
 10
9.10212053142268
 20
42.78277425235933
 30
0.0
  0
SEQEND
  5
65
330
62
100
AcDbEntity
  8
\U+30EC\U+30A4\U+30E4\U+30FC 1
370
    18
  0
POLYLINE
  5
66
330
1F
100
AcDbEntity
  8
\U+30EC\U+30A4\U+30E4\U+30FC 1
 62
     7
370
    18
100
AcDb2dPolyline
 66
     1
 10
0.0
 20
0.0
 30
0.0
  0
VERTEX
  5
67
330
66
100
AcDbEntity
  8
\U+30EC\U+30A4\U+30E4\U+30FC 1
 62
     7
370
    18
100
AcDbVertex
100
AcDb2dVertex
 10
9.467300893766618
 20
42.79259278096952
 30
0.0
  0
VERTEX
  5
68
330
66
100
AcDbEntity
  8
\U+30EC\U+30A4\U+30E4\U+30FC 1
 62
     7
370
    18
100
AcDbVertex
100
AcDb2dVertex
 10
9.467300893766618
 20
42.30114958579629
 30
0.0
  0
SEQEND
  5
69
330
66
100
AcDbEntity
  8
\U+30EC\U+30A4\U+30E4\U+30FC 1
370
    18
  0
POLYLINE
  5
6A
330
1F
100
AcDbEntity
  8
\U+30EC\U+30A4\U+30E4\U+30FC 1
 62
     7
370
    18
100
AcDb2dPolyline
 66
     1
 10
0.0
 20
0.0
 30
0.0
  0
VERTEX
  5
6B
330
6A
100
AcDbEntity
  8
\U+30EC\U+30A4\U+30E4\U+30FC 1
 62
     7
370
    18
100
AcDbVertex
100
AcDb2dVertex
 10
9.467300893766618
 20
41.24471035831733
 30
0.0
  0
VERTEX
  5
6C
330
6A
100
AcDbEntity
  8
\U+30EC\U+30A4\U+30E4\U+30FC 1
 62
     7
370
    18
100
AcDbVertex
100
AcDb2dVertex
 10
9.467300893766618
 20
40.7532671631441
 30
0.0
  0
SEQEND
  5
6D
330
6A
100
AcDbEntity
  8
\U+30EC\U+30A4\U+30E4\U+30FC 1
370
    18
  0
POLYLINE
  5
6E
330
1F
100
AcDbEntity
  8
\U+30EC\U+30A4\U+30E4\U+30FC 1
 62
     7
370
    18
100
AcDb2dPolyline
 66
     1
 10
0.0
 20
0.0
 30
0.0
  0
VERTEX
  5
6F
330
6E
100
AcDbEntity
  8
\U+30EC\U+30A4\U+30E4\U+30FC 1
 62
     7
370
    18
100
AcDbVertex
100
AcDb2dVertex
 10
9.507780792422668
 20
40.75223363381671
 30
0.0
  0
VERTEX
  5
70
330
6E
100
AcDbEntity
  8
\U+30EC\U+30A4\U+30E4\U+30FC 1
 62
     7
370
    18
100
AcDbVertex
100
AcDb2dVertex
 10
9.507780792422668
 20
41.24557163275683
 30
0.0
  0
SEQEND
  5
71
330
6E
100
AcDbEntity
  8
\U+30EC\U+30A4\U+30E4\U+30FC 1
370
    18
  0
POLYLINE
  5
72
330
1F
100
AcDbEntity
  8
\U+30EC\U+30A4\U+30E4\U+30FC 1
 62
     7
370
    18
100
AcDb2dPolyline
 66
     1
 10
0.0
 20
0.0
 30
0.0
  0
VERTEX
  5
73
330
72
100
AcDbEntity
  8
\U+30EC\U+30A4\U+30E4\U+30FC 1
 62
     7
370
    18
100
AcDbVertex
100
AcDb2dVertex
 10
9.507780792422668
 20
42.30011605646889
 30
0.0
  0
VERTEX
  5
74
330
72
100
AcDbEntity
  8
\U+30EC\U+30A4\U+30E4\U+30FC 1
 62
     7
370
    18
100
AcDbVertex
100
AcDb2dVertex
 10
9.507780792422668
 20
42.79345405540901
 30
0.0
  0
SEQEND
  5
75
330
72
100
AcDbEntity
  8
\U+30EC\U+30A4\U+30E4\U+30FC 1
370
    18
  0
POLYLINE
  5
76
330
1F
100
AcDbEntity
  8
\U+30EC\U+30A4\U+30E4\U+30FC 1
 62
     7
370
    18
100
AcDb2dPolyline
 66
     1
 10
0.0
 20
0.0
 30
0.0
  0
VERTEX
  5
77
330
76
100
AcDbEntity
  8
\U+30EC\U+30A4\U+30E4\U+30FC 1
 62
     7
370
    18
100
AcDbVertex
100
AcDb2dVertex
 10
9.953231932527114
 20
42.55712034921284
 30
0.0
  0
VERTEX
  5
78
330
76
100
AcDbEntity
  8
\U+30EC\U+30A4\U+30E4\U+30FC 1
 62
     7
370
    18
100
AcDbVertex
100
AcDb2dVertex
 10
9.953231932527114
 20
42.53644976266507
 30
0.0
  0
SEQEND
  5
79
330
76
100
AcDbEntity
  8
\U+30EC\U+30A4\U+30E4\U+30FC 1
370
    18
  0
POLYLINE
  5
7A
330
1F
100
AcDbEntity
  8
\U+30EC\U+30A4\U+30E4\U+30FC 1
 62
     7
370
    18
100
AcDb2dPolyline
 66
     1
 10
0.0
 20
0.0
 30
0.0
  0
VERTEX
  5
7B
330
7A
100
AcDbEntity
  8
\U+30EC\U+30A4\U+30E4\U+30FC 1
 62
     7
370
    18
100
AcDbVertex
100
AcDb2dVertex
 10
9.953231932527114
 20
41.1845934024409
 30
0.0
  0
VERTEX
  5
7C
330
7A
100
AcDbEntity
  8
\U+30EC\U+30A4\U+30E4\U+30FC 1
 62
     7
370
    18
100
AcDbVertex
100
AcDb2dVertex
 10
9.953231932527114
 20
41.1668511489874
 30
0.0
  0
SEQEND
  5
7D
330
7A
100
AcDbEntity
  8
\U+30EC\U+30A4\U+30E4\U+30FC 1
370
    18
  0
POLYLINE
  5
7E
330
1F
100
AcDbEntity
  8
\U+30EC\U+30A4\U+30E4\U+30FC 1
 62
     7
370
    18
100
AcDb2dPolyline
 66
     1
 10
0.0
 20
0.0
 30
0.0
  0
VERTEX
  5
7F
330
7E
100
AcDbEntity
  8
\U+30EC\U+30A4\U+30E4\U+30FC 1
 62
     7
370
    18
100
AcDbVertex
100
AcDb2dVertex
 10
10.08638496087233
 20
40.83715529355047
 30
0.0
  0
VERTEX
  5
80
330
7E
100
AcDbEntity
  8
\U+30EC\U+30A4\U+30E4\U+30FC 1
 62
     7
370
    18
100
AcDbVertex
100
AcDb2dVertex
 10
10.08638496087233
 20
40.89951156296957
 30
0.0
  0
SEQEND
  5
81
330
7E
100
AcDbEntity
  8
\U+30EC\U+30A4\U+30E4\U+30FC 1
370
    18
  0
POLYLINE
  5
82
330
1F
100
AcDbEntity
  8
\U+30EC\U+30A4\U+30E4\U+30FC 1
 62
     7
370
    18
100
AcDb2dPolyline
 66
     1
 10
0.0
 20
0.0
 30
0.0
  0
VERTEX
  5
83
330
82
100
AcDbEntity
  8
\U+30EC\U+30A4\U+30E4\U+30FC 1
 62
     7
370
    18
100
AcDbVertex
100
AcDb2dVertex
 10
10.08638496087233
 20
42.30442242866635
 30
0.0
  0
VERTEX
  5
84
330
82
100
AcDbEntity
  8
\U+30EC\U+30A4\U+30E4\U+30FC 1
 62
     7
370
    18
100
AcDbVertex
100
AcDb2dVertex
 10
10.08638496087233
 20
42.34094046490075
 30
0.0
  0
SEQEND
  5
85
330
82
100
AcDbEntity
  8
\U+30EC\U+30A4\U+30E4\U+30FC 1
370
    18
  0
POLYLINE
  5
86
330
1F
100
AcDbEntity
  8
\U+30EC\U+30A4\U+30E4\U+30FC 1
 62
     7
370
    18
100
AcDb2dPolyline
 66
     1
 10
0.0
 20
0.0
 30
0.0
  0
VERTEX
  5
87
330
86
100
AcDbEntity
  8
\U+30EC\U+30A4\U+30E4\U+30FC 1
 62
     7
370
    18
100
AcDbVertex
100
AcDb2dVertex
 10
10.08638496087233
 20
42.75280190186506
 30
0.0
  0
VERTEX
  5
88
330
86
100
AcDbEntity
  8
\U+30EC\U+30A4\U+30E4\U+30FC 1
 62
     7
370
    18
100
AcDbVertex
100
AcDb2dVertex
 10
10.08638496087233
 20
42.78914768321156
 30
0.0
  0
SEQEND
  5
89
330
86
100
AcDbEntity
  8
\U+30EC\U+30A4\U+30E4\U+30FC 1
370
    18
  0
POLYLINE
  5
8A
330
1F
100
AcDbEntity
  8
\U+30EC\U+30A4\U+30E4\U+30FC 1
 62
     7
370
    18
100
AcDb2dPolyline
 66
     1
 10
0.0
 20
0.0
 30
0.0
  0
VERTEX
  5
8B
330
8A
100
AcDbEntity
  8
\U+30EC\U+30A4\U+30E4\U+30FC 1
 62
     7
370
    18
100
AcDbVertex
100
AcDb2dVertex
 10
11.69593463339204
 20
42.55712034921284
 30
0.0
  0
VERTEX
  5
8C
330
8A
100
AcDbEntity
  8
\U+30EC\U+30A4\U+30E4\U+30FC 1
 62
     7
370
    18
100
AcDbVertex
100
AcDb2dVertex
 10
11.69593463339204
 20
42.53644976266507
 30
0.0
  0
SEQEND
  5
8D
330
8A
100
AcDbEntity
  8
\U+30EC\U+30A4\U+30E4\U+30FC 1
370
    18
  0
POLYLINE
  5
8E
330
1F
100
AcDbEntity
  8
\U+30EC\U+30A4\U+30E4\U+30FC 1
 62
     7
370
    18
100
AcDb2dPolyline
 66
     1
 10
0.0
 20
0.0
 30
0.0
  0
VERTEX
  5
8F
330
8E
100
AcDbEntity
  8
\U+30EC\U+30A4\U+30E4\U+30FC 1
 62
     7
370
    18
100
AcDbVertex
100
AcDb2dVertex
 10
11.69593463339204
 20
41.1845934024409
 30
0.0
  0
VERTEX
  5
90
330
8E
100
AcDbEntity
  8
\U+30EC\U+30A4\U+30E4\U+30FC 1
 62
     7
370
    18
100
AcDbVertex
100
AcDb2dVertex
 10
11.69593463339204
 20
41.1668511489874
 30
0.0
  0
SEQEND
  5
91
330
8E
100
AcDbEntity
  8
\U+30EC\U+30A4\U+30E4\U+30FC 1
370
    18
  0
POLYLINE
  5
92
330
1F
100
AcDbEntity
  8
\U+30EC\U+30A4\U+30E4\U+30FC 1
 62
     7
370
    18
100
AcDb2dPolyline
 66
     1
 10
0.0
 20
0.0
 30
0.0
  0
VERTEX
  5
93
330
92
100
AcDbEntity
  8
\U+30EC\U+30A4\U+30E4\U+30FC 1
 62
     7
370
    18
100
AcDbVertex
100
AcDb2dVertex
 10
11.90677461617929
 20
40.68936059973391
 30
0.0
  0
VERTEX
  5
94
330
92
100
AcDbEntity
  8
\U+30EC\U+30A4\U+30E4\U+30FC 1
 62
     7
370
    18
100
AcDbVertex
100
AcDb2dVertex
 10
11.90677461617929
 20
41.30844466683963
 30
0.0
  0
SEQEND
  5
95
330
92
100
AcDbEntity
  8
\U+30EC\U+30A4\U+30E4\U+30FC 1
370
    18
  0
POLYLINE
  5
96
330
1F
100
AcDbEntity
  8
\U+30EC\U+30A4\U+30E4\U+30FC 1
 62
     7
370
    18
100
AcDb2dPolyline
 66
     1
 10
0.0
 20
0.0
 30
0.0
  0
VERTEX
  5
97
330
96
100
AcDbEntity
  8
\U+30EC\U+30A4\U+30E4\U+30FC 1
 62
     7
370
    18
100
AcDbVertex
100
AcDb2dVertex
 10
11.90677461617929
 20
42.2372430223861
 30
0.0
  0
VERTEX
  5
98
330
96
100
AcDbEntity
  8
\U+30EC\U+30A4\U+30E4\U+30FC 1
 62
     7
370
    18
100
AcDbVertex
100
AcDb2dVertex
 10
11.90677461617929
 20
42.85632708949181
 30
0.0
  0
SEQEND
  5
99
330
96
100
AcDbEntity
  8
\U+30EC\U+30A4\U+30E4\U+30FC 1
370
    18
  0
POLYLINE
  5
9A
330
1F
100
AcDbEntity
  8
\U+30EC\U+30A4\U+30E4\U+30FC 1
 62
     7
370
    18
100
AcDb2dPolyline
 66
     1
 10
0.0
 20
0.0
 30
0.0
  0
VERTEX
  5
9B
330
9A
100
AcDbEntity
  8
\U+30EC\U+30A4\U+30E4\U+30FC 1
 62
     7
370
    18
100
AcDbVertex
100
AcDb2dVertex
 10
12.9756161955869
 20
42.94917247406888
 30
0.0
  0
VERTEX
  5
9C
330
9A
100
AcDbEntity
  8
\U+30EC\U+30A4\U+30E4\U+30FC 1
 62
     7
370
    18
100
AcDbVertex
100
AcDb2dVertex
 10
12.9756161955869
 20
42.14439763780903
 30
0.0
  0
SEQEND
  5
9D
330
9A
100
AcDbEntity
  8
\U+30EC\U+30A4\U+30E4\U+30FC 1
370
    18
  0
POLYLINE
  5
9E
330
1F
100
AcDbEntity
  8
\U+30EC\U+30A4\U+30E4\U+30FC 1
 62
     7
370
    18
100
AcDb2dPolyline
 66
     1
 10
0.0
 20
0.0
 30
0.0
  0
VERTEX
  5
9F
330
9E
100
AcDbEntity
  8
\U+30EC\U+30A4\U+30E4\U+30FC 1
 62
     7
370
    18
100
AcDbVertex
100
AcDb2dVertex
 10
12.9756161955869
 20
41.40146230630459
 30
0.0
  0
VERTEX
  5
A0
330
9E
100
AcDbEntity
  8
\U+30EC\U+30A4\U+30E4\U+30FC 1
 62
     7
370
    18
100
AcDbVertex
100
AcDb2dVertex
 10
12.9756161955869
 20
40.59651521515684
 30
0.0
  0
SEQEND
  5
A1
330
9E
100
AcDbEntity
  8
\U+30EC\U+30A4\U+30E4\U+30FC 1
370
    18
  0
POLYLINE
  5
A2
330
1F
100
AcDbEntity
  8
\U+30EC\U+30A4\U+30E4\U+30FC 1
 62
     7
370
    18
100
AcDb2dPolyline
 66
     1
 10
0.0
 20
0.0
 30
0.0
  0
VERTEX
  5
A3
330
A2
100
AcDbEntity
  8
\U+30EC\U+30A4\U+30E4\U+30FC 1
 62
     7
370
    18
100
AcDbVertex
100
AcDb2dVertex
 10
13.07896912832575
 20
40.69452824637085
 30
0.0
  0
VERTEX
  5
A4
330
A2
100
AcDbEntity
  8
\U+30EC\U+30A4\U+30E4\U+30FC 1
 62
     7
370
    18
100
AcDbVertex
100
AcDb2dVertex
 10
13.07896912832575
 20
41.30344927509058
 30
0.0
  0
SEQEND
  5
A5
330
A2
100
AcDbEntity
  8
\U+30EC\U+30A4\U+30E4\U+30FC 1
370
    18
  0
POLYLINE
  5
A6
330
1F
100
AcDbEntity
  8
\U+30EC\U+30A4\U+30E4\U+30FC 1
 62
     7
370
    18
100
AcDb2dPolyline
 66
     1
 10
0.0
 20
0.0
 30
0.0
  0
VERTEX
  5
A7
330
A6
100
AcDbEntity
  8
\U+30EC\U+30A4\U+30E4\U+30FC 1
 62
     7
370
    18
100
AcDbVertex
100
AcDb2dVertex
 10
13.07896912832575
 20
42.24223841413514
 30
0.0
  0
VERTEX
  5
A8
330
A6
100
AcDbEntity
  8
\U+30EC\U+30A4\U+30E4\U+30FC 1
 62
     7
370
    18
100
AcDbVertex
100
AcDb2dVertex
 10
13.07896912832575
 20
42.85115944285487
 30
0.0
  0
SEQEND
  5
A9
330
A6
100
AcDbEntity
  8
\U+30EC\U+30A4\U+30E4\U+30FC 1
370
    18
  0
POLYLINE
  5
AA
330
1F
100
AcDbEntity
  8
\U+30EC\U+30A4\U+30E4\U+30FC 1
 62
     7
370
    18
100
AcDb2dPolyline
 66
     1
 10
0.0
 20
0.0
 30
0.0
  0
VERTEX
  5
AB
330
AA
100
AcDbEntity
  8
\U+30EC\U+30A4\U+30E4\U+30FC 1
 62
     7
370
    18
100
AcDbVertex
100
AcDb2dVertex
 10
13.69805319543147
 20
43.59926242099625
 30
0.0
  0
VERTEX
  5
AC
330
AA
100
AcDbEntity
  8
\U+30EC\U+30A4\U+30E4\U+30FC 1
 62
     7
370
    18
100
AcDbVertex
100
AcDb2dVertex
 10
13.69805319543147
 20
39.98776644132501
 30
0.0
  0
SEQEND
  5
AD
330
AA
100
AcDbEntity
  8
\U+30EC\U+30A4\U+30E4\U+30FC 1
370
    18
  0
POLYLINE
  5
AE
330
1F
100
AcDbEntity
  8
\U+30EC\U+30A4\U+30E4\U+30FC 1
 62
     7
370
    18
100
AcDb2dPolyline
 66
     1
 10
0.0
 20
0.0
 30
0.0
  0
VERTEX
  5
AF
330
AE
100
AcDbEntity
  8
\U+30EC\U+30A4\U+30E4\U+30FC 1
 62
     7
370
    18
100
AcDbVertex
100
AcDb2dVertex
 10
9.953231932527114
 20
40.6454356033199
 30
0.0
  0
VERTEX
  5
B0
330
AE
100
AcDbEntity
  8
\U+30EC\U+30A4\U+30E4\U+30FC 1
 62
     7
370
    18
100
AcDbVertex
100
AcDb2dVertex
 10
9.818873119966609
 20
40.7443099089734
 30
0.0
  0
SEQEND
  5
B1
330
AE
100
AcDbEntity
  8
\U+30EC\U+30A4\U+30E4\U+30FC 1
370
    18
  0
POLYLINE
  5
B2
330
1F
100
AcDbEntity
  8
\U+30EC\U+30A4\U+30E4\U+30FC 1
 62
     7
370
    18
100
AcDb2dPolyline
 66
     1
 10
0.0
 20
0.0
 30
0.0
  0
VERTEX
  5
B3
330
B2
100
AcDbEntity
  8
\U+30EC\U+30A4\U+30E4\U+30FC 1
 62
     7
370
    18
100
AcDbVertex
100
AcDb2dVertex
 10
9.953231932527114
 20
42.23534821861922
 30
0.0
  0
VERTEX
  5
B4
330
B2
100
AcDbEntity
  8
\U+30EC\U+30A4\U+30E4\U+30FC 1
 62
     7
370
    18
100
AcDbVertex
100
AcDb2dVertex
 10
9.866587723914378
 20
42.29046978274661
 30
0.0
  0
SEQEND
  5
B5
330
B2
100
AcDbEntity
  8
\U+30EC\U+30A4\U+30E4\U+30FC 1
370
    18
  0
POLYLINE
  5
B6
330
1F
100
AcDbEntity
  8
\U+30EC\U+30A4\U+30E4\U+30FC 1
 62
     7
370
    18
100
AcDb2dPolyline
 66
     1
 10
0.0
 20
0.0
 30
0.0
  0
VERTEX
  5
B7
330
B6
100
AcDbEntity
  8
\U+30EC\U+30A4\U+30E4\U+30FC 1
 62
     7
370
    18
100
AcDbVertex
100
AcDb2dVertex
 10
18.23920880508867
 20
20.11937090649626
 30
0.0
  0
VERTEX
  5
B8
330
B6
100
AcDbEntity
  8
\U+30EC\U+30A4\U+30E4\U+30FC 1
 62
     7
370
    18
100
AcDbVertex
100
AcDb2dVertex
 10
18.23920880508867
 20
41.7880022747479
 30
0.0
  0
SEQEND
  5
B9
330
B6
100
AcDbEntity
  8
\U+30EC\U+30A4\U+30E4\U+30FC 1
370
    18
  0
POLYLINE
  5
BA
330
1F
100
AcDbEntity
  8
\U+30EC\U+30A4\U+30E4\U+30FC 1
 62
     7
370
    18
100
AcDb2dPolyline
 66
     1
 10
0.0
 20
0.0
 30
0.0
  0
VERTEX
  5
BB
330
BA
100
AcDbEntity
  8
\U+30EC\U+30A4\U+30E4\U+30FC 1
 62
     7
370
    18
100
AcDbVertex
100
AcDb2dVertex
 10
13.69805319543147
 20
39.98776644132501
 30
0.0
  0
VERTEX
  5
BC
330
BA
100
AcDbEntity
  8
\U+30EC\U+30A4\U+30E4\U+30FC 1
 62
     7
370
    18
100
AcDbVertex
100
AcDb2dVertex
 10
18.23920880508867
 20
39.98776644132501
 30
0.0
  0
SEQEND
  5
BD
330
BA
100
AcDbEntity
  8
\U+30EC\U+30A4\U+30E4\U+30FC 1
370
    18
  0
POLYLINE
  5
BE
330
1F
100
AcDbEntity
  8
\U+30EC\U+30A4\U+30E4\U+30FC 1
 62
     7
370
    18
100
AcDb2dPolyline
 66
     1
 10
0.0
 20
0.0
 30
0.0
  0
VERTEX
  5
BF
330
BE
100
AcDbEntity
  8
\U+30EC\U+30A4\U+30E4\U+30FC 1
 62
     7
370
    18
100
AcDbVertex
100
AcDb2dVertex
 10
19.477549194188
 20
39.98776644132501
 30
0.0
  0
VERTEX
  5
C0
330
BE
100
AcDbEntity
  8
\U+30EC\U+30A4\U+30E4\U+30FC 1
 62
     7
370
    18
100
AcDbVertex
100
AcDb2dVertex
 10
19.88923837626442
 20
39.98776644132501
 30
0.0
  0
SEQEND
  5
C1
330
BE
100
AcDbEntity
  8
\U+30EC\U+30A4\U+30E4\U+30FC 1
370
    18
  0
POLYLINE
  5
C2
330
1F
100
AcDbEntity
  8
\U+30EC\U+30A4\U+30E4\U+30FC 1
 62
     7
370
    18
100
AcDb2dPolyline
 66
     1
 10
0.0
 20
0.0
 30
0.0
  0
VERTEX
  5
C3
330
C2
100
AcDbEntity
  8
\U+30EC\U+30A4\U+30E4\U+30FC 1
 62
     7
370
    18
100
AcDbVertex
100
AcDb2dVertex
 10
12.9756161955869
 20
40.59651521515684
 30
0.0
  0
VERTEX
  5
C4
330
C2
100
AcDbEntity
  8
\U+30EC\U+30A4\U+30E4\U+30FC 1
 62
     7
370
    18
100
AcDbVertex
100
AcDb2dVertex
 10
13.0572650124506
 20
40.59651521515684
 30
0.0
  0
SEQEND
  5
C5
330
C2
100
AcDbEntity
  8
\U+30EC\U+30A4\U+30E4\U+30FC 1
370
    18
  0
POLYLINE
  5
C6
330
1F
100
AcDbEntity
  8
\U+30EC\U+30A4\U+30E4\U+30FC 1
 62
     7
370
    18
100
AcDb2dPolyline
 66
     1
 10
0.0
 20
0.0
 30
0.0
  0
VERTEX
  5
C7
330
C6
100
AcDbEntity
  8
\U+30EC\U+30A4\U+30E4\U+30FC 1
 62
     7
370
    18
100
AcDbVertex
100
AcDb2dVertex
 10
11.90677461617929
 20
40.68936059973391
 30
0.0
  0
VERTEX
  5
C8
330
C6
100
AcDbEntity
  8
\U+30EC\U+30A4\U+30E4\U+30FC 1
 62
     7
370
    18
100
AcDbVertex
100
AcDb2dVertex
 10
11.89730059734489
 20
40.68970510950971
 30
0.0
  0
SEQEND
  5
C9
330
C6
100
AcDbEntity
  8
\U+30EC\U+30A4\U+30E4\U+30FC 1
370
    18
  0
POLYLINE
  5
CA
330
1F
100
AcDbEntity
  8
\U+30EC\U+30A4\U+30E4\U+30FC 1
 62
     7
370
    18
100
AcDb2dPolyline
 66
     1
 10
0.0
 20
0.0
 30
0.0
  0
VERTEX
  5
CB
330
CA
100
AcDbEntity
  8
\U+30EC\U+30A4\U+30E4\U+30FC 1
 62
     7
370
    18
100
AcDbVertex
100
AcDb2dVertex
 10
9.819217629742404
 20
40.74396539919761
 30
0.0
  0
VERTEX
  5
CC
330
CA
100
AcDbEntity
  8
\U+30EC\U+30A4\U+30E4\U+30FC 1
 62
     7
370
    18
100
AcDbVertex
100
AcDb2dVertex
 10
9.507780792422668
 20
40.75223363381671
 30
0.0
  0
SEQEND
  5
CD
330
CA
100
AcDbEntity
  8
\U+30EC\U+30A4\U+30E4\U+30FC 1
370
    18
  0
POLYLINE
  5
CE
330
1F
100
AcDbEntity
  8
\U+30EC\U+30A4\U+30E4\U+30FC 1
 62
     7
370
    18
100
AcDb2dPolyline
 66
     1
 10
0.0
 20
0.0
 30
0.0
  0
VERTEX
  5
CF
330
CE
100
AcDbEntity
  8
\U+30EC\U+30A4\U+30E4\U+30FC 1
 62
     7
370
    18
100
AcDbVertex
100
AcDb2dVertex
 10
9.467300893766618
 20
40.7532671631441
 30
0.0
  0
VERTEX
  5
D0
330
CE
100
AcDbEntity
  8
\U+30EC\U+30A4\U+30E4\U+30FC 1
 62
     7
370
    18
100
AcDbVertex
100
AcDb2dVertex
 10
9.10212053142268
 20
40.76274118197849
 30
0.0
  0
SEQEND
  5
D1
330
CE
100
AcDbEntity
  8
\U+30EC\U+30A4\U+30E4\U+30FC 1
370
    18
  0
POLYLINE
  5
D2
330
1F
100
AcDbEntity
  8
\U+30EC\U+30A4\U+30E4\U+30FC 1
 62
     7
370
    18
100
AcDb2dPolyline
 66
     1
 10
0.0
 20
0.0
 30
0.0
  0
VERTEX
  5
D3
330
D2
100
AcDbEntity
  8
\U+30EC\U+30A4\U+30E4\U+30FC 1
 62
     7
370
    18
100
AcDbVertex
100
AcDb2dVertex
 10
12.9756161955869
 20
40.63751187847659
 30
0.0
  0
VERTEX
  5
D4
330
D2
100
AcDbEntity
  8
\U+30EC\U+30A4\U+30E4\U+30FC 1
 62
     7
370
    18
100
AcDbVertex
100
AcDb2dVertex
 10
11.93864177044044
 20
40.68643226663964
 30
0.0
  0
SEQEND
  5
D5
330
D2
100
AcDbEntity
  8
\U+30EC\U+30A4\U+30E4\U+30FC 1
370
    18
  0
POLYLINE
  5
D6
330
1F
100
AcDbEntity
  8
\U+30EC\U+30A4\U+30E4\U+30FC 1
 62
     7
370
    18
100
AcDb2dPolyline
 66
     1
 10
0.0
 20
0.0
 30
0.0
  0
VERTEX
  5
D7
330
D6
100
AcDbEntity
  8
\U+30EC\U+30A4\U+30E4\U+30FC 1
 62
     7
370
    18
100
AcDbVertex
100
AcDb2dVertex
 10
12.9756161955869
 20
40.59651521515684
 30
0.0
  0
VERTEX
  5
D8
330
D6
100
AcDbEntity
  8
\U+30EC\U+30A4\U+30E4\U+30FC 1
 62
     7
370
    18
100
AcDbVertex
100
AcDb2dVertex
 10
12.43266878893214
 20
40.62476501677213
 30
0.0
  0
SEQEND
  5
D9
330
D6
100
AcDbEntity
  8
\U+30EC\U+30A4\U+30E4\U+30FC 1
370
    18
  0
POLYLINE
  5
DA
330
1F
100
AcDbEntity
  8
\U+30EC\U+30A4\U+30E4\U+30FC 1
 62
     7
370
    18
100
AcDb2dPolyline
 66
     1
 10
0.0
 20
0.0
 30
0.0
  0
VERTEX
  5
DB
330
DA
100
AcDbEntity
  8
\U+30EC\U+30A4\U+30E4\U+30FC 1
 62
     7
370
    18
100
AcDbVertex
100
AcDb2dVertex
 10
12.43266878893214
 20
40.62476501677213
 30
0.0
  0
VERTEX
  5
DC
330
DA
100
AcDbEntity
  8
\U+30EC\U+30A4\U+30E4\U+30FC 1
 62
     7
370
    18
100
AcDbVertex
100
AcDb2dVertex
 10
11.90677461617929
 20
40.68936059973391
 30
0.0
  0
SEQEND
  5
DD
330
DA
100
AcDbEntity
  8
\U+30EC\U+30A4\U+30E4\U+30FC 1
370
    18
  0
POLYLINE
  5
DE
330
1F
100
AcDbEntity
  8
\U+30EC\U+30A4\U+30E4\U+30FC 1
 62
     7
370
    18
100
AcDb2dPolyline
 66
     1
 10
0.0
 20
0.0
 30
0.0
  0
VERTEX
  5
DF
330
DE
100
AcDbEntity
  8
\U+30EC\U+30A4\U+30E4\U+30FC 1
 62
     7
370
    18
100
AcDbVertex
100
AcDb2dVertex
 10
19.477549194188
 20
20.11937090649626
 30
0.0
  0
VERTEX
  5
E0
330
DE
100
AcDbEntity
  8
\U+30EC\U+30A4\U+30E4\U+30FC 1
 62
     7
370
    18
100
AcDbVertex
100
AcDb2dVertex
 10
19.477549194188
 20
41.7880022747479
 30
0.0
  0
SEQEND
  5
E1
330
DE
100
AcDbEntity
  8
\U+30EC\U+30A4\U+30E4\U+30FC 1
370
    18
  0
POLYLINE
  5
E2
330
1F
100
AcDbEntity
  8
\U+30EC\U+30A4\U+30E4\U+30FC 1
 62
     7
370
    18
100
AcDb2dPolyline
 66
     1
 10
0.0
 20
0.0
 30
0.0
  0
VERTEX
  5
E3
330
E2
100
AcDbEntity
  8
\U+30EC\U+30A4\U+30E4\U+30FC 1
 62
     7
370
    18
100
AcDbVertex
100
AcDb2dVertex
 10
19.88923837626442
 20
39.98776644132501
 30
0.0
  0
VERTEX
  5
E4
330
E2
100
AcDbEntity
  8
\U+30EC\U+30A4\U+30E4\U+30FC 1
 62
     7
370
    18
100
AcDbVertex
100
AcDb2dVertex
 10
19.88923837626442
 20
43.59926242099625
 30
0.0
  0
SEQEND
  5
E5
330
E2
100
AcDbEntity
  8
\U+30EC\U+30A4\U+30E4\U+30FC 1
370
    18
  0
POLYLINE
  5
E6
330
1F
100
AcDbEntity
  8
\U+30EC\U+30A4\U+30E4\U+30FC 1
 62
     7
370
    18
100
AcDb2dPolyline
 66
     1
 10
0.0
 20
0.0
 30
0.0
  0
VERTEX
  5
E7
330
E6
100
AcDbEntity
  8
\U+30EC\U+30A4\U+30E4\U+30FC 1
 62
     7
370
    18
100
AcDbVertex
100
AcDb2dVertex
 10
11.89730059734489
 20
40.6898773643976
 30
0.0
  0
VERTEX
  5
E8
330
E6
100
AcDbEntity
  8
\U+30EC\U+30A4\U+30E4\U+30FC 1
 62
     7
370
    18
100
AcDbVertex
100
AcDb2dVertex
 10
11.69593463339204
 20
40.6454356033199
 30
0.0
  0
SEQEND
  5
E9
330
E6
100
AcDbEntity
  8
\U+30EC\U+30A4\U+30E4\U+30FC 1
370
    18
  0
POLYLINE
  5
EA
330
1F
100
AcDbEntity
  8
\U+30EC\U+30A4\U+30E4\U+30FC 1
 62
     7
370
    18
100
AcDb2dPolyline
 66
     1
 10
0.0
 20
0.0
 30
0.0
  0
VERTEX
  5
EB
330
EA
100
AcDbEntity
  8
\U+30EC\U+30A4\U+30E4\U+30FC 1
 62
     7
370
    18
100
AcDbVertex
100
AcDb2dVertex
 10
12.43266878893214
 20
41.37321250468931
 30
0.0
  0
VERTEX
  5
EC
330
EA
100
AcDbEntity
  8
\U+30EC\U+30A4\U+30E4\U+30FC 1
 62
     7
370
    18
100
AcDbVertex
100
AcDb2dVertex
 10
11.90677461617929
 20
41.30844466683963
 30
0.0
  0
SEQEND
  5
ED
330
EA
100
AcDbEntity
  8
\U+30EC\U+30A4\U+30E4\U+30FC 1
370
    18
  0
POLYLINE
  5
EE
330
1F
100
AcDbEntity
  8
\U+30EC\U+30A4\U+30E4\U+30FC 1
 62
     7
370
    18
100
AcDb2dPolyline
 66
     1
 10
0.0
 20
0.0
 30
0.0
  0
VERTEX
  5
EF
330
EE
100
AcDbEntity
  8
\U+30EC\U+30A4\U+30E4\U+30FC 1
 62
     7
370
    18
100
AcDbVertex
100
AcDb2dVertex
 10
12.9756161955869
 20
41.40146230630459
 30
0.0
  0
VERTEX
  5
F0
330
EE
100
AcDbEntity
  8
\U+30EC\U+30A4\U+30E4\U+30FC 1
 62
     7
370
    18
100
AcDbVertex
100
AcDb2dVertex
 10
12.43266878893214
 20
41.37321250468931
 30
0.0
  0
SEQEND
  5
F1
330
EE
100
AcDbEntity
  8
\U+30EC\U+30A4\U+30E4\U+30FC 1
370
    18
  0
POLYLINE
  5
F2
330
1F
100
AcDbEntity
  8
\U+30EC\U+30A4\U+30E4\U+30FC 1
 62
     7
370
    18
100
AcDb2dPolyline
 66
     1
 10
0.0
 20
0.0
 30
0.0
  0
VERTEX
  5
F3
330
F2
100
AcDbEntity
  8
\U+30EC\U+30A4\U+30E4\U+30FC 1
 62
     7
370
    18
100
AcDbVertex
100
AcDb2dVertex
 10
12.9756161955869
 20
41.36046564298485
 30
0.0
  0
VERTEX
  5
F4
330
F2
100
AcDbEntity
  8
\U+30EC\U+30A4\U+30E4\U+30FC 1
 62
     7
370
    18
100
AcDbVertex
100
AcDb2dVertex
 10
11.93864177044044
 20
41.31137299993389
 30
0.0
  0
SEQEND
  5
F5
330
F2
100
AcDbEntity
  8
\U+30EC\U+30A4\U+30E4\U+30FC 1
370
    18
  0
POLYLINE
  5
F6
330
1F
100
AcDbEntity
  8
\U+30EC\U+30A4\U+30E4\U+30FC 1
 62
     7
370
    18
100
AcDb2dPolyline
 66
     1
 10
0.0
 20
0.0
 30
0.0
  0
VERTEX
  5
F7
330
F6
100
AcDbEntity
  8
\U+30EC\U+30A4\U+30E4\U+30FC 1
 62
     7
370
    18
100
AcDbVertex
100
AcDb2dVertex
 10
12.9756161955869
 20
41.28346770809441
 30
0.0
  0
VERTEX
  5
F8
330
F6
100
AcDbEntity
  8
\U+30EC\U+30A4\U+30E4\U+30FC 1
 62
     7
370
    18
100
AcDbVertex
100
AcDb2dVertex
 10
12.41268722193596
 20
41.26176359221925
 30
0.0
  0
SEQEND
  5
F9
330
F6
100
AcDbEntity
  8
\U+30EC\U+30A4\U+30E4\U+30FC 1
370
    18
  0
POLYLINE
  5
FA
330
1F
100
AcDbEntity
  8
\U+30EC\U+30A4\U+30E4\U+30FC 1
 62
     7
370
    18
100
AcDb2dPolyline
 66
     1
 10
0.0
 20
0.0
 30
0.0
  0
VERTEX
  5
FB
330
FA
100
AcDbEntity
  8
\U+30EC\U+30A4\U+30E4\U+30FC 1
 62
     7
370
    18
100
AcDbVertex
100
AcDb2dVertex
 10
11.90677461617929
 20
41.30844466683963
 30
0.0
  0
VERTEX
  5
FC
330
FA
100
AcDbEntity
  8
\U+30EC\U+30A4\U+30E4\U+30FC 1
 62
     7
370
    18
100
AcDbVertex
100
AcDb2dVertex
 10
11.79015805707229
 20
41.30551633374536
 30
0.0
  0
SEQEND
  5
FD
330
FA
100
AcDbEntity
  8
\U+30EC\U+30A4\U+30E4\U+30FC 1
370
    18
  0
POLYLINE
  5
FE
330
1F
100
AcDbEntity
  8
\U+30EC\U+30A4\U+30E4\U+30FC 1
 62
     7
370
    18
100
AcDb2dPolyline
 66
     1
 10
0.0
 20
0.0
 30
0.0
  0
VERTEX
  5
FF
330
FE
100
AcDbEntity
  8
\U+30EC\U+30A4\U+30E4\U+30FC 1
 62
     7
370
    18
100
AcDbVertex
100
AcDb2dVertex
 10
10.08638496087233
 20
41.26073006289186
 30
0.0
  0
VERTEX
  5
100
330
FE
100
AcDbEntity
  8
\U+30EC\U+30A4\U+30E4\U+30FC 1
 62
     7
370
    18
100
AcDbVertex
100
AcDb2dVertex
 10
9.507780792422668
 20
41.24557163275683
 30
0.0
  0
SEQEND
  5
101
330
FE
100
AcDbEntity
  8
\U+30EC\U+30A4\U+30E4\U+30FC 1
370
    18
  0
POLYLINE
  5
102
330
1F
100
AcDbEntity
  8
\U+30EC\U+30A4\U+30E4\U+30FC 1
 62
     7
370
    18
100
AcDb2dPolyline
 66
     1
 10
0.0
 20
0.0
 30
0.0
  0
VERTEX
  5
103
330
102
100
AcDbEntity
  8
\U+30EC\U+30A4\U+30E4\U+30FC 1
 62
     7
370
    18
100
AcDbVertex
100
AcDb2dVertex
 10
9.467300893766618
 20
41.24471035831733
 30
0.0
  0
VERTEX
  5
104
330
102
100
AcDbEntity
  8
\U+30EC\U+30A4\U+30E4\U+30FC 1
 62
     7
370
    18
100
AcDbVertex
100
AcDb2dVertex
 10
9.10212053142268
 20
41.23506408459505
 30
0.0
  0
SEQEND
  5
105
330
102
100
AcDbEntity
  8
\U+30EC\U+30A4\U+30E4\U+30FC 1
370
    18
  0
POLYLINE
  5
106
330
1F
100
AcDbEntity
  8
\U+30EC\U+30A4\U+30E4\U+30FC 1
 62
     7
370
    18
100
AcDb2dPolyline
 66
     1
 10
0.0
 20
0.0
 30
0.0
  0
VERTEX
  5
107
330
106
100
AcDbEntity
  8
\U+30EC\U+30A4\U+30E4\U+30FC 1
 62
     7
370
    18
100
AcDbVertex
100
AcDb2dVertex
 10
12.9756161955869
 20
41.03542066952116
 30
0.0
  0
VERTEX
  5
108
330
106
100
AcDbEntity
  8
\U+30EC\U+30A4\U+30E4\U+30FC 1
 62
     7
370
    18
100
AcDbVertex
100
AcDb2dVertex
 10
11.93864177044044
 20
41.02439635669568
 30
0.0
  0
SEQEND
  5
109
330
106
100
AcDbEntity
  8
\U+30EC\U+30A4\U+30E4\U+30FC 1
370
    18
  0
POLYLINE
  5
10A
330
1F
100
AcDbEntity
  8
\U+30EC\U+30A4\U+30E4\U+30FC 1
 62
     7
370
    18
100
AcDb2dPolyline
 66
     1
 10
0.0
 20
0.0
 30
0.0
  0
VERTEX
  5
10B
330
10A
100
AcDbEntity
  8
\U+30EC\U+30A4\U+30E4\U+30FC 1
 62
     7
370
    18
100
AcDbVertex
100
AcDb2dVertex
 10
12.9756161955869
 20
40.63751187847659
 30
0.0
  0
VERTEX
  5
10C
330
10A
100
AcDbEntity
  8
\U+30EC\U+30A4\U+30E4\U+30FC 1
 62
     7
370
    18
100
AcDbVertex
100
AcDb2dVertex
 10
13.07070089370665
 20
40.63751187847659
 30
0.0
  0
SEQEND
  5
10D
330
10A
100
AcDbEntity
  8
\U+30EC\U+30A4\U+30E4\U+30FC 1
370
    18
  0
POLYLINE
  5
10E
330
1F
100
AcDbEntity
  8
\U+30EC\U+30A4\U+30E4\U+30FC 1
 62
     7
370
    18
100
AcDb2dPolyline
 66
     1
 10
0.0
 20
0.0
 30
0.0
  0
VERTEX
  5
10F
330
10E
100
AcDbEntity
  8
\U+30EC\U+30A4\U+30E4\U+30FC 1
 62
     7
370
    18
100
AcDbVertex
100
AcDb2dVertex
 10
11.69593463339204
 20
40.6454356033199
 30
0.0
  0
VERTEX
  5
110
330
10E
100
AcDbEntity
  8
\U+30EC\U+30A4\U+30E4\U+30FC 1
 62
     7
370
    18
100
AcDbVertex
100
AcDb2dVertex
 10
9.953231932527114
 20
40.6454356033199
 30
0.0
  0
SEQEND
  5
111
330
10E
100
AcDbEntity
  8
\U+30EC\U+30A4\U+30E4\U+30FC 1
370
    18
  0
POLYLINE
  5
112
330
1F
100
AcDbEntity
  8
\U+30EC\U+30A4\U+30E4\U+30FC 1
 62
     7
370
    18
100
AcDb2dPolyline
 66
     1
 10
0.0
 20
0.0
 30
0.0
  0
VERTEX
  5
113
330
112
100
AcDbEntity
  8
\U+30EC\U+30A4\U+30E4\U+30FC 1
 62
     7
370
    18
100
AcDbVertex
100
AcDb2dVertex
 10
12.9756161955869
 20
40.71433755847913
 30
0.0
  0
VERTEX
  5
114
330
112
100
AcDbEntity
  8
\U+30EC\U+30A4\U+30E4\U+30FC 1
 62
     7
370
    18
100
AcDbVertex
100
AcDb2dVertex
 10
13.0572650124506
 20
40.71433755847913
 30
0.0
  0
SEQEND
  5
115
330
112
100
AcDbEntity
  8
\U+30EC\U+30A4\U+30E4\U+30FC 1
370
    18
  0
POLYLINE
  5
116
330
1F
100
AcDbEntity
  8
\U+30EC\U+30A4\U+30E4\U+30FC 1
 62
     7
370
    18
100
AcDb2dPolyline
 66
     1
 10
0.0
 20
0.0
 30
0.0
  0
VERTEX
  5
117
330
116
100
AcDbEntity
  8
\U+30EC\U+30A4\U+30E4\U+30FC 1
 62
     7
370
    18
100
AcDbVertex
100
AcDb2dVertex
 10
9.467300893766618
 20
40.79254127758486
 30
0.0
  0
VERTEX
  5
118
330
116
100
AcDbEntity
  8
\U+30EC\U+30A4\U+30E4\U+30FC 1
 62
     7
370
    18
100
AcDbVertex
100
AcDb2dVertex
 10
9.507780792422668
 20
40.79254127758486
 30
0.0
  0
SEQEND
  5
119
330
116
100
AcDbEntity
  8
\U+30EC\U+30A4\U+30E4\U+30FC 1
370
    18
  0
POLYLINE
  5
11A
330
1F
100
AcDbEntity
  8
\U+30EC\U+30A4\U+30E4\U+30FC 1
 62
     7
370
    18
100
AcDb2dPolyline
 66
     1
 10
0.0
 20
0.0
 30
0.0
  0
VERTEX
  5
11B
330
11A
100
AcDbEntity
  8
\U+30EC\U+30A4\U+30E4\U+30FC 1
 62
     7
370
    18
100
AcDbVertex
100
AcDb2dVertex
 10
11.53470405831943
 20
40.88555891704983
 30
0.0
  0
VERTEX
  5
11C
330
11A
100
AcDbEntity
  8
\U+30EC\U+30A4\U+30E4\U+30FC 1
 62
     7
370
    18
100
AcDbVertex
100
AcDb2dVertex
 10
11.57260013365701
 20
40.88555891704983
 30
0.0
  0
SEQEND
  5
11D
330
11A
100
AcDbEntity
  8
\U+30EC\U+30A4\U+30E4\U+30FC 1
370
    18
  0
POLYLINE
  5
11E
330
1F
100
AcDbEntity
  8
\U+30EC\U+30A4\U+30E4\U+30FC 1
 62
     7
370
    18
100
AcDb2dPolyline
 66
     1
 10
0.0
 20
0.0
 30
0.0
  0
VERTEX
  5
11F
330
11E
100
AcDbEntity
  8
\U+30EC\U+30A4\U+30E4\U+30FC 1
 62
     7
370
    18
100
AcDbVertex
100
AcDb2dVertex
 10
11.63426738352452
 20
40.88555891704983
 30
0.0
  0
VERTEX
  5
120
330
11E
100
AcDbEntity
  8
\U+30EC\U+30A4\U+30E4\U+30FC 1
 62
     7
370
    18
100
AcDbVertex
100
AcDb2dVertex
 10
11.64425816702261
 20
40.88555891704983
 30
0.0
  0
SEQEND
  5
121
330
11E
100
AcDbEntity
  8
\U+30EC\U+30A4\U+30E4\U+30FC 1
370
    18
  0
POLYLINE
  5
122
330
1F
100
AcDbEntity
  8
\U+30EC\U+30A4\U+30E4\U+30FC 1
 62
     7
370
    18
100
AcDb2dPolyline
 66
     1
 10
0.0
 20
0.0
 30
0.0
  0
VERTEX
  5
123
330
122
100
AcDbEntity
  8
\U+30EC\U+30A4\U+30E4\U+30FC 1
 62
     7
370
    18
100
AcDbVertex
100
AcDb2dVertex
 10
13.07896912832575
 20
40.88555891704983
 30
0.0
  0
VERTEX
  5
124
330
122
100
AcDbEntity
  8
\U+30EC\U+30A4\U+30E4\U+30FC 1
 62
     7
370
    18
100
AcDbVertex
100
AcDb2dVertex
 10
13.22366323416015
 20
40.88555891704983
 30
0.0
  0
SEQEND
  5
125
330
122
100
AcDbEntity
  8
\U+30EC\U+30A4\U+30E4\U+30FC 1
370
    18
  0
POLYLINE
  5
126
330
1F
100
AcDbEntity
  8
\U+30EC\U+30A4\U+30E4\U+30FC 1
 62
     7
370
    18
100
AcDb2dPolyline
 66
     1
 10
0.0
 20
0.0
 30
0.0
  0
VERTEX
  5
127
330
126
100
AcDbEntity
  8
\U+30EC\U+30A4\U+30E4\U+30FC 1
 62
     7
370
    18
100
AcDbVertex
100
AcDb2dVertex
 10
13.28515822913976
 20
40.88555891704983
 30
0.0
  0
VERTEX
  5
128
330
126
100
AcDbEntity
  8
\U+30EC\U+30A4\U+30E4\U+30FC 1
 62
     7
370
    18
100
AcDbVertex
100
AcDb2dVertex
 10
13.43002458986205
 20
40.88555891704983
 30
0.0
  0
SEQEND
  5
129
330
126
100
AcDbEntity
  8
\U+30EC\U+30A4\U+30E4\U+30FC 1
370
    18
  0
POLYLINE
  5
12A
330
1F
100
AcDbEntity
  8
\U+30EC\U+30A4\U+30E4\U+30FC 1
 62
     7
370
    18
100
AcDb2dPolyline
 66
     1
 10
0.0
 20
0.0
 30
0.0
  0
VERTEX
  5
12B
330
12A
100
AcDbEntity
  8
\U+30EC\U+30A4\U+30E4\U+30FC 1
 62
     7
370
    18
100
AcDbVertex
100
AcDb2dVertex
 10
13.49151958484167
 20
40.88555891704983
 30
0.0
  0
VERTEX
  5
12C
330
12A
100
AcDbEntity
  8
\U+30EC\U+30A4\U+30E4\U+30FC 1
 62
     7
370
    18
100
AcDbVertex
100
AcDb2dVertex
 10
13.63638594556395
 20
40.88555891704983
 30
0.0
  0
SEQEND
  5
12D
330
12A
100
AcDbEntity
  8
\U+30EC\U+30A4\U+30E4\U+30FC 1
370
    18
  0
POLYLINE
  5
12E
330
1F
100
AcDbEntity
  8
\U+30EC\U+30A4\U+30E4\U+30FC 1
 62
     7
370
    18
100
AcDb2dPolyline
 66
     1
 10
0.0
 20
0.0
 30
0.0
  0
VERTEX
  5
12F
330
12E
100
AcDbEntity
  8
\U+30EC\U+30A4\U+30E4\U+30FC 1
 62
     7
370
    18
100
AcDbVertex
100
AcDb2dVertex
 10
12.9756161955869
 20
40.96238459705238
 30
0.0
  0
VERTEX
  5
130
330
12E
100
AcDbEntity
  8
\U+30EC\U+30A4\U+30E4\U+30FC 1
 62
     7
370
    18
100
AcDbVertex
100
AcDb2dVertex
 10
13.07070089370665
 20
40.96238459705238
 30
0.0
  0
SEQEND
  5
131
330
12E
100
AcDbEntity
  8
\U+30EC\U+30A4\U+30E4\U+30FC 1
370
    18
  0
POLYLINE
  5
132
330
1F
100
AcDbEntity
  8
\U+30EC\U+30A4\U+30E4\U+30FC 1
 62
     7
370
    18
100
AcDb2dPolyline
 66
     1
 10
0.0
 20
0.0
 30
0.0
  0
VERTEX
  5
133
330
132
100
AcDbEntity
  8
\U+30EC\U+30A4\U+30E4\U+30FC 1
 62
     7
370
    18
100
AcDbVertex
100
AcDb2dVertex
 10
12.43266878893214
 20
40.99890263328677
 30
0.0
  0
VERTEX
  5
134
330
132
100
AcDbEntity
  8
\U+30EC\U+30A4\U+30E4\U+30FC 1
 62
     7
370
    18
100
AcDbVertex
100
AcDb2dVertex
 10
13.0572650124506
 20
40.99890263328677
 30
0.0
  0
SEQEND
  5
135
330
132
100
AcDbEntity
  8
\U+30EC\U+30A4\U+30E4\U+30FC 1
370
    18
  0
POLYLINE
  5
136
330
1F
100
AcDbEntity
  8
\U+30EC\U+30A4\U+30E4\U+30FC 1
 62
     7
370
    18
100
AcDb2dPolyline
 66
     1
 10
0.0
 20
0.0
 30
0.0
  0
VERTEX
  5
137
330
136
100
AcDbEntity
  8
\U+30EC\U+30A4\U+30E4\U+30FC 1
 62
     7
370
    18
100
AcDbVertex
100
AcDb2dVertex
 10
12.9756161955869
 20
41.03542066952116
 30
0.0
  0
VERTEX
  5
138
330
136
100
AcDbEntity
  8
\U+30EC\U+30A4\U+30E4\U+30FC 1
 62
     7
370
    18
100
AcDbVertex
100
AcDb2dVertex
 10
13.07070089370665
 20
41.03542066952116
 30
0.0
  0
SEQEND
  5
139
330
136
100
AcDbEntity
  8
\U+30EC\U+30A4\U+30E4\U+30FC 1
370
    18
  0
POLYLINE
  5
13A
330
1F
100
AcDbEntity
  8
\U+30EC\U+30A4\U+30E4\U+30FC 1
 62
     7
370
    18
100
AcDb2dPolyline
 66
     1
 10
0.0
 20
0.0
 30
0.0
  0
VERTEX
  5
13B
330
13A
100
AcDbEntity
  8
\U+30EC\U+30A4\U+30E4\U+30FC 1
 62
     7
370
    18
100
AcDbVertex
100
AcDb2dVertex
 10
13.07896912832575
 20
41.11241860441161
 30
0.0
  0
VERTEX
  5
13C
330
13A
100
AcDbEntity
  8
\U+30EC\U+30A4\U+30E4\U+30FC 1
 62
     7
370
    18
100
AcDbVertex
100
AcDb2dVertex
 10
13.13047333980728
 20
41.11241860441161
 30
0.0
  0
SEQEND
  5
13D
330
13A
100
AcDbEntity
  8
\U+30EC\U+30A4\U+30E4\U+30FC 1
370
    18
  0
POLYLINE
  5
13E
330
1F
100
AcDbEntity
  8
\U+30EC\U+30A4\U+30E4\U+30FC 1
 62
     7
370
    18
100
AcDb2dPolyline
 66
     1
 10
0.0
 20
0.0
 30
0.0
  0
VERTEX
  5
13F
330
13E
100
AcDbEntity
  8
\U+30EC\U+30A4\U+30E4\U+30FC 1
 62
     7
370
    18
100
AcDbVertex
100
AcDb2dVertex
 10
13.1919683347869
 20
41.11241860441161
 30
0.0
  0
VERTEX
  5
140
330
13E
100
AcDbEntity
  8
\U+30EC\U+30A4\U+30E4\U+30FC 1
 62
     7
370
    18
100
AcDbVertex
100
AcDb2dVertex
 10
13.33683469550919
 20
41.11241860441161
 30
0.0
  0
SEQEND
  5
141
330
13E
100
AcDbEntity
  8
\U+30EC\U+30A4\U+30E4\U+30FC 1
370
    18
  0
POLYLINE
  5
142
330
1F
100
AcDbEntity
  8
\U+30EC\U+30A4\U+30E4\U+30FC 1
 62
     7
370
    18
100
AcDb2dPolyline
 66
     1
 10
0.0
 20
0.0
 30
0.0
  0
VERTEX
  5
143
330
142
100
AcDbEntity
  8
\U+30EC\U+30A4\U+30E4\U+30FC 1
 62
     7
370
    18
100
AcDbVertex
100
AcDb2dVertex
 10
13.3983296904888
 20
41.11241860441161
 30
0.0
  0
VERTEX
  5
144
330
142
100
AcDbEntity
  8
\U+30EC\U+30A4\U+30E4\U+30FC 1
 62
     7
370
    18
100
AcDbVertex
100
AcDb2dVertex
 10
13.54319605121109
 20
41.11241860441161
 30
0.0
  0
SEQEND
  5
145
330
142
100
AcDbEntity
  8
\U+30EC\U+30A4\U+30E4\U+30FC 1
370
    18
  0
POLYLINE
  5
146
330
1F
100
AcDbEntity
  8
\U+30EC\U+30A4\U+30E4\U+30FC 1
 62
     7
370
    18
100
AcDb2dPolyline
 66
     1
 10
0.0
 20
0.0
 30
0.0
  0
VERTEX
  5
147
330
146
100
AcDbEntity
  8
\U+30EC\U+30A4\U+30E4\U+30FC 1
 62
     7
370
    18
100
AcDbVertex
100
AcDb2dVertex
 10
13.60469104619071
 20
41.11241860441161
 30
0.0
  0
VERTEX
  5
148
330
146
100
AcDbEntity
  8
\U+30EC\U+30A4\U+30E4\U+30FC 1
 62
     7
370
    18
100
AcDbVertex
100
AcDb2dVertex
 10
13.69805319543147
 20
41.11241860441161
 30
0.0
  0
SEQEND
  5
149
330
146
100
AcDbEntity
  8
\U+30EC\U+30A4\U+30E4\U+30FC 1
370
    18
  0
POLYLINE
  5
14A
330
1F
100
AcDbEntity
  8
\U+30EC\U+30A4\U+30E4\U+30FC 1
 62
     7
370
    18
100
AcDb2dPolyline
 66
     1
 10
0.0
 20
0.0
 30
0.0
  0
VERTEX
  5
14B
330
14A
100
AcDbEntity
  8
\U+30EC\U+30A4\U+30E4\U+30FC 1
 62
     7
370
    18
100
AcDbVertex
100
AcDb2dVertex
 10
11.69593463339204
 20
41.1668511489874
 30
0.0
  0
VERTEX
  5
14C
330
14A
100
AcDbEntity
  8
\U+30EC\U+30A4\U+30E4\U+30FC 1
 62
     7
370
    18
100
AcDbVertex
100
AcDb2dVertex
 10
9.953231932527114
 20
41.1668511489874
 30
0.0
  0
SEQEND
  5
14D
330
14A
100
AcDbEntity
  8
\U+30EC\U+30A4\U+30E4\U+30FC 1
370
    18
  0
POLYLINE
  5
14E
330
1F
100
AcDbEntity
  8
\U+30EC\U+30A4\U+30E4\U+30FC 1
 62
     7
370
    18
100
AcDb2dPolyline
 66
     1
 10
0.0
 20
0.0
 30
0.0
  0
VERTEX
  5
14F
330
14E
100
AcDbEntity
  8
\U+30EC\U+30A4\U+30E4\U+30FC 1
 62
     7
370
    18
100
AcDbVertex
100
AcDb2dVertex
 10
11.69593463339204
 20
41.1845934024409
 30
0.0
  0
VERTEX
  5
150
330
14E
100
AcDbEntity
  8
\U+30EC\U+30A4\U+30E4\U+30FC 1
 62
     7
370
    18
100
AcDbVertex
100
AcDb2dVertex
 10
9.953231932527114
 20
41.1845934024409
 30
0.0
  0
SEQEND
  5
151
330
14E
100
AcDbEntity
  8
\U+30EC\U+30A4\U+30E4\U+30FC 1
370
    18
  0
POLYLINE
  5
152
330
1F
100
AcDbEntity
  8
\U+30EC\U+30A4\U+30E4\U+30FC 1
 62
     7
370
    18
100
AcDb2dPolyline
 66
     1
 10
0.0
 20
0.0
 30
0.0
  0
VERTEX
  5
153
330
152
100
AcDbEntity
  8
\U+30EC\U+30A4\U+30E4\U+30FC 1
 62
     7
370
    18
100
AcDbVertex
100
AcDb2dVertex
 10
9.467300893766618
 20
41.20526398898868
 30
0.0
  0
VERTEX
  5
154
330
152
100
AcDbEntity
  8
\U+30EC\U+30A4\U+30E4\U+30FC 1
 62
     7
370
    18
100
AcDbVertex
100
AcDb2dVertex
 10
9.507780792422668
 20
41.20526398898868
 30
0.0
  0
SEQEND
  5
155
330
152
100
AcDbEntity
  8
\U+30EC\U+30A4\U+30E4\U+30FC 1
370
    18
  0
POLYLINE
  5
156
330
1F
100
AcDbEntity
  8
\U+30EC\U+30A4\U+30E4\U+30FC 1
 62
     7
370
    18
100
AcDb2dPolyline
 66
     1
 10
0.0
 20
0.0
 30
0.0
  0
VERTEX
  5
157
330
156
100
AcDbEntity
  8
\U+30EC\U+30A4\U+30E4\U+30FC 1
 62
     7
370
    18
100
AcDbVertex
100
AcDb2dVertex
 10
12.9756161955869
 20
41.28346770809441
 30
0.0
  0
VERTEX
  5
158
330
156
100
AcDbEntity
  8
\U+30EC\U+30A4\U+30E4\U+30FC 1
 62
     7
370
    18
100
AcDbVertex
100
AcDb2dVertex
 10
13.0572650124506
 20
41.28346770809441
 30
0.0
  0
SEQEND
  5
159
330
156
100
AcDbEntity
  8
\U+30EC\U+30A4\U+30E4\U+30FC 1
370
    18
  0
POLYLINE
  5
15A
330
1F
100
AcDbEntity
  8
\U+30EC\U+30A4\U+30E4\U+30FC 1
 62
     7
370
    18
100
AcDb2dPolyline
 66
     1
 10
0.0
 20
0.0
 30
0.0
  0
VERTEX
  5
15B
330
15A
100
AcDbEntity
  8
\U+30EC\U+30A4\U+30E4\U+30FC 1
 62
     7
370
    18
100
AcDbVertex
100
AcDb2dVertex
 10
12.9756161955869
 20
41.36046564298485
 30
0.0
  0
VERTEX
  5
15C
330
15A
100
AcDbEntity
  8
\U+30EC\U+30A4\U+30E4\U+30FC 1
 62
     7
370
    18
100
AcDbVertex
100
AcDb2dVertex
 10
13.07070089370665
 20
41.36046564298485
 30
0.0
  0
SEQEND
  5
15D
330
15A
100
AcDbEntity
  8
\U+30EC\U+30A4\U+30E4\U+30FC 1
370
    18
  0
POLYLINE
  5
15E
330
1F
100
AcDbEntity
  8
\U+30EC\U+30A4\U+30E4\U+30FC 1
 62
     7
370
    18
100
AcDb2dPolyline
 66
     1
 10
0.0
 20
0.0
 30
0.0
  0
VERTEX
  5
15F
330
15E
100
AcDbEntity
  8
\U+30EC\U+30A4\U+30E4\U+30FC 1
 62
     7
370
    18
100
AcDbVertex
100
AcDb2dVertex
 10
12.9756161955869
 20
41.40146230630459
 30
0.0
  0
VERTEX
  5
160
330
15E
100
AcDbEntity
  8
\U+30EC\U+30A4\U+30E4\U+30FC 1
 62
     7
370
    18
100
AcDbVertex
100
AcDb2dVertex
 10
13.0572650124506
 20
41.40146230630459
 30
0.0
  0
SEQEND
  5
161
330
15E
100
AcDbEntity
  8
\U+30EC\U+30A4\U+30E4\U+30FC 1
370
    18
  0
POLYLINE
  5
162
330
1F
100
AcDbEntity
  8
\U+30EC\U+30A4\U+30E4\U+30FC 1
 62
     7
370
    18
100
AcDb2dPolyline
 66
     1
 10
0.0
 20
0.0
 30
0.0
  0
VERTEX
  5
163
330
162
100
AcDbEntity
  8
\U+30EC\U+30A4\U+30E4\U+30FC 1
 62
     7
370
    18
100
AcDbVertex
100
AcDb2dVertex
 10
12.9756161955869
 20
40.96238459705238
 30
0.0
  0
VERTEX
  5
164
330
162
100
AcDbEntity
  8
\U+30EC\U+30A4\U+30E4\U+30FC 1
 62
     7
370
    18
100
AcDbVertex
100
AcDb2dVertex
 10
11.93864177044044
 20
40.97375341965365
 30
0.0
  0
SEQEND
  5
165
330
162
100
AcDbEntity
  8
\U+30EC\U+30A4\U+30E4\U+30FC 1
370
    18
  0
POLYLINE
  5
166
330
1F
100
AcDbEntity
  8
\U+30EC\U+30A4\U+30E4\U+30FC 1
 62
     7
370
    18
100
AcDb2dPolyline
 66
     1
 10
0.0
 20
0.0
 30
0.0
  0
VERTEX
  5
167
330
166
100
AcDbEntity
  8
\U+30EC\U+30A4\U+30E4\U+30FC 1
 62
     7
370
    18
100
AcDbVertex
100
AcDb2dVertex
 10
12.9756161955869
 20
40.71433755847913
 30
0.0
  0
VERTEX
  5
168
330
166
100
AcDbEntity
  8
\U+30EC\U+30A4\U+30E4\U+30FC 1
 62
     7
370
    18
100
AcDbVertex
100
AcDb2dVertex
 10
12.41268722193596
 20
40.73604167435429
 30
0.0
  0
SEQEND
  5
169
330
166
100
AcDbEntity
  8
\U+30EC\U+30A4\U+30E4\U+30FC 1
370
    18
  0
POLYLINE
  5
16A
330
1F
100
AcDbEntity
  8
\U+30EC\U+30A4\U+30E4\U+30FC 1
 62
     7
370
    18
100
AcDb2dPolyline
 66
     1
 10
0.0
 20
0.0
 30
0.0
  0
VERTEX
  5
16B
330
16A
100
AcDbEntity
  8
\U+30EC\U+30A4\U+30E4\U+30FC 1
 62
     7
370
    18
100
AcDbVertex
100
AcDb2dVertex
 10
11.89730059734489
 20
41.14463026844854
 30
0.0
  0
VERTEX
  5
16C
330
16A
100
AcDbEntity
  8
\U+30EC\U+30A4\U+30E4\U+30FC 1
 62
     7
370
    18
100
AcDbVertex
100
AcDb2dVertex
 10
11.69593463339204
 20
41.1668511489874
 30
0.0
  0
SEQEND
  5
16D
330
16A
100
AcDbEntity
  8
\U+30EC\U+30A4\U+30E4\U+30FC 1
370
    18
  0
POLYLINE
  5
16E
330
1F
100
AcDbEntity
  8
\U+30EC\U+30A4\U+30E4\U+30FC 1
 62
     7
370
    18
100
AcDb2dPolyline
 66
     1
 10
0.0
 20
0.0
 30
0.0
  0
VERTEX
  5
16F
330
16E
100
AcDbEntity
  8
\U+30EC\U+30A4\U+30E4\U+30FC 1
 62
     7
370
    18
100
AcDbVertex
100
AcDb2dVertex
 10
11.89730059734489
 20
41.16254477678995
 30
0.0
  0
VERTEX
  5
170
330
16E
100
AcDbEntity
  8
\U+30EC\U+30A4\U+30E4\U+30FC 1
 62
     7
370
    18
100
AcDbVertex
100
AcDb2dVertex
 10
11.69593463339204
 20
41.1845934024409
 30
0.0
  0
SEQEND
  5
171
330
16E
100
AcDbEntity
  8
\U+30EC\U+30A4\U+30E4\U+30FC 1
370
    18
  0
POLYLINE
  5
172
330
1F
100
AcDbEntity
  8
\U+30EC\U+30A4\U+30E4\U+30FC 1
 62
     7
370
    18
100
AcDb2dPolyline
 66
     1
 10
0.0
 20
0.0
 30
0.0
  0
VERTEX
  5
173
330
172
100
AcDbEntity
  8
\U+30EC\U+30A4\U+30E4\U+30FC 1
 62
     7
370
    18
100
AcDbVertex
100
AcDb2dVertex
 10
11.72935208164426
 20
42.24189390435934
 30
0.0
  0
VERTEX
  5
174
330
172
100
AcDbEntity
  8
\U+30EC\U+30A4\U+30E4\U+30FC 1
 62
     7
370
    18
100
AcDbVertex
100
AcDb2dVertex
 10
11.69593463339204
 20
42.23534821861922
 30
0.0
  0
SEQEND
  5
175
330
172
100
AcDbEntity
  8
\U+30EC\U+30A4\U+30E4\U+30FC 1
370
    18
  0
POLYLINE
  5
176
330
1F
100
AcDbEntity
  8
\U+30EC\U+30A4\U+30E4\U+30FC 1
 62
     7
370
    18
100
AcDb2dPolyline
 66
     1
 10
0.0
 20
0.0
 30
0.0
  0
VERTEX
  5
177
330
176
100
AcDbEntity
  8
\U+30EC\U+30A4\U+30E4\U+30FC 1
 62
     7
370
    18
100
AcDbVertex
100
AcDb2dVertex
 10
12.9756161955869
 20
42.83135013074659
 30
0.0
  0
VERTEX
  5
178
330
176
100
AcDbEntity
  8
\U+30EC\U+30A4\U+30E4\U+30FC 1
 62
     7
370
    18
100
AcDbVertex
100
AcDb2dVertex
 10
12.41268722193596
 20
42.80964601487143
 30
0.0
  0
SEQEND
  5
179
330
176
100
AcDbEntity
  8
\U+30EC\U+30A4\U+30E4\U+30FC 1
370
    18
  0
POLYLINE
  5
17A
330
1F
100
AcDbEntity
  8
\U+30EC\U+30A4\U+30E4\U+30FC 1
 62
     7
370
    18
100
AcDb2dPolyline
 66
     1
 10
0.0
 20
0.0
 30
0.0
  0
VERTEX
  5
17B
330
17A
100
AcDbEntity
  8
\U+30EC\U+30A4\U+30E4\U+30FC 1
 62
     7
370
    18
100
AcDbVertex
100
AcDb2dVertex
 10
11.90677461617929
 20
42.85632708949181
 30
0.0
  0
VERTEX
  5
17C
330
17A
100
AcDbEntity
  8
\U+30EC\U+30A4\U+30E4\U+30FC 1
 62
     7
370
    18
100
AcDbVertex
100
AcDb2dVertex
 10
9.507780792422668
 20
42.79345405540901
 30
0.0
  0
SEQEND
  5
17D
330
17A
100
AcDbEntity
  8
\U+30EC\U+30A4\U+30E4\U+30FC 1
370
    18
  0
POLYLINE
  5
17E
330
1F
100
AcDbEntity
  8
\U+30EC\U+30A4\U+30E4\U+30FC 1
 62
     7
370
    18
100
AcDb2dPolyline
 66
     1
 10
0.0
 20
0.0
 30
0.0
  0
VERTEX
  5
17F
330
17E
100
AcDbEntity
  8
\U+30EC\U+30A4\U+30E4\U+30FC 1
 62
     7
370
    18
100
AcDbVertex
100
AcDb2dVertex
 10
9.467300893766618
 20
42.79259278096952
 30
0.0
  0
VERTEX
  5
180
330
17E
100
AcDbEntity
  8
\U+30EC\U+30A4\U+30E4\U+30FC 1
 62
     7
370
    18
100
AcDbVertex
100
AcDb2dVertex
 10
9.10212053142268
 20
42.78277425235933
 30
0.0
  0
SEQEND
  5
181
330
17E
100
AcDbEntity
  8
\U+30EC\U+30A4\U+30E4\U+30FC 1
370
    18
  0
POLYLINE
  5
182
330
1F
100
AcDbEntity
  8
\U+30EC\U+30A4\U+30E4\U+30FC 1
 62
     7
370
    18
100
AcDb2dPolyline
 66
     1
 10
0.0
 20
0.0
 30
0.0
  0
VERTEX
  5
183
330
182
100
AcDbEntity
  8
\U+30EC\U+30A4\U+30E4\U+30FC 1
 62
     7
370
    18
100
AcDbVertex
100
AcDb2dVertex
 10
12.9756161955869
 20
42.58330309217335
 30
0.0
  0
VERTEX
  5
184
330
182
100
AcDbEntity
  8
\U+30EC\U+30A4\U+30E4\U+30FC 1
 62
     7
370
    18
100
AcDbVertex
100
AcDb2dVertex
 10
11.93864177044044
 20
42.57210652445998
 30
0.0
  0
SEQEND
  5
185
330
182
100
AcDbEntity
  8
\U+30EC\U+30A4\U+30E4\U+30FC 1
370
    18
  0
POLYLINE
  5
186
330
1F
100
AcDbEntity
  8
\U+30EC\U+30A4\U+30E4\U+30FC 1
 62
     7
370
    18
100
AcDb2dPolyline
 66
     1
 10
0.0
 20
0.0
 30
0.0
  0
VERTEX
  5
187
330
186
100
AcDbEntity
  8
\U+30EC\U+30A4\U+30E4\U+30FC 1
 62
     7
370
    18
100
AcDbVertex
100
AcDb2dVertex
 10
12.9756161955869
 20
42.14439763780903
 30
0.0
  0
VERTEX
  5
188
330
186
100
AcDbEntity
  8
\U+30EC\U+30A4\U+30E4\U+30FC 1
 62
     7
370
    18
100
AcDbVertex
100
AcDb2dVertex
 10
13.0572650124506
 20
42.14439763780903
 30
0.0
  0
SEQEND
  5
189
330
186
100
AcDbEntity
  8
\U+30EC\U+30A4\U+30E4\U+30FC 1
370
    18
  0
POLYLINE
  5
18A
330
1F
100
AcDbEntity
  8
\U+30EC\U+30A4\U+30E4\U+30FC 1
 62
     7
370
    18
100
AcDb2dPolyline
 66
     1
 10
0.0
 20
0.0
 30
0.0
  0
VERTEX
  5
18B
330
18A
100
AcDbEntity
  8
\U+30EC\U+30A4\U+30E4\U+30FC 1
 62
     7
370
    18
100
AcDbVertex
100
AcDb2dVertex
 10
12.9756161955869
 20
42.18539430112877
 30
0.0
  0
VERTEX
  5
18C
330
18A
100
AcDbEntity
  8
\U+30EC\U+30A4\U+30E4\U+30FC 1
 62
     7
370
    18
100
AcDbVertex
100
AcDb2dVertex
 10
13.07070089370665
 20
42.18539430112877
 30
0.0
  0
SEQEND
  5
18D
330
18A
100
AcDbEntity
  8
\U+30EC\U+30A4\U+30E4\U+30FC 1
370
    18
  0
POLYLINE
  5
18E
330
1F
100
AcDbEntity
  8
\U+30EC\U+30A4\U+30E4\U+30FC 1
 62
     7
370
    18
100
AcDb2dPolyline
 66
     1
 10
0.0
 20
0.0
 30
0.0
  0
VERTEX
  5
18F
330
18E
100
AcDbEntity
  8
\U+30EC\U+30A4\U+30E4\U+30FC 1
 62
     7
370
    18
100
AcDbVertex
100
AcDb2dVertex
 10
11.69593463339204
 20
42.23534821861922
 30
0.0
  0
VERTEX
  5
190
330
18E
100
AcDbEntity
  8
\U+30EC\U+30A4\U+30E4\U+30FC 1
 62
     7
370
    18
100
AcDbVertex
100
AcDb2dVertex
 10
9.953231932527114
 20
42.23534821861922
 30
0.0
  0
SEQEND
  5
191
330
18E
100
AcDbEntity
  8
\U+30EC\U+30A4\U+30E4\U+30FC 1
370
    18
  0
POLYLINE
  5
192
330
1F
100
AcDbEntity
  8
\U+30EC\U+30A4\U+30E4\U+30FC 1
 62
     7
370
    18
100
AcDb2dPolyline
 66
     1
 10
0.0
 20
0.0
 30
0.0
  0
VERTEX
  5
193
330
192
100
AcDbEntity
  8
\U+30EC\U+30A4\U+30E4\U+30FC 1
 62
     7
370
    18
100
AcDbVertex
100
AcDb2dVertex
 10
12.9756161955869
 20
42.26221998113132
 30
0.0
  0
VERTEX
  5
194
330
192
100
AcDbEntity
  8
\U+30EC\U+30A4\U+30E4\U+30FC 1
 62
     7
370
    18
100
AcDbVertex
100
AcDb2dVertex
 10
13.0572650124506
 20
42.26221998113132
 30
0.0
  0
SEQEND
  5
195
330
192
100
AcDbEntity
  8
\U+30EC\U+30A4\U+30E4\U+30FC 1
370
    18
  0
POLYLINE
  5
196
330
1F
100
AcDbEntity
  8
\U+30EC\U+30A4\U+30E4\U+30FC 1
 62
     7
370
    18
100
AcDb2dPolyline
 66
     1
 10
0.0
 20
0.0
 30
0.0
  0
VERTEX
  5
197
330
196
100
AcDbEntity
  8
\U+30EC\U+30A4\U+30E4\U+30FC 1
 62
     7
370
    18
100
AcDbVertex
100
AcDb2dVertex
 10
9.467300893766618
 20
42.34042370023705
 30
0.0
  0
VERTEX
  5
198
330
196
100
AcDbEntity
  8
\U+30EC\U+30A4\U+30E4\U+30FC 1
 62
     7
370
    18
100
AcDbVertex
100
AcDb2dVertex
 10
9.507780792422668
 20
42.34042370023705
 30
0.0
  0
SEQEND
  5
199
330
196
100
AcDbEntity
  8
\U+30EC\U+30A4\U+30E4\U+30FC 1
370
    18
  0
POLYLINE
  5
19A
330
1F
100
AcDbEntity
  8
\U+30EC\U+30A4\U+30E4\U+30FC 1
 62
     7
370
    18
100
AcDb2dPolyline
 66
     1
 10
0.0
 20
0.0
 30
0.0
  0
VERTEX
  5
19B
330
19A
100
AcDbEntity
  8
\U+30EC\U+30A4\U+30E4\U+30FC 1
 62
     7
370
    18
100
AcDbVertex
100
AcDb2dVertex
 10
13.07896912832575
 20
42.43326908481411
 30
0.0
  0
VERTEX
  5
19C
330
19A
100
AcDbEntity
  8
\U+30EC\U+30A4\U+30E4\U+30FC 1
 62
     7
370
    18
100
AcDbVertex
100
AcDb2dVertex
 10
13.22366323416015
 20
42.43326908481411
 30
0.0
  0
SEQEND
  5
19D
330
19A
100
AcDbEntity
  8
\U+30EC\U+30A4\U+30E4\U+30FC 1
370
    18
  0
POLYLINE
  5
19E
330
1F
100
AcDbEntity
  8
\U+30EC\U+30A4\U+30E4\U+30FC 1
 62
     7
370
    18
100
AcDb2dPolyline
 66
     1
 10
0.0
 20
0.0
 30
0.0
  0
VERTEX
  5
19F
330
19E
100
AcDbEntity
  8
\U+30EC\U+30A4\U+30E4\U+30FC 1
 62
     7
370
    18
100
AcDbVertex
100
AcDb2dVertex
 10
13.28515822913976
 20
42.43326908481411
 30
0.0
  0
VERTEX
  5
1A0
330
19E
100
AcDbEntity
  8
\U+30EC\U+30A4\U+30E4\U+30FC 1
 62
     7
370
    18
100
AcDbVertex
100
AcDb2dVertex
 10
13.43002458986205
 20
42.43326908481411
 30
0.0
  0
SEQEND
  5
1A1
330
19E
100
AcDbEntity
  8
\U+30EC\U+30A4\U+30E4\U+30FC 1
370
    18
  0
POLYLINE
  5
1A2
330
1F
100
AcDbEntity
  8
\U+30EC\U+30A4\U+30E4\U+30FC 1
 62
     7
370
    18
100
AcDb2dPolyline
 66
     1
 10
0.0
 20
0.0
 30
0.0
  0
VERTEX
  5
1A3
330
1A2
100
AcDbEntity
  8
\U+30EC\U+30A4\U+30E4\U+30FC 1
 62
     7
370
    18
100
AcDbVertex
100
AcDb2dVertex
 10
13.49151958484167
 20
42.43326908481411
 30
0.0
  0
VERTEX
  5
1A4
330
1A2
100
AcDbEntity
  8
\U+30EC\U+30A4\U+30E4\U+30FC 1
 62
     7
370
    18
100
AcDbVertex
100
AcDb2dVertex
 10
13.63638594556395
 20
42.43326908481411
 30
0.0
  0
SEQEND
  5
1A5
330
1A2
100
AcDbEntity
  8
\U+30EC\U+30A4\U+30E4\U+30FC 1
370
    18
  0
POLYLINE
  5
1A6
330
1F
100
AcDbEntity
  8
\U+30EC\U+30A4\U+30E4\U+30FC 1
 62
     7
370
    18
100
AcDb2dPolyline
 66
     1
 10
0.0
 20
0.0
 30
0.0
  0
VERTEX
  5
1A7
330
1A6
100
AcDbEntity
  8
\U+30EC\U+30A4\U+30E4\U+30FC 1
 62
     7
370
    18
100
AcDbVertex
100
AcDb2dVertex
 10
12.9756161955869
 20
42.51026701970456
 30
0.0
  0
VERTEX
  5
1A8
330
1A6
100
AcDbEntity
  8
\U+30EC\U+30A4\U+30E4\U+30FC 1
 62
     7
370
    18
100
AcDbVertex
100
AcDb2dVertex
 10
13.07070089370665
 20
42.51026701970456
 30
0.0
  0
SEQEND
  5
1A9
330
1A6
100
AcDbEntity
  8
\U+30EC\U+30A4\U+30E4\U+30FC 1
370
    18
  0
POLYLINE
  5
1AA
330
1F
100
AcDbEntity
  8
\U+30EC\U+30A4\U+30E4\U+30FC 1
 62
     7
370
    18
100
AcDb2dPolyline
 66
     1
 10
0.0
 20
0.0
 30
0.0
  0
VERTEX
  5
1AB
330
1AA
100
AcDbEntity
  8
\U+30EC\U+30A4\U+30E4\U+30FC 1
 62
     7
370
    18
100
AcDbVertex
100
AcDb2dVertex
 10
11.89730059734489
 20
42.53644976266507
 30
0.0
  0
VERTEX
  5
1AC
330
1AA
100
AcDbEntity
  8
\U+30EC\U+30A4\U+30E4\U+30FC 1
 62
     7
370
    18
100
AcDbVertex
100
AcDb2dVertex
 10
9.818873119966609
 20
42.53644976266507
 30
0.0
  0
SEQEND
  5
1AD
330
1AA
100
AcDbEntity
  8
\U+30EC\U+30A4\U+30E4\U+30FC 1
370
    18
  0
POLYLINE
  5
1AE
330
1F
100
AcDbEntity
  8
\U+30EC\U+30A4\U+30E4\U+30FC 1
 62
     7
370
    18
100
AcDb2dPolyline
 66
     1
 10
0.0
 20
0.0
 30
0.0
  0
VERTEX
  5
1AF
330
1AE
100
AcDbEntity
  8
\U+30EC\U+30A4\U+30E4\U+30FC 1
 62
     7
370
    18
100
AcDbVertex
100
AcDb2dVertex
 10
12.43266878893214
 20
42.54678505593895
 30
0.0
  0
VERTEX
  5
1B0
330
1AE
100
AcDbEntity
  8
\U+30EC\U+30A4\U+30E4\U+30FC 1
 62
     7
370
    18
100
AcDbVertex
100
AcDb2dVertex
 10
13.0572650124506
 20
42.54678505593895
 30
0.0
  0
SEQEND
  5
1B1
330
1AE
100
AcDbEntity
  8
\U+30EC\U+30A4\U+30E4\U+30FC 1
370
    18
  0
POLYLINE
  5
1B2
330
1F
100
AcDbEntity
  8
\U+30EC\U+30A4\U+30E4\U+30FC 1
 62
     7
370
    18
100
AcDb2dPolyline
 66
     1
 10
0.0
 20
0.0
 30
0.0
  0
VERTEX
  5
1B3
330
1B2
100
AcDbEntity
  8
\U+30EC\U+30A4\U+30E4\U+30FC 1
 62
     7
370
    18
100
AcDbVertex
100
AcDb2dVertex
 10
11.89730059734489
 20
42.55712034921284
 30
0.0
  0
VERTEX
  5
1B4
330
1B2
100
AcDbEntity
  8
\U+30EC\U+30A4\U+30E4\U+30FC 1
 62
     7
370
    18
100
AcDbVertex
100
AcDb2dVertex
 10
9.818873119966609
 20
42.55712034921284
 30
0.0
  0
SEQEND
  5
1B5
330
1B2
100
AcDbEntity
  8
\U+30EC\U+30A4\U+30E4\U+30FC 1
370
    18
  0
POLYLINE
  5
1B6
330
1F
100
AcDbEntity
  8
\U+30EC\U+30A4\U+30E4\U+30FC 1
 62
     7
370
    18
100
AcDb2dPolyline
 66
     1
 10
0.0
 20
0.0
 30
0.0
  0
VERTEX
  5
1B7
330
1B6
100
AcDbEntity
  8
\U+30EC\U+30A4\U+30E4\U+30FC 1
 62
     7
370
    18
100
AcDbVertex
100
AcDb2dVertex
 10
12.9756161955869
 20
42.58330309217335
 30
0.0
  0
VERTEX
  5
1B8
330
1B6
100
AcDbEntity
  8
\U+30EC\U+30A4\U+30E4\U+30FC 1
 62
     7
370
    18
100
AcDbVertex
100
AcDb2dVertex
 10
13.07070089370665
 20
42.58330309217335
 30
0.0
  0
SEQEND
  5
1B9
330
1B6
100
AcDbEntity
  8
\U+30EC\U+30A4\U+30E4\U+30FC 1
370
    18
  0
POLYLINE
  5
1BA
330
1F
100
AcDbEntity
  8
\U+30EC\U+30A4\U+30E4\U+30FC 1
 62
     7
370
    18
100
AcDb2dPolyline
 66
     1
 10
0.0
 20
0.0
 30
0.0
  0
VERTEX
  5
1BB
330
1BA
100
AcDbEntity
  8
\U+30EC\U+30A4\U+30E4\U+30FC 1
 62
     7
370
    18
100
AcDbVertex
100
AcDb2dVertex
 10
13.07896912832575
 20
42.6603010270638
 30
0.0
  0
VERTEX
  5
1BC
330
1BA
100
AcDbEntity
  8
\U+30EC\U+30A4\U+30E4\U+30FC 1
 62
     7
370
    18
100
AcDbVertex
100
AcDb2dVertex
 10
13.13047333980728
 20
42.6603010270638
 30
0.0
  0
SEQEND
  5
1BD
330
1BA
100
AcDbEntity
  8
\U+30EC\U+30A4\U+30E4\U+30FC 1
370
    18
  0
POLYLINE
  5
1BE
330
1F
100
AcDbEntity
  8
\U+30EC\U+30A4\U+30E4\U+30FC 1
 62
     7
370
    18
100
AcDb2dPolyline
 66
     1
 10
0.0
 20
0.0
 30
0.0
  0
VERTEX
  5
1BF
330
1BE
100
AcDbEntity
  8
\U+30EC\U+30A4\U+30E4\U+30FC 1
 62
     7
370
    18
100
AcDbVertex
100
AcDb2dVertex
 10
13.1919683347869
 20
42.6603010270638
 30
0.0
  0
VERTEX
  5
1C0
330
1BE
100
AcDbEntity
  8
\U+30EC\U+30A4\U+30E4\U+30FC 1
 62
     7
370
    18
100
AcDbVertex
100
AcDb2dVertex
 10
13.33683469550919
 20
42.6603010270638
 30
0.0
  0
SEQEND
  5
1C1
330
1BE
100
AcDbEntity
  8
\U+30EC\U+30A4\U+30E4\U+30FC 1
370
    18
  0
POLYLINE
  5
1C2
330
1F
100
AcDbEntity
  8
\U+30EC\U+30A4\U+30E4\U+30FC 1
 62
     7
370
    18
100
AcDb2dPolyline
 66
     1
 10
0.0
 20
0.0
 30
0.0
  0
VERTEX
  5
1C3
330
1C2
100
AcDbEntity
  8
\U+30EC\U+30A4\U+30E4\U+30FC 1
 62
     7
370
    18
100
AcDbVertex
100
AcDb2dVertex
 10
13.3983296904888
 20
42.6603010270638
 30
0.0
  0
VERTEX
  5
1C4
330
1C2
100
AcDbEntity
  8
\U+30EC\U+30A4\U+30E4\U+30FC 1
 62
     7
370
    18
100
AcDbVertex
100
AcDb2dVertex
 10
13.54319605121109
 20
42.6603010270638
 30
0.0
  0
SEQEND
  5
1C5
330
1C2
100
AcDbEntity
  8
\U+30EC\U+30A4\U+30E4\U+30FC 1
370
    18
  0
POLYLINE
  5
1C6
330
1F
100
AcDbEntity
  8
\U+30EC\U+30A4\U+30E4\U+30FC 1
 62
     7
370
    18
100
AcDb2dPolyline
 66
     1
 10
0.0
 20
0.0
 30
0.0
  0
VERTEX
  5
1C7
330
1C6
100
AcDbEntity
  8
\U+30EC\U+30A4\U+30E4\U+30FC 1
 62
     7
370
    18
100
AcDbVertex
100
AcDb2dVertex
 10
13.60469104619071
 20
42.6603010270638
 30
0.0
  0
VERTEX
  5
1C8
330
1C6
100
AcDbEntity
  8
\U+30EC\U+30A4\U+30E4\U+30FC 1
 62
     7
370
    18
100
AcDbVertex
100
AcDb2dVertex
 10
13.69805319543147
 20
42.6603010270638
 30
0.0
  0
SEQEND
  5
1C9
330
1C6
100
AcDbEntity
  8
\U+30EC\U+30A4\U+30E4\U+30FC 1
370
    18
  0
POLYLINE
  5
1CA
330
1F
100
AcDbEntity
  8
\U+30EC\U+30A4\U+30E4\U+30FC 1
 62
     7
370
    18
100
AcDb2dPolyline
 66
     1
 10
0.0
 20
0.0
 30
0.0
  0
VERTEX
  5
1CB
330
1CA
100
AcDbEntity
  8
\U+30EC\U+30A4\U+30E4\U+30FC 1
 62
     7
370
    18
100
AcDbVertex
100
AcDb2dVertex
 10
9.467300893766618
 20
42.75314641164086
 30
0.0
  0
VERTEX
  5
1CC
330
1CA
100
AcDbEntity
  8
\U+30EC\U+30A4\U+30E4\U+30FC 1
 62
     7
370
    18
100
AcDbVertex
100
AcDb2dVertex
 10
9.507780792422668
 20
42.75314641164086
 30
0.0
  0
SEQEND
  5
1CD
330
1CA
100
AcDbEntity
  8
\U+30EC\U+30A4\U+30E4\U+30FC 1
370
    18
  0
POLYLINE
  5
1CE
330
1F
100
AcDbEntity
  8
\U+30EC\U+30A4\U+30E4\U+30FC 1
 62
     7
370
    18
100
AcDb2dPolyline
 66
     1
 10
0.0
 20
0.0
 30
0.0
  0
VERTEX
  5
1CF
330
1CE
100
AcDbEntity
  8
\U+30EC\U+30A4\U+30E4\U+30FC 1
 62
     7
370
    18
100
AcDbVertex
100
AcDb2dVertex
 10
12.9756161955869
 20
42.83135013074659
 30
0.0
  0
VERTEX
  5
1D0
330
1CE
100
AcDbEntity
  8
\U+30EC\U+30A4\U+30E4\U+30FC 1
 62
     7
370
    18
100
AcDbVertex
100
AcDb2dVertex
 10
13.0572650124506
 20
42.83135013074659
 30
0.0
  0
SEQEND
  5
1D1
330
1CE
100
AcDbEntity
  8
\U+30EC\U+30A4\U+30E4\U+30FC 1
370
    18
  0
POLYLINE
  5
1D2
330
1F
100
AcDbEntity
  8
\U+30EC\U+30A4\U+30E4\U+30FC 1
 62
     7
370
    18
100
AcDb2dPolyline
 66
     1
 10
0.0
 20
0.0
 30
0.0
  0
VERTEX
  5
1D3
330
1D2
100
AcDbEntity
  8
\U+30EC\U+30A4\U+30E4\U+30FC 1
 62
     7
370
    18
100
AcDbVertex
100
AcDb2dVertex
 10
11.69593463339204
 20
42.85804963837079
 30
0.0
  0
VERTEX
  5
1D4
330
1D2
100
AcDbEntity
  8
\U+30EC\U+30A4\U+30E4\U+30FC 1
 62
     7
370
    18
100
AcDbVertex
100
AcDb2dVertex
 10
9.953231932527114
 20
42.85804963837079
 30
0.0
  0
SEQEND
  5
1D5
330
1D2
100
AcDbEntity
  8
\U+30EC\U+30A4\U+30E4\U+30FC 1
370
    18
  0
POLYLINE
  5
1D6
330
1F
100
AcDbEntity
  8
\U+30EC\U+30A4\U+30E4\U+30FC 1
 62
     7
370
    18
100
AcDb2dPolyline
 66
     1
 10
0.0
 20
0.0
 30
0.0
  0
VERTEX
  5
1D7
330
1D6
100
AcDbEntity
  8
\U+30EC\U+30A4\U+30E4\U+30FC 1
 62
     7
370
    18
100
AcDbVertex
100
AcDb2dVertex
 10
12.9756161955869
 20
42.90817581074914
 30
0.0
  0
VERTEX
  5
1D8
330
1D6
100
AcDbEntity
  8
\U+30EC\U+30A4\U+30E4\U+30FC 1
 62
     7
370
    18
100
AcDbVertex
100
AcDb2dVertex
 10
13.07070089370665
 20
42.90817581074914
 30
0.0
  0
SEQEND
  5
1D9
330
1D6
100
AcDbEntity
  8
\U+30EC\U+30A4\U+30E4\U+30FC 1
370
    18
  0
POLYLINE
  5
1DA
330
1F
100
AcDbEntity
  8
\U+30EC\U+30A4\U+30E4\U+30FC 1
 62
     7
370
    18
100
AcDb2dPolyline
 66
     1
 10
0.0
 20
0.0
 30
0.0
  0
VERTEX
  5
1DB
330
1DA
100
AcDbEntity
  8
\U+30EC\U+30A4\U+30E4\U+30FC 1
 62
     7
370
    18
100
AcDbVertex
100
AcDb2dVertex
 10
12.9756161955869
 20
42.51026701970456
 30
0.0
  0
VERTEX
  5
1DC
330
1DA
100
AcDbEntity
  8
\U+30EC\U+30A4\U+30E4\U+30FC 1
 62
     7
370
    18
100
AcDbVertex
100
AcDb2dVertex
 10
11.93864177044044
 20
42.52129133253004
 30
0.0
  0
SEQEND
  5
1DD
330
1DA
100
AcDbEntity
  8
\U+30EC\U+30A4\U+30E4\U+30FC 1
370
    18
  0
POLYLINE
  5
1DE
330
1F
100
AcDbEntity
  8
\U+30EC\U+30A4\U+30E4\U+30FC 1
 62
     7
370
    18
100
AcDb2dPolyline
 66
     1
 10
0.0
 20
0.0
 30
0.0
  0
VERTEX
  5
1DF
330
1DE
100
AcDbEntity
  8
\U+30EC\U+30A4\U+30E4\U+30FC 1
 62
     7
370
    18
100
AcDbVertex
100
AcDb2dVertex
 10
11.90677461617929
 20
42.2372430223861
 30
0.0
  0
VERTEX
  5
1E0
330
1DE
100
AcDbEntity
  8
\U+30EC\U+30A4\U+30E4\U+30FC 1
 62
     7
370
    18
100
AcDbVertex
100
AcDb2dVertex
 10
9.507780792422668
 20
42.30011605646889
 30
0.0
  0
SEQEND
  5
1E1
330
1DE
100
AcDbEntity
  8
\U+30EC\U+30A4\U+30E4\U+30FC 1
370
    18
  0
POLYLINE
  5
1E2
330
1F
100
AcDbEntity
  8
\U+30EC\U+30A4\U+30E4\U+30FC 1
 62
     7
370
    18
100
AcDb2dPolyline
 66
     1
 10
0.0
 20
0.0
 30
0.0
  0
VERTEX
  5
1E3
330
1E2
100
AcDbEntity
  8
\U+30EC\U+30A4\U+30E4\U+30FC 1
 62
     7
370
    18
100
AcDbVertex
100
AcDb2dVertex
 10
9.467300893766618
 20
42.30114958579629
 30
0.0
  0
VERTEX
  5
1E4
330
1E2
100
AcDbEntity
  8
\U+30EC\U+30A4\U+30E4\U+30FC 1
 62
     7
370
    18
100
AcDbVertex
100
AcDb2dVertex
 10
9.10212053142268
 20
42.31062360463068
 30
0.0
  0
SEQEND
  5
1E5
330
1E2
100
AcDbEntity
  8
\U+30EC\U+30A4\U+30E4\U+30FC 1
370
    18
  0
POLYLINE
  5
1E6
330
1F
100
AcDbEntity
  8
\U+30EC\U+30A4\U+30E4\U+30FC 1
 62
     7
370
    18
100
AcDb2dPolyline
 66
     1
 10
0.0
 20
0.0
 30
0.0
  0
VERTEX
  5
1E7
330
1E6
100
AcDbEntity
  8
\U+30EC\U+30A4\U+30E4\U+30FC 1
 62
     7
370
    18
100
AcDbVertex
100
AcDb2dVertex
 10
12.9756161955869
 20
42.26221998113132
 30
0.0
  0
VERTEX
  5
1E8
330
1E6
100
AcDbEntity
  8
\U+30EC\U+30A4\U+30E4\U+30FC 1
 62
     7
370
    18
100
AcDbVertex
100
AcDb2dVertex
 10
12.41268722193596
 20
42.28392409700648
 30
0.0
  0
SEQEND
  5
1E9
330
1E6
100
AcDbEntity
  8
\U+30EC\U+30A4\U+30E4\U+30FC 1
370
    18
  0
POLYLINE
  5
1EA
330
1F
100
AcDbEntity
  8
\U+30EC\U+30A4\U+30E4\U+30FC 1
 62
     7
370
    18
100
AcDb2dPolyline
 66
     1
 10
0.0
 20
0.0
 30
0.0
  0
VERTEX
  5
1EB
330
1EA
100
AcDbEntity
  8
\U+30EC\U+30A4\U+30E4\U+30FC 1
 62
     7
370
    18
100
AcDbVertex
100
AcDb2dVertex
 10
12.9756161955869
 20
42.18539430112877
 30
0.0
  0
VERTEX
  5
1EC
330
1EA
100
AcDbEntity
  8
\U+30EC\U+30A4\U+30E4\U+30FC 1
 62
     7
370
    18
100
AcDbVertex
100
AcDb2dVertex
 10
11.93864177044044
 20
42.23431468929183
 30
0.0
  0
SEQEND
  5
1ED
330
1EA
100
AcDbEntity
  8
\U+30EC\U+30A4\U+30E4\U+30FC 1
370
    18
  0
POLYLINE
  5
1EE
330
1F
100
AcDbEntity
  8
\U+30EC\U+30A4\U+30E4\U+30FC 1
 62
     7
370
    18
100
AcDb2dPolyline
 66
     1
 10
0.0
 20
0.0
 30
0.0
  0
VERTEX
  5
1EF
330
1EE
100
AcDbEntity
  8
\U+30EC\U+30A4\U+30E4\U+30FC 1
 62
     7
370
    18
100
AcDbVertex
100
AcDb2dVertex
 10
12.9756161955869
 20
42.14439763780903
 30
0.0
  0
VERTEX
  5
1F0
330
1EE
100
AcDbEntity
  8
\U+30EC\U+30A4\U+30E4\U+30FC 1
 62
     7
370
    18
100
AcDbVertex
100
AcDb2dVertex
 10
12.43266878893214
 20
42.17264743942432
 30
0.0
  0
SEQEND
  5
1F1
330
1EE
100
AcDbEntity
  8
\U+30EC\U+30A4\U+30E4\U+30FC 1
370
    18
  0
POLYLINE
  5
1F2
330
1F
100
AcDbEntity
  8
\U+30EC\U+30A4\U+30E4\U+30FC 1
 62
     7
370
    18
100
AcDb2dPolyline
 66
     1
 10
0.0
 20
0.0
 30
0.0
  0
VERTEX
  5
1F3
330
1F2
100
AcDbEntity
  8
\U+30EC\U+30A4\U+30E4\U+30FC 1
 62
     7
370
    18
100
AcDbVertex
100
AcDb2dVertex
 10
12.43266878893214
 20
42.17264743942432
 30
0.0
  0
VERTEX
  5
1F4
330
1F2
100
AcDbEntity
  8
\U+30EC\U+30A4\U+30E4\U+30FC 1
 62
     7
370
    18
100
AcDbVertex
100
AcDb2dVertex
 10
11.90677461617929
 20
42.2372430223861
 30
0.0
  0
SEQEND
  5
1F5
330
1F2
100
AcDbEntity
  8
\U+30EC\U+30A4\U+30E4\U+30FC 1
370
    18
  0
POLYLINE
  5
1F6
330
1F
100
AcDbEntity
  8
\U+30EC\U+30A4\U+30E4\U+30FC 1
 62
     7
370
    18
100
AcDb2dPolyline
 66
     1
 10
0.0
 20
0.0
 30
0.0
  0
VERTEX
  5
1F7
330
1F6
100
AcDbEntity
  8
\U+30EC\U+30A4\U+30E4\U+30FC 1
 62
     7
370
    18
100
AcDbVertex
100
AcDb2dVertex
 10
11.72935208164426
 20
42.85167620751857
 30
0.0
  0
VERTEX
  5
1F8
330
1F6
100
AcDbEntity
  8
\U+30EC\U+30A4\U+30E4\U+30FC 1
 62
     7
370
    18
100
AcDbVertex
100
AcDb2dVertex
 10
11.69593463339204
 20
42.85804963837079
 30
0.0
  0
SEQEND
  5
1F9
330
1F6
100
AcDbEntity
  8
\U+30EC\U+30A4\U+30E4\U+30FC 1
370
    18
  0
POLYLINE
  5
1FA
330
1F
100
AcDbEntity
  8
\U+30EC\U+30A4\U+30E4\U+30FC 1
 62
     7
370
    18
100
AcDb2dPolyline
 66
     1
 10
0.0
 20
0.0
 30
0.0
  0
VERTEX
  5
1FB
330
1FA
100
AcDbEntity
  8
\U+30EC\U+30A4\U+30E4\U+30FC 1
 62
     7
370
    18
100
AcDbVertex
100
AcDb2dVertex
 10
12.43266878893214
 20
42.92109492734149
 30
0.0
  0
VERTEX
  5
1FC
330
1FA
100
AcDbEntity
  8
\U+30EC\U+30A4\U+30E4\U+30FC 1
 62
     7
370
    18
100
AcDbVertex
100
AcDb2dVertex
 10
11.90677461617929
 20
42.85632708949181
 30
0.0
  0
SEQEND
  5
1FD
330
1FA
100
AcDbEntity
  8
\U+30EC\U+30A4\U+30E4\U+30FC 1
370
    18
  0
POLYLINE
  5
1FE
330
1F
100
AcDbEntity
  8
\U+30EC\U+30A4\U+30E4\U+30FC 1
 62
     7
370
    18
100
AcDb2dPolyline
 66
     1
 10
0.0
 20
0.0
 30
0.0
  0
VERTEX
  5
1FF
330
1FE
100
AcDbEntity
  8
\U+30EC\U+30A4\U+30E4\U+30FC 1
 62
     7
370
    18
100
AcDbVertex
100
AcDb2dVertex
 10
12.9756161955869
 20
42.94917247406888
 30
0.0
  0
VERTEX
  5
200
330
1FE
100
AcDbEntity
  8
\U+30EC\U+30A4\U+30E4\U+30FC 1
 62
     7
370
    18
100
AcDbVertex
100
AcDb2dVertex
 10
12.43266878893214
 20
42.92109492734149
 30
0.0
  0
SEQEND
  5
201
330
1FE
100
AcDbEntity
  8
\U+30EC\U+30A4\U+30E4\U+30FC 1
370
    18
  0
POLYLINE
  5
202
330
1F
100
AcDbEntity
  8
\U+30EC\U+30A4\U+30E4\U+30FC 1
 62
     7
370
    18
100
AcDb2dPolyline
 66
     1
 10
0.0
 20
0.0
 30
0.0
  0
VERTEX
  5
203
330
202
100
AcDbEntity
  8
\U+30EC\U+30A4\U+30E4\U+30FC 1
 62
     7
370
    18
100
AcDbVertex
100
AcDb2dVertex
 10
12.9756161955869
 20
42.90817581074914
 30
0.0
  0
VERTEX
  5
204
330
202
100
AcDbEntity
  8
\U+30EC\U+30A4\U+30E4\U+30FC 1
 62
     7
370
    18
100
AcDbVertex
100
AcDb2dVertex
 10
11.93864177044044
 20
42.85925542258608
 30
0.0
  0
SEQEND
  5
205
330
202
100
AcDbEntity
  8
\U+30EC\U+30A4\U+30E4\U+30FC 1
370
    18
  0
POLYLINE
  5
206
330
1F
100
AcDbEntity
  8
\U+30EC\U+30A4\U+30E4\U+30FC 1
 62
     7
370
    18
100
AcDb2dPolyline
 66
     1
 10
0.0
 20
0.0
 30
0.0
  0
VERTEX
  5
207
330
206
100
AcDbEntity
  8
\U+30EC\U+30A4\U+30E4\U+30FC 1
 62
     7
370
    18
100
AcDbVertex
100
AcDb2dVertex
 10
12.9756161955869
 20
42.94917247406888
 30
0.0
  0
VERTEX
  5
208
330
206
100
AcDbEntity
  8
\U+30EC\U+30A4\U+30E4\U+30FC 1
 62
     7
370
    18
100
AcDbVertex
100
AcDb2dVertex
 10
13.0572650124506
 20
42.94917247406888
 30
0.0
  0
SEQEND
  5
209
330
206
100
AcDbEntity
  8
\U+30EC\U+30A4\U+30E4\U+30FC 1
370
    18
  0
POLYLINE
  5
20A
330
1F
100
AcDbEntity
  8
\U+30EC\U+30A4\U+30E4\U+30FC 1
 62
     7
370
    18
100
AcDb2dPolyline
 66
     1
 10
0.0
 20
0.0
 30
0.0
  0
VERTEX
  5
20B
330
20A
100
AcDbEntity
  8
\U+30EC\U+30A4\U+30E4\U+30FC 1
 62
     7
370
    18
100
AcDbVertex
100
AcDb2dVertex
 10
19.88923837626442
 20
43.59926242099625
 30
0.0
  0
VERTEX
  5
20C
330
20A
100
AcDbEntity
  8
\U+30EC\U+30A4\U+30E4\U+30FC 1
 62
     7
370
    18
100
AcDbVertex
100
AcDb2dVertex
 10
13.69805319543147
 20
43.59926242099625
 30
0.0
  0
SEQEND
  5
20D
330
20A
100
AcDbEntity
  8
\U+30EC\U+30A4\U+30E4\U+30FC 1
370
    18
  0
POLYLINE
  5
20E
330
1F
100
AcDbEntity
  8
\U+30EC\U+30A4\U+30E4\U+30FC 1
 62
     7
370
    18
100
AcDb2dPolyline
 66
     1
 10
0.0
 20
0.0
 30
0.0
  0
VERTEX
  5
20F
330
20E
100
AcDbEntity
  8
\U+30EC\U+30A4\U+30E4\U+30FC 1
 62
     7
370
    18
100
AcDbVertex
100
AcDb2dVertex
 10
41.3380725075581
 20
39.98776644132501
 30
0.0
  0
VERTEX
  5
210
330
20E
100
AcDbEntity
  8
\U+30EC\U+30A4\U+30E4\U+30FC 1
 62
     7
370
    18
100
AcDbVertex
100
AcDb2dVertex
 10
41.3380725075581
 20
43.59926242099625
 30
0.0
  0
SEQEND
  5
211
330
20E
100
AcDbEntity
  8
\U+30EC\U+30A4\U+30E4\U+30FC 1
370
    18
  0
POLYLINE
  5
212
330
1F
100
AcDbEntity
  8
\U+30EC\U+30A4\U+30E4\U+30FC 1
 62
     7
370
    18
100
AcDb2dPolyline
 66
     1
 10
0.0
 20
0.0
 30
0.0
  0
VERTEX
  5
213
330
212
100
AcDbEntity
  8
\U+30EC\U+30A4\U+30E4\U+30FC 1
 62
     7
370
    18
100
AcDbVertex
100
AcDb2dVertex
 10
42.88595493021028
 20
39.98776644132501
 30
0.0
  0
VERTEX
  5
214
330
212
100
AcDbEntity
  8
\U+30EC\U+30A4\U+30E4\U+30FC 1
 62
     7
370
    18
100
AcDbVertex
100
AcDb2dVertex
 10
42.88595493021028
 20
43.59926242099625
 30
0.0
  0
SEQEND
  5
215
330
212
100
AcDbEntity
  8
\U+30EC\U+30A4\U+30E4\U+30FC 1
370
    18
  0
POLYLINE
  5
216
330
1F
100
AcDbEntity
  8
\U+30EC\U+30A4\U+30E4\U+30FC 1
 62
     7
370
    18
100
AcDb2dPolyline
 66
     1
 10
0.0
 20
0.0
 30
0.0
  0
VERTEX
  5
217
330
216
100
AcDbEntity
  8
\U+30EC\U+30A4\U+30E4\U+30FC 1
 62
     7
370
    18
100
AcDbVertex
100
AcDb2dVertex
 10
42.88595493021028
 20
39.98776644132501
 30
0.0
  0
VERTEX
  5
218
330
216
100
AcDbEntity
  8
\U+30EC\U+30A4\U+30E4\U+30FC 1
 62
     7
370
    18
100
AcDbVertex
100
AcDb2dVertex
 10
41.3380725075581
 20
39.98776644132501
 30
0.0
  0
SEQEND
  5
219
330
216
100
AcDbEntity
  8
\U+30EC\U+30A4\U+30E4\U+30FC 1
370
    18
  0
POLYLINE
  5
21A
330
1F
100
AcDbEntity
  8
\U+30EC\U+30A4\U+30E4\U+30FC 1
 62
     7
370
    18
100
AcDb2dPolyline
 66
     1
 10
0.0
 20
0.0
 30
0.0
  0
VERTEX
  5
21B
330
21A
100
AcDbEntity
  8
\U+30EC\U+30A4\U+30E4\U+30FC 1
 62
     7
370
    18
100
AcDbVertex
100
AcDb2dVertex
 10
42.88595493021028
 20
43.59926242099625
 30
0.0
  0
VERTEX
  5
21C
330
21A
100
AcDbEntity
  8
\U+30EC\U+30A4\U+30E4\U+30FC 1
 62
     7
370
    18
100
AcDbVertex
100
AcDb2dVertex
 10
41.3380725075581
 20
43.59926242099625
 30
0.0
  0
SEQEND
  5
21D
330
21A
100
AcDbEntity
  8
\U+30EC\U+30A4\U+30E4\U+30FC 1
370
    18
  0
SPLINE
  5
21E
330
1F
100
AcDbEntity
  8
\U+30EC\U+30A4\U+30E4\U+30FC 1
 62
     7
370
    18
100
AcDbSpline
210
0.0
220
0.0
230
1.0
 70
     8
 71
     3
 72
    14
 73
    10
 74
     0
 42
0.0000000001
 43
0.0000000001
 40
0.0
 40
0.0
 40
0.0
 40
0.0
 40
1.0
 40
1.0
 40
1.0
 40
2.0
 40
2.0
 40
2.0
 40
3.0
 40
3.0
 40
3.0
 40
3.0
 10
19.47841046862749
 20
41.73115816174153
 30
0.0
 10
19.513033701095
 20
42.07428989843451
 30
0.0
 10
19.26274734897909
 20
42.38038683422941
 30
0.0
 10
18.9196156122861
 20
42.41466555692112
 30
0.0
 10
18.57665613048102
 20
42.44911653450074
 30
0.0
 10
18.27055919468612
 20
42.19883018238482
 30
0.0
 10
18.2361082171065
 20
41.85587070057974
 30
0.0
 10
18.23128508024536
 20
41.80815609663197
 30
0.0
 10
18.23214635468485
 20
41.7602692377963
 30
0.0
 10
18.23834753064918
 20
41.71289914362433
 30
0.0
  0
SPLINE
  5
21F
330
1F
100
AcDbEntity
  8
\U+30EC\U+30A4\U+30E4\U+30FC 1
 62
     7
370
    18
100
AcDbSpline
210
0.0
220
0.0
230
1.0
 70
     8
 71
     3
 72
    14
 73
    10
 74
     0
 42
0.0000000001
 43
0.0000000001
 40
0.0
 40
0.0
 40
0.0
 40
0.0
 40
1.0
 40
1.0
 40
1.0
 40
2.0
 40
2.0
 40
2.0
 40
3.0
 40
3.0
 40
3.0
 40
3.0
 10
19.47789370396379
 20
41.47742671186764
 30
0.0
 10
19.65256016029245
 20
41.82004168389694
 30
0.0
 10
19.51630654396507
 20
42.23965459081667
 30
0.0
 10
19.17334706215998
 20
42.41414879225743
 30
0.0
 10
18.83055983524279
 20
42.58881524858609
 30
0.0
 10
18.41111918321096
 20
42.45238937737081
 30
0.0
 10
18.2366249817702
 20
42.10960215045362
 30
0.0
 10
18.13465008813453
 20
41.90944197071605
 30
0.0
 10
18.13568361746192
 20
41.67224699008038
 30
0.0
 10
18.23903655020077
 20
41.4729480847823
 30
0.0
  0
SPLINE
  5
220
330
1F
100
AcDbEntity
  8
\U+30EC\U+30A4\U+30E4\U+30FC 1
 62
     7
370
    18
100
AcDbSpline
210
0.0
220
0.0
230
1.0
 70
     8
 71
     3
 72
     8
 73
     4
 74
     0
 42
0.0000000001
 43
0.0000000001
 40
0.0
 40
0.0
 40
0.0
 40
0.0
 40
1.0
 40
1.0
 40
1.0
 40
1.0
 10
8.951225249623958
 20
40.91759832619887
 30
0.0
 10
8.951225249623958
 20
40.83371019579251
 30
0.0
 10
9.018060146128414
 20
40.76515275040907
 30
0.0
 10
9.10212053142268
 20
40.76274118197849
 30
0.0
  0
SPLINE
  5
221
330
1F
100
AcDbEntity
  8
\U+30EC\U+30A4\U+30E4\U+30FC 1
 62
     7
370
    18
100
AcDbSpline
210
0.0
220
0.0
230
1.0
 70
     8
 71
     3
 72
     8
 73
     4
 74
     0
 42
0.0000000001
 43
0.0000000001
 40
0.0
 40
0.0
 40
0.0
 40
0.0
 40
1.0
 40
1.0
 40
1.0
 40
1.0
 10
9.10212053142268
 20
41.23506408459505
 30
0.0
 10
9.018060146128414
 20
41.23299702594026
 30
0.0
 10
8.951225249623958
 20
41.16426732566893
 30
0.0
 10
8.951225249623958
 20
41.08037919526256
 30
0.0
  0
SPLINE
  5
222
330
1F
100
AcDbEntity
  8
\U+30EC\U+30A4\U+30E4\U+30FC 1
 62
     7
370
    18
100
AcDbSpline
210
0.0
220
0.0
230
1.0
 70
     8
 71
     3
 72
     8
 73
     4
 74
     0
 42
0.0000000001
 43
0.0000000001
 40
0.0
 40
0.0
 40
0.0
 40
0.0
 40
1.0
 40
1.0
 40
1.0
 40
1.0
 10
13.07896912832575
 20
41.30344927509058
 30
0.0
 10
13.07845236366206
 20
41.32274182253516
 30
0.0
 10
13.07586854034359
 20
41.34186211509186
 30
0.0
 10
13.07121765837034
 20
41.36063789787274
 30
0.0
  0
SPLINE
  5
223
330
1F
100
AcDbEntity
  8
\U+30EC\U+30A4\U+30E4\U+30FC 1
 62
     7
370
    18
100
AcDbSpline
210
0.0
220
0.0
230
1.0
 70
     8
 71
     3
 72
     8
 73
     4
 74
     0
 42
0.0000000001
 43
0.0000000001
 40
0.0
 40
0.0
 40
0.0
 40
0.0
 40
1.0
 40
1.0
 40
1.0
 40
1.0
 10
13.0572650124506
 20
40.59651521515684
 30
0.0
 10
13.07087314859454
 20
40.6273488400906
 30
0.0
 10
13.07810785388626
 20
40.66076628834283
 30
0.0
 10
13.07896912832575
 20
40.69452824637085
 30
0.0
  0
SPLINE
  5
224
330
1F
100
AcDbEntity
  8
\U+30EC\U+30A4\U+30E4\U+30FC 1
 62
     7
370
    18
100
AcDbSpline
210
0.0
220
0.0
230
1.0
 70
     8
 71
     3
 72
     8
 73
     4
 74
     0
 42
0.0000000001
 43
0.0000000001
 40
0.0
 40
0.0
 40
0.0
 40
0.0
 40
1.0
 40
1.0
 40
1.0
 40
1.0
 10
8.951225249623958
 20
42.46530849396316
 30
0.0
 10
8.951225249623958
 20
42.38142036355679
 30
0.0
 10
9.018060146128414
 20
42.31286291817336
 30
0.0
 10
9.10212053142268
 20
42.31062360463068
 30
0.0
  0
SPLINE
  5
225
330
1F
100
AcDbEntity
  8
\U+30EC\U+30A4\U+30E4\U+30FC 1
 62
     7
370
    18
100
AcDbSpline
210
0.0
220
0.0
230
1.0
 70
     8
 71
     3
 72
     8
 73
     4
 74
     0
 42
0.0000000001
 43
0.0000000001
 40
0.0
 40
0.0
 40
0.0
 40
0.0
 40
1.0
 40
1.0
 40
1.0
 40
1.0
 10
9.10212053142268
 20
42.78277425235933
 30
0.0
 10
9.018060146128414
 20
42.78053493881666
 30
0.0
 10
8.951225249623958
 20
42.71214974832112
 30
0.0
 10
8.951225249623958
 20
42.62808936302685
 30
0.0
  0
SPLINE
  5
226
330
1F
100
AcDbEntity
  8
\U+30EC\U+30A4\U+30E4\U+30FC 1
 62
     7
370
    18
100
AcDbSpline
210
0.0
220
0.0
230
1.0
 70
     8
 71
     3
 72
     8
 73
     4
 74
     0
 42
0.0000000001
 43
0.0000000001
 40
0.0
 40
0.0
 40
0.0
 40
0.0
 40
1.0
 40
1.0
 40
1.0
 40
1.0
 10
13.0572650124506
 20
42.14439763780903
 30
0.0
 10
13.07087314859454
 20
42.17523126274278
 30
0.0
 10
13.07810785388626
 20
42.20847645610711
 30
0.0
 10
13.07896912832575
 20
42.24223841413514
 30
0.0
  0
SPLINE
  5
227
330
1F
100
AcDbEntity
  8
\U+30EC\U+30A4\U+30E4\U+30FC 1
 62
     7
370
    18
100
AcDbSpline
210
0.0
220
0.0
230
1.0
 70
     8
 71
     3
 72
     8
 73
     4
 74
     0
 42
0.0000000001
 43
0.0000000001
 40
0.0
 40
0.0
 40
0.0
 40
0.0
 40
1.0
 40
1.0
 40
1.0
 40
1.0
 10
13.07896912832575
 20
42.85115944285487
 30
0.0
 10
13.07845236366206
 20
42.87045199029946
 30
0.0
 10
13.07586854034359
 20
42.88957228285614
 30
0.0
 10
13.07121765837034
 20
42.90834806563704
 30
0.0
  0
SPLINE
  5
228
330
1F
100
AcDbEntity
  8
\U+30EC\U+30A4\U+30E4\U+30FC 1
 62
     7
370
    18
100
AcDbSpline
210
0.0
220
0.0
230
1.0
 70
     8
 71
     3
 72
    14
 73
    10
 74
     0
 42
0.0000000001
 43
0.0000000001
 40
0.0
 40
0.0
 40
0.0
 40
0.0
 40
1.0
 40
1.0
 40
1.0
 40
2.0
 40
2.0
 40
2.0
 40
3.0
 40
3.0
 40
3.0
 40
3.0
 10
19.47789370396379
 20
41.42368318684344
 30
0.0
 10
19.68184349123513
 20
41.76647041376063
 30
0.0
 10
19.56970555921347
 20
42.2098544952103
 30
0.0
 10
19.22709058718418
 20
42.41414879225743
 30
0.0
 10
18.88430336026699
 20
42.61809857952876
 30
0.0
 10
18.44091927881733
 20
42.50596064750711
 30
0.0
 10
18.2367972366581
 20
42.16317342058992
 30
0.0
 10
18.10019911055491
 20
41.93407441968547
 30
0.0
 10
18.1010603849944
 20
41.64830356066255
 30
0.0
 10
18.23903655020077
 20
41.42006583419759
 30
0.0
  0
SPLINE
  5
229
330
1F
100
AcDbEntity
  8
\U+30EC\U+30A4\U+30E4\U+30FC 1
 62
     7
370
    18
100
AcDbSpline
210
0.0
220
0.0
230
1.0
 70
     8
 71
     3
 72
    11
 73
     7
 74
     0
 42
0.0000000001
 43
0.0000000001
 40
0.0
 40
0.0
 40
0.0
 40
0.0
 40
1.0
 40
1.0
 40
1.0
 40
2.0
 40
2.0
 40
2.0
 40
2.0
 10
18.23920880508867
 20
20.11868188694467
 30
0.0
 10
18.23920880508867
 20
19.77692818935487
 30
0.0
 10
18.51653917460458
 20
19.49994232961475
 30
0.0
 10
18.85846512708228
 20
19.49994232961475
 30
0.0
 10
19.20039107955998
 20
19.49994232961475
 30
0.0
 10
19.477549194188
 20
19.77692818935487
 30
0.0
 10
19.477549194188
 20
20.11868188694467
 30
0.0
  0
SPLINE
  5
22A
330
1F
100
AcDbEntity
  8
\U+30EC\U+30A4\U+30E4\U+30FC 1
 62
     7
370
    18
100
AcDbSpline
210
0.0
220
0.0
230
1.0
 70
     8
 71
     3
 72
    11
 73
     7
 74
     0
 42
0.0000000001
 43
0.0000000001
 40
0.0
 40
0.0
 40
0.0
 40
0.0
 40
1.0
 40
1.0
 40
1.0
 40
2.0
 40
2.0
 40
2.0
 40
2.0
 10
19.477549194188
 20
41.78851903941159
 30
0.0
 10
19.477549194188
 20
42.13044499188928
 30
0.0
 10
19.20039107955998
 20
42.4076031065173
 30
0.0
 10
18.85846512708228
 20
42.4076031065173
 30
0.0
 10
18.51653917460458
 20
42.4076031065173
 30
0.0
 10
18.23920880508867
 20
42.13044499188928
 30
0.0
 10
18.23920880508867
 20
41.78851903941159
 30
0.0
  0
SPLINE
  5
22B
330
1F
100
AcDbEntity
  8
\U+30EC\U+30A4\U+30E4\U+30FC 1
 62
     7
370
    18
100
AcDbSpline
210
0.0
220
0.0
230
1.0
 70
     8
 71
     3
 72
    17
 73
    13
 74
     0
 42
0.0000000001
 43
0.0000000001
 40
0.0
 40
0.0
 40
0.0
 40
0.0
 40
1.0
 40
1.0
 40
1.0
 40
2.0
 40
2.0
 40
2.0
 40
3.0
 40
3.0
 40
3.0
 40
4.0
 40
4.0
 40
4.0
 40
4.0
 10
41.33634995867911
 20
41.15289850306765
 30
0.0
 10
35.70327061463596
 20
40.83284892135301
 30
0.0
 10
31.39655390740805
 20
36.00695598200028
 30
0.0
 10
31.71694799889849
 20
30.37404889284502
 30
0.0
 10
32.03665307083733
 20
24.74131405857766
 30
0.0
 10
36.86220150041427
 20
20.43425284157396
 30
0.0
 10
42.49528084445743
 20
20.7546469330644
 30
0.0
 10
48.12801567872479
 20
21.07435200500324
 30
0.0
 10
52.43507689572849
 20
25.90024494435598
 30
0.0
 10
52.11502731401385
 20
31.53315203351123
 30
0.0
 10
51.82873969032723
 20
36.56954044587543
 30
0.0
 10
47.90925197109422
 20
40.64319628977722
 30
0.0
 10
42.88733296931347
 20
41.12309840746128
 30
0.0
  0
SPLINE
  5
22C
330
1F
100
AcDbEntity
  8
\U+30EC\U+30A4\U+30E4\U+30FC 1
 62
     7
370
    18
100
AcDbSpline
210
0.0
220
0.0
230
1.0
 70
     8
 71
     3
 72
    17
 73
    13
 74
     0
 42
0.0000000001
 43
0.0000000001
 40
0.0
 40
0.0
 40
0.0
 40
0.0
 40
1.0
 40
1.0
 40
1.0
 40
2.0
 40
2.0
 40
2.0
 40
3.0
 40
3.0
 40
3.0
 40
4.0
 40
4.0
 40
4.0
 40
4.0
 10
41.33634995867911
 20
42.39278918615807
 30
0.0
 10
35.01872969012897
 20
42.07291185933133
 30
0.0
 10
30.15666322431764
 20
36.69218592605886
 30
0.0
 10
30.47671280603228
 20
30.37473791239661
 30
0.0
 10
30.79641787797113
 20
24.05642862429488
 30
0.0
 10
36.17766057590728
 20
19.19470666825934
 30
0.0
 10
42.49493633468163
 20
19.51441174019819
 30
0.0
 10
48.81290111300757
 20
19.83480583168863
 30
0.0
 10
53.6749675788189
 20
25.21535951007319
 30
0.0
 10
53.35491799710426
 20
31.53315203351123
 30
0.0
 10
53.06518527565969
 20
37.25356460571872
 30
0.0
 10
48.5948264249286
 20
41.88033089466126
 30
0.0
 10
42.88767747908926
 20
42.36626193342176
 30
0.0
  0
INSERT
  5
22E
330
1F
100
AcDbEntity
  8
\U+30EC\U+30A4\U+30E4\U+30FC 1
100
AcDbBlockReference
  2
block 2
 10
0.0
 20
0.0
 30
0.0
  0
INSERT
  5
268
330
1F
100
AcDbEntity
  8
\U+30EC\U+30A4\U+30E4\U+30FC 1
100
AcDbBlockReference
  2
block 4
 10
0.0
 20
0.0
 30
0.0
  0
INSERT
  5
298
330
1F
100
AcDbEntity
  8
\U+30EC\U+30A4\U+30E4\U+30FC 1
100
AcDbBlockReference
  2
block 6
 10
0.0
 20
0.0
 30
0.0
  0
INSERT
  5
2D4
330
1F
100
AcDbEntity
  8
\U+30EC\U+30A4\U+30E4\U+30FC 1
100
AcDbBlockReference
  2
block 8
 10
0.0
 20
0.0
 30
0.0
  0
INSERT
  5
300
330
1F
100
AcDbEntity
  8
\U+30EC\U+30A4\U+30E4\U+30FC 1
100
AcDbBlockReference
  2
block 10
 10
0.0
 20
0.0
 30
0.0
  0
INSERT
  5
32A
330
1F
100
AcDbEntity
  8
\U+30EC\U+30A4\U+30E4\U+30FC 1
100
AcDbBlockReference
  2
block 12
 10
0.0
 20
0.0
 30
0.0
  0
MTEXT
  5
35D
330
1F
100
AcDbEntity
  8
\U+30EC\U+30A4\U+30E4\U+30FC 1
 62
     7
100
AcDbMText
 10
1.745458779071289
 20
58.21061103206336
 30
0.0
 40
1.919112376659107
 41
0.0
 71
     7
 72
     1
  1
\fKozuka Gothic Pro B|b0|i0|c0|p34;\W1;GS-20909.031
 73
     1
 44
1.0
  0
ENDSEC
  0
SECTION
  2
OBJECTS
  0
DICTIONARY
  5
C
330
0
100
AcDbDictionary
281
     1
  3
ACAD_GROUP
350
D
  3
ACAD_LAYOUT
350
1A
  3
ACAD_MLINESTYLE
350
17
  3
ACAD_PLOTSETTINGS
350
19
  3
ACAD_PLOTSTYLENAME
350
E
  3
ACAD_TABLESTYLE
350
362
  3
ACAD_VISUALSTYLE
350
2A
  0
DICTIONARY
  5
D
102
{ACAD_REACTORS
330
C
102
}
330
C
100
AcDbDictionary
281
     1
  0
DICTIONARY
  5
1A
102
{ACAD_REACTORS
330
C
102
}
330
C
100
AcDbDictionary
281
     1
  3
Layout1
350
1E
  3
Layout2
350
26
  3
Model
350
22
  0
DICTIONARY
  5
17
102
{ACAD_REACTORS
330
C
102
}
330
C
100
AcDbDictionary
281
     1
  3
Standard
350
18
  0
DICTIONARY
  5
19
102
{ACAD_REACTORS
330
C
102
}
330
C
100
AcDbDictionary
281
     1
  0
ACDBDICTIONARYWDFLT
  5
E
102
{ACAD_REACTORS
330
C
102
}
330
C
100
AcDbDictionary
281
     1
  3
Normal
350
F
100
AcDbDictionaryWithDefault
340
F
  0
DICTIONARY
  5
362
102
{ACAD_REACTORS
330
C
102
}
330
C
100
AcDbDictionary
281
     1
  0
DICTIONARY
  5
2A
102
{ACAD_REACTORS
330
C
102
}
330
C
100
AcDbDictionary
281
     1
  3
2dWireframe
350
2F
  3
3D Hidden
350
31
  3
3dWireframe
350
30
  3
Basic
350
32
  3
Brighten
350
36
  3
ColorChange
350
3A
  3
Conceptual
350
34
  3
Dim
350
35
  3
Facepattern
350
39
  3
Flat
350
2B
  3
FlatWithEdges
350
2C
  3
Gouraud
350
2D
  3
GouraudWithEdges
350
2E
  3
Linepattern
350
38
  3
Realistic
350
33
  3
Thicken
350
37
  0
LAYOUT
  5
1E
102
{ACAD_REACTORS
330
1A
102
}
330
1A
100
AcDbPlotSettings
  1

  2
none_device
  4

  6

 40
0.0
 41
0.0
 42
0.0
 43
0.0
 44
0.0
 45
0.0
 46
0.0
 47
0.0
 48
0.0
 49
0.0
140
0.0
141
0.0
142
1.0
143
1.0
 70
   688
 72
     0
 73
     0
 74
     5
  7

 75
    16
 76
     0
 77
     2
 78
   300
147
1.0
148
0.0
149
0.0
100
AcDbLayout
  1
Layout1
 70
     1
 71
     1
 10
0.0
 20
0.0
 11
12.0
 21
9.0
 12
0.0
 22
0.0
 32
0.0
 14
1.000000000000000E+20
 24
1.000000000000000E+20
 34
1.000000000000000E+20
 15
-1.000000000000000E+20
 25
-1.000000000000000E+20
 35
-1.000000000000000E+20
146
0.0
 13
0.0
 23
0.0
 33
0.0
 16
1.0
 26
0.0
 36
0.0
 17
0.0
 27
1.0
 37
0.0
 76
     0
330
1B
  0
LAYOUT
  5
26
102
{ACAD_REACTORS
330
1A
102
}
330
1A
100
AcDbPlotSettings
  1

  2
none_device
  4

  6

 40
0.0
 41
0.0
 42
0.0
 43
0.0
 44
0.0
 45
0.0
 46
0.0
 47
0.0
 48
0.0
 49
0.0
140
0.0
141
0.0
142
1.0
143
1.0
 70
   688
 72
     0
 73
     0
 74
     5
  7

 75
    16
 76
     0
 77
     2
 78
   300
147
1.0
148
0.0
149
0.0
100
AcDbLayout
  1
Layout2
 70
     1
 71
     2
 10
0.0
 20
0.0
 11
0.0
 21
0.0
 12
0.0
 22
0.0
 32
0.0
 14
0.0
 24
0.0
 34
0.0
 15
0.0
 25
0.0
 35
0.0
146
0.0
 13
0.0
 23
0.0
 33
0.0
 16
1.0
 26
0.0
 36
0.0
 17
0.0
 27
1.0
 37
0.0
 76
     0
330
23
  0
LAYOUT
  5
22
102
{ACAD_REACTORS
330
1A
102
}
330
1A
100
AcDbPlotSettings
  1

  2
none_device
  4

  6

 40
0.0
 41
0.0
 42
0.0
 43
0.0
 44
0.0
 45
0.0
 46
0.0
 47
0.0
 48
0.0
 49
0.0
140
0.0
141
0.0
142
1.0
143
1.0
 70
  1712
 72
     0
 73
     0
 74
     0
  7

 75
     0
 76
     0
 77
     2
 78
   300
147
1.0
148
0.0
149
0.0
100
AcDbLayout
  1
Model
 70
     1
 71
     0
 10
0.0
 20
0.0
 11
12.0
 21
9.0
 12
0.0
 22
0.0
 32
0.0
 14
1.000000000000000E+20
 24
1.000000000000000E+20
 34
1.000000000000000E+20
 15
-1.000000000000000E+20
 25
-1.000000000000000E+20
 35
-1.000000000000000E+20
146
0.0
 13
0.0
 23
0.0
 33
0.0
 16
1.0
 26
0.0
 36
0.0
 17
0.0
 27
1.0
 37
0.0
 76
     0
330
1F
331
29
  0
MLINESTYLE
  5
18
102
{ACAD_REACTORS
330
17
102
}
330
17
100
AcDbMlineStyle
  2
Standard
 70
     0
  3

 62
   256
 51
90.0
 52
90.0
 71
     2
 49
0.5
 62
   256
  6
BYLAYER
 49
-0.5
 62
   256
  6
BYLAYER
  0
ACDBPLACEHOLDER
  5
F
102
{ACAD_REACTORS
330
E
102
}
330
E
  0
VISUALSTYLE
  5
2F
102
{ACAD_REACTORS
330
2A
102
}
330
2A
100
AcDbVisualStyle
  2
2dWireframe
 70
     4
 71
     0
 72
     2
 73
     0
 90
        0
 40
-0.6
 41
-30.0
 62
     5
 63
     7
421
 16777215
 74
     1
 91
        4
 64
     7
 65
   257
 75
     1
175
     1
 42
1.0
 92
        0
 66
   257
 43
1.0
 76
     1
 77
     6
 78
     2
 67
     7
 79
     5
170
     0
171
     0
290
     0
174
     0
 93
        1
 44
0.0
173
     0
291
     0
 45
0.0
1001
ACAD
1000
AcDbSavedByObjectVersion
1070
     0
  0
VISUALSTYLE
  5
31
102
{ACAD_REACTORS
330
2A
102
}
330
2A
100
AcDbVisualStyle
  2
3D Hidden
 70
     6
 71
     1
 72
     2
 73
     2
 90
        0
 40
-0.6
 41
-30.0
 62
     5
 63
     7
421
 16777215
 74
     2
 91
        2
 64
     7
 65
   257
 75
     2
175
     1
 42
40.0
 92
        0
 66
   257
 43
1.0
 76
     1
 77
     6
 78
     2
 67
     7
 79
     3
170
     0
171
     0
290
     0
174
     0
 93
        1
 44
0.0
173
     0
291
     0
 45
0.0
1001
ACAD
1000
AcDbSavedByObjectVersion
1070
     0
  0
VISUALSTYLE
  5
30
102
{ACAD_REACTORS
330
2A
102
}
330
2A
100
AcDbVisualStyle
  2
3dWireframe
 70
     5
 71
     0
 72
     2
 73
     0
 90
        0
 40
-0.6
 41
-30.0
 62
     5
 63
     7
421
 16777215
 74
     1
 91
        4
 64
     7
 65
   257
 75
     1
175
     1
 42
1.0
 92
        0
 66
   257
 43
1.0
 76
     1
 77
     6
 78
     2
 67
     7
 79
     5
170
     0
171
     0
290
     0
174
     0
 93
        1
 44
0.0
173
     0
291
     0
 45
0.0
1001
ACAD
1000
AcDbSavedByObjectVersion
1070
     0
  0
VISUALSTYLE
  5
32
102
{ACAD_REACTORS
330
2A
102
}
330
2A
100
AcDbVisualStyle
  2
Basic
 70
     7
 71
     1
 72
     0
 73
     1
 90
        0
 40
-0.6
 41
-30.0
 62
     5
 63
     7
421
 16777215
 74
     0
 91
        4
 64
     7
 65
   257
 75
     1
175
     1
 42
1.0
 92
        8
 66
     7
 43
1.0
 76
     1
 77
     6
 78
     2
 67
     7
 79
     5
170
     0
171
     0
290
     0
174
     0
 93
        1
 44
0.0
173
     0
291
     1
 45
0.0
1001
ACAD
1000
AcDbSavedByObjectVersion
1070
     0
  0
VISUALSTYLE
  5
36
102
{ACAD_REACTORS
330
2A
102
}
330
2A
100
AcDbVisualStyle
  2
Brighten
 70
    12
 71
     2
 72
     2
 73
     0
 90
        0
 40
-0.6
 41
-30.0
 62
     5
 63
     7
421
 16777215
 74
     1
 91
        4
 64
     7
 65
   257
 75
     1
175
     1
 42
1.0
 92
        8
 66
     7
 43
1.0
 76
     1
 77
     6
 78
     2
 67
     7
 79
     5
170
     0
171
     0
290
     0
174
     0
 93
        1
 44
50.0
173
     0
291
     1
 45
0.0
1001
ACAD
1000
AcDbSavedByObjectVersion
1070
     0
  0
VISUALSTYLE
  5
3A
102
{ACAD_REACTORS
330
2A
102
}
330
2A
100
AcDbVisualStyle
  2
ColorChange
 70
    16
 71
     2
 72
     2
 73
     3
 90
        0
 40
-0.6
 41
-30.0
 62
     5
 63
     8
421
  8421504
 74
     1
 91
        4
 64
     7
 65
   257
 75
     1
175
     1
 42
1.0
 92
        8
 66
     8
424
  8421504
 43
1.0
 76
     1
 77
     6
 78
     2
 67
     7
 79
     5
170
     0
171
     0
290
     0
174
     0
 93
        1
 44
0.0
173
     0
291
     1
 45
0.0
1001
ACAD
1000
AcDbSavedByObjectVersion
1070
     0
  0
VISUALSTYLE
  5
34
102
{ACAD_REACTORS
330
2A
102
}
330
2A
100
AcDbVisualStyle
  2
Conceptual
 70
     9
 71
     3
 72
     2
 73
     0
 90
        0
 40
-0.6
 41
-30.0
 62
     5
 63
     7
421
 16777215
 74
     2
 91
        2
 64
     7
 65
   257
 75
     1
175
     1
 42
40.0
 92
        8
 66
     7
 43
1.0
 76
     1
 77
     6
 78
     2
 67
     7
 79
     3
170
     0
171
     0
290
     0
174
     0
 93
        1
 44
0.0
173
     0
291
     0
 45
0.0
1001
ACAD
1000
AcDbSavedByObjectVersion
1070
     0
  0
VISUALSTYLE
  5
35
102
{ACAD_REACTORS
330
2A
102
}
330
2A
100
AcDbVisualStyle
  2
Dim
 70
    11
 71
     2
 72
     2
 73
     0
 90
        0
 40
-0.6
 41
-30.0
 62
     5
 63
     7
421
 16777215
 74
     1
 91
        4
 64
     7
 65
   257
 75
     1
175
     1
 42
1.0
 92
        8
 66
     7
 43
1.0
 76
     1
 77
     6
 78
     2
 67
     7
 79
     5
170
     0
171
     0
290
     0
174
     0
 93
        1
 44
-50.0
173
     0
291
     1
 45
0.0
1001
ACAD
1000
AcDbSavedByObjectVersion
1070
     0
  0
VISUALSTYLE
  5
39
102
{ACAD_REACTORS
330
2A
102
}
330
2A
100
AcDbVisualStyle
  2
Facepattern
 70
    15
 71
     2
 72
     2
 73
     0
 90
        0
 40
-0.6
 41
-30.0
 62
     5
 63
     7
421
 16777215
 74
     1
 91
        4
 64
     7
 65
   257
 75
     1
175
     1
 42
1.0
 92
        8
 66
     7
 43
1.0
 76
     1
 77
     6
 78
     2
 67
     7
 79
     5
170
     0
171
     0
290
     0
174
     0
 93
        1
 44
0.0
173
     0
291
     1
 45
0.0
1001
ACAD
1000
AcDbSavedByObjectVersion
1070
     0
  0
VISUALSTYLE
  5
2B
102
{ACAD_REACTORS
330
2A
102
}
330
2A
100
AcDbVisualStyle
  2
Flat
 70
     0
 71
     2
 72
     1
 73
     1
 90
        2
 40
-0.6
 41
30.0
 62
     5
 63
     7
421
 16777215
 74
     0
 91
        4
 64
     7
 65
   257
 75
     1
175
     1
 42
1.0
 92
        8
 66
     7
 43
1.0
 76
     1
 77
     6
 78
     2
 67
     7
 79
     5
170
     0
171
     0
290
     0
174
     0
 93
       13
 44
0.0
173
     0
291
     1
 45
0.0
1001
ACAD
1000
AcDbSavedByObjectVersion
1070
     0
  0
VISUALSTYLE
  5
2C
102
{ACAD_REACTORS
330
2A
102
}
330
2A
100
AcDbVisualStyle
  2
FlatWithEdges
 70
     1
 71
     2
 72
     1
 73
     1
 90
        2
 40
-0.6
 41
30.0
 62
     5
 63
     7
421
 16777215
 74
     1
 91
        4
 64
     7
 65
   257
 75
     1
175
     1
 42
1.0
 92
        0
 66
   257
 43
1.0
 76
     1
 77
     6
 78
     2
 67
     7
 79
     5
170
     0
171
     0
290
     0
174
     0
 93
       13
 44
0.0
173
     0
291
     1
 45
0.0
1001
ACAD
1000
AcDbSavedByObjectVersion
1070
     0
  0
VISUALSTYLE
  5
2D
102
{ACAD_REACTORS
330
2A
102
}
330
2A
100
AcDbVisualStyle
  2
Gouraud
 70
     2
 71
     2
 72
     2
 73
     1
 90
        2
 40
-0.6
 41
30.0
 62
     5
 63
     7
421
 16777215
 74
     0
 91
        4
 64
     7
 65
   257
 75
     1
175
     1
 42
1.0
 92
        0
 66
     7
 43
1.0
 76
     1
 77
     6
 78
     2
 67
     7
 79
     5
170
     0
171
     0
290
     0
174
     0
 93
       13
 44
0.0
173
     0
291
     1
 45
0.0
1001
ACAD
1000
AcDbSavedByObjectVersion
1070
     0
  0
VISUALSTYLE
  5
2E
102
{ACAD_REACTORS
330
2A
102
}
330
2A
100
AcDbVisualStyle
  2
GouraudWithEdges
 70
     3
 71
     2
 72
     2
 73
     1
 90
        2
 40
-0.6
 41
30.0
 62
     5
 63
     7
421
 16777215
 74
     1
 91
        4
 64
     7
 65
   257
 75
     1
175
     1
 42
1.0
 92
        0
 66
   257
 43
1.0
 76
     1
 77
     6
 78
     2
 67
     7
 79
     5
170
     0
171
     0
290
     0
174
     0
 93
       13
 44
0.0
173
     0
291
     1
 45
0.0
1001
ACAD
1000
AcDbSavedByObjectVersion
1070
     0
  0
VISUALSTYLE
  5
38
102
{ACAD_REACTORS
330
2A
102
}
330
2A
100
AcDbVisualStyle
  2
Linepattern
 70
    14
 71
     2
 72
     2
 73
     0
 90
        0
 40
-0.6
 41
-30.0
 62
     5
 63
     7
421
 16777215
 74
     1
 91
        4
 64
     7
 65
   257
 75
     7
175
     7
 42
1.0
 92
        8
 66
     7
 43
1.0
 76
     1
 77
     6
 78
     2
 67
     7
 79
     5
170
     0
171
     0
290
     0
174
     0
 93
        1
 44
0.0
173
     0
291
     1
 45
0.0
1001
ACAD
1000
AcDbSavedByObjectVersion
1070
     0
  0
VISUALSTYLE
  5
33
102
{ACAD_REACTORS
330
2A
102
}
330
2A
100
AcDbVisualStyle
  2
Realistic
 70
     8
 71
     2
 72
     2
 73
     0
 90
        0
 40
-0.6
 41
-30.0
 62
     5
 63
     7
421
 16777215
 74
     1
 91
        0
 64
     7
 65
   257
 75
     1
175
     1
 42
1.0
 92
        8
 66
     8
424
  7895160
 43
1.0
 76
     1
 77
     6
 78
     2
 67
     7
 79
     5
170
     0
171
     0
290
     0
174
     0
 93
       13
 44
0.0
173
     0
291
     0
 45
0.0
1001
ACAD
1000
AcDbSavedByObjectVersion
1070
     0
  0
VISUALSTYLE
  5
37
102
{ACAD_REACTORS
330
2A
102
}
330
2A
100
AcDbVisualStyle
  2
Thicken
 70
    13
 71
     2
 72
     2
 73
     0
 90
        0
 40
-0.6
 41
-30.0
 62
     5
 63
     7
421
 16777215
 74
     1
 91
        4
 64
     7
 65
   257
 75
     1
175
     1
 42
1.0
 92
       12
 66
     7
 43
1.0
 76
     1
 77
     6
 78
     2
 67
     7
 79
     5
170
     0
171
     0
290
     0
174
     0
 93
        1
 44
0.0
173
     0
291
     1
 45
0.0
1001
ACAD
1000
AcDbSavedByObjectVersion
1070
     0
  0
ENDSEC
  0
EOF
