0
SECTION
2
HEADER
9
$ACADVER
1
AC1009
9
$DWGCODEPAGE
3
ANSI_932
9
$EXTMIN
10
0.000
20
0.000
30
0.0
9
$EXTMAX
10
4752.000
20
3360.000
30
0.0
9
$LTSCALE
40
8.000
9
$PDMODE
70
0
9
$PDSIZE
40
40.0
0
ENDSEC
0
SECTION
2
TABLES
0
TABLE
2
LTYPE
70
9
0
LTYPE
5
1f4
2
CONTINUOUS
70
64
3
SolidLine
72
65
73
0
40
0.0
0
LTYPE
5
1f5
2
DOT
70
64
3
--  --  --  --  --  --  --  --     
72
65
73
2
40
3.000
49
1.000
49
-2.000
0
LTYPE
5
1f6
2
DASHED
70
64
3
----    ----    ----    ----    
72
65
73
2
40
5.000
49
2.000
49
-3.000
0
LTYPE
5
1f7
2
DASHED2
70
64
3
------  ------  ------  ------ 
72
65
73
2
40
10.000
49
4.000
49
-6.000
0
LTYPE
5
1f8
2
CENTER
70
64
3
----- - ----- - ----- - ----- - 
72
65
73
4
40
10.000
49
6.000
49
-3.000
49
1.000
49
-3.000
0
LTYPE
5
1f9
2
CENTER2
70
64
3
----------  --  ----------  -- 
72
65
73
4
40
17.000
49
12.000
49
-5.000
49
2.000
49
-5.000
0
LTYPE
5
1fa
2
PHANTOM
70
64
3
--- - - --- - - --- - - --- - -
72
65
73
6
40
13.000
49
5.000
49
-3.000
49
1.000
49
-3.000
49
1.000
49
-3.000
0
LTYPE
5
1fb
2
PHANTOM2
70
64
3
--------  -  -  --------  -  -
72
65
73
6
40
20.000
49
6.000
49
-5.000
49
2.000
49
-5.000
49
2.000
49
-5.000
0
LTYPE
5
1fc
2
HIDDEN
70
64
3
-   -   -   -   -   -   -   -   
72
65
73
2
40
3.000
49
0.500
49
-2.500
0
ENDTAB
0
TABLE
2
STYLE
70
1
0
STYLE
5
1fd
100
AcDbSymbolTableRecord
100
AcDbTextStyleTableRecord
2
STANDARD
70
0
40
0.0
41
1.0
50
0.0
71
0
42
0.0
3
txt.shx
4
extfont.shx
0
STYLE
5
1fe
100
AcDbSymbolTableRecord
100
AcDbTextStyleTableRecord
2
TATEGAKI
70
4
40
0.0
41
1.0
50
0.0
71
0
42
0.0
3
txt.shx
4
extfont.shx
0
STYLE
5
1ff
100
AcDbSymbolTableRecord
100
AcDbTextStyleTableRecord
2
DIM
70
0
40
0.0
41
0.75
50
0.0
71
0
42
0.0
3
txt.shx
4
extfont.shx
0
STYLE
5
200
100
AcDbSymbolTableRecord
100
AcDbTextStyleTableRecord
2
_Gothic__
70
0
40
0.0
41
1.0
50
0.0
71
0
42
0.0
3
MS Gothic
4

0
STYLE
5
201
100
AcDbSymbolTableRecord
100
AcDbTextStyleTableRecord
2
_TateGothic_
70
4
40
0.0
41
1.0
50
0.0
71
0
42
0.0
3
@MS Gothic
4

0
ENDTAB
0
TABLE
2
LAYER
5
403
100
AcDbSymbolTable
70
10
0
LAYER
5
404
100
AcDbSymbolTableRecord
100
AcDbLayerTableRecord
2
2-0
70
0
62
5
6
CONTINUOUS
0
LAYER
5
405
100
AcDbSymbolTableRecord
100
AcDbLayerTableRecord
2
3-0
70
0
62
7
6
CONTINUOUS
0
LAYER
5
406
100
AcDbSymbolTableRecord
100
AcDbLayerTableRecord
2
4-0
70
0
62
7
6
CONTINUOUS
0
LAYER
5
407
100
AcDbSymbolTableRecord
100
AcDbLayerTableRecord
2
5-0
70
0
62
-7
6
CONTINUOUS
0
LAYER
5
408
100
AcDbSymbolTableRecord
100
AcDbLayerTableRecord
2
6-0
70
0
62
-7
6
CONTINUOUS
0
LAYER
5
409
100
AcDbSymbolTableRecord
100
AcDbLayerTableRecord
2
8-0
70
0
62
7
6
CONTINUOUS
0
LAYER
5
40a
100
AcDbSymbolTableRecord
100
AcDbLayerTableRecord
2
9-0
70
0
62
5
6
CONTINUOUS
0
LAYER
5
40b
100
AcDbSymbolTableRecord
100
AcDbLayerTableRecord
2
A-0
70
0
62
6
6
CONTINUOUS
0
LAYER
5
40c
100
AcDbSymbolTableRecord
100
AcDbLayerTableRecord
2
B-0
70
0
62
6
6
CONTINUOUS
0
LAYER
5
40d
100
AcDbSymbolTableRecord
100
AcDbLayerTableRecord
2
C-0
70
0
62
3
6
CONTINUOUS
0
LAYER
5
40e
100
AcDbSymbolTableRecord
100
AcDbLayerTableRecord
2
D-0
70
0
62
1
6
CENTER2
0
LAYER
5
40f
100
AcDbSymbolTableRecord
100
AcDbLayerTableRecord
2
E-0
70
0
62
4
6
CONTINUOUS
0
ENDTAB
0
ENDSEC
0
SECTION
2
ENTITIES
0
LINE
5
410
100
AcDbEntity
8
B-0
6
CONTINUOUS
62
6
100
AcDbLine
10
2012.232785000000
20
2870.824391000000
30
0.0
11
2012.232785000000
21
99.175609000000
31
0.0
0
LINE
5
411
100
AcDbEntity
8
B-0
6
CONTINUOUS
62
6
100
AcDbLine
10
87.767215000000
20
99.175609000000
30
0.0
11
87.767215000000
21
2870.824391000000
31
0.0
0
LINE
5
412
100
AcDbEntity
8
B-0
6
CONTINUOUS
62
6
100
AcDbLine
10
87.767215000000
20
2870.824391000000
30
0.0
11
2012.232785000000
21
2870.824391000000
31
0.0
0
LINE
5
413
100
AcDbEntity
8
B-0
6
CONTINUOUS
62
6
100
AcDbLine
10
2012.232785000000
20
99.175609000000
30
0.0
11
87.767215000000
21
99.175609000000
31
0.0
0
LINE
5
414
100
AcDbEntity
8
B-0
6
CONTINUOUS
62
6
100
AcDbLine
10
1362.232785000000
20
279.175609000000
30
0.0
11
1362.232785000000
21
99.175609000000
31
0.0
0
LINE
5
415
100
AcDbEntity
8
B-0
6
CONTINUOUS
62
6
100
AcDbLine
10
2012.232785000000
20
279.175609000000
30
0.0
11
87.767215000000
21
279.175609000000
31
0.0
0
LINE
5
416
100
AcDbEntity
8
A-0
6
CONTINUOUS
62
6
100
AcDbLine
10
204.111627000000
20
133.984897000000
30
0.0
11
246.150125000000
21
133.984897000000
31
0.0
0
LINE
5
417
100
AcDbEntity
8
A-0
6
CONTINUOUS
62
6
100
AcDbLine
10
246.150125000000
20
133.984897000000
30
0.0
11
246.150125000000
21
176.082589000000
31
0.0
0
LINE
5
418
100
AcDbEntity
8
A-0
6
CONTINUOUS
62
6
100
AcDbLine
10
204.111627000000
20
176.082589000000
30
0.0
11
204.111627000000
21
133.984897000000
31
0.0
0
LINE
5
419
100
AcDbEntity
8
A-0
6
CONTINUOUS
62
6
100
AcDbLine
10
246.150125000000
20
176.082589000000
30
0.0
11
204.111627000000
21
176.082589000000
31
0.0
0
LINE
5
41a
100
AcDbEntity
8
A-0
6
CONTINUOUS
62
6
100
AcDbLine
10
250.913346000000
20
189.810507000000
30
0.0
11
272.413346000000
21
227.049599000000
31
0.0
0
LINE
5
41b
100
AcDbEntity
8
A-0
6
CONTINUOUS
62
6
100
AcDbLine
10
250.913346000000
20
189.810507000000
30
0.0
11
293.913346000000
21
189.810507000000
31
0.0
0
LINE
5
41c
100
AcDbEntity
8
A-0
6
CONTINUOUS
62
6
100
AcDbLine
10
272.413346000000
20
227.049599000000
30
0.0
11
293.913346000000
21
189.810507000000
31
0.0
0
CIRCLE
5
41d
100
AcDbEntity
8
A-0
6
CONTINUOUS
62
6
100
AcDbCircle
10
306.241041000000
20
235.007299000000
30
0.0
40
14.758716000000
0
LINE
5
41e
100
AcDbEntity
8
A-0
6
CONTINUOUS
62
6
100
AcDbLine
10
335.909000000000
20
155.949899000000
30
0.0
11
354.031649000000
21
155.949899000000
31
0.0
0
LINE
5
41f
100
AcDbEntity
8
A-0
6
CONTINUOUS
62
6
100
AcDbLine
10
358.694726000000
20
145.949899000000
30
0.0
11
364.756726000000
21
132.949899000000
31
0.0
0
LINE
5
420
100
AcDbEntity
8
A-0
6
CONTINUOUS
62
6
100
AcDbLine
10
331.245923000000
20
145.949899000000
30
0.0
11
325.183924000000
21
132.949899000000
31
0.0
0
LINE
5
421
100
AcDbEntity
8
A-0
6
CONTINUOUS
62
6
100
AcDbLine
10
344.970325000000
20
175.381973000000
30
0.0
11
354.031649000000
21
155.949899000000
31
0.0
0
LINE
5
422
100
AcDbEntity
8
A-0
6
CONTINUOUS
62
6
100
AcDbLine
10
344.970325000000
20
175.381973000000
30
0.0
11
335.909000000000
21
155.949899000000
31
0.0
0
LINE
5
423
100
AcDbEntity
8
A-0
6
CONTINUOUS
62
6
100
AcDbLine
10
339.020526000000
20
190.501179000000
30
0.0
11
312.183924000000
21
132.949899000000
31
0.0
0
LINE
5
424
100
AcDbEntity
8
A-0
6
CONTINUOUS
62
6
100
AcDbLine
10
417.449254000000
20
180.501179000000
30
0.0
11
418.197394000000
21
180.090612000000
31
0.0
0
LINE
5
425
100
AcDbEntity
8
A-0
6
CONTINUOUS
62
6
100
AcDbLine
10
418.197394000000
20
180.090612000000
30
0.0
11
419.473359000000
21
179.373316000000
31
0.0
0
LINE
5
426
100
AcDbEntity
8
A-0
6
CONTINUOUS
62
6
100
AcDbLine
10
419.473359000000
20
179.373316000000
30
0.0
11
420.710623000000
21
178.629853000000
31
0.0
0
LINE
5
427
100
AcDbEntity
8
A-0
6
CONTINUOUS
62
6
100
AcDbLine
10
420.710623000000
20
178.629853000000
30
0.0
11
421.884693000000
21
177.843660000000
31
0.0
0
LINE
5
428
100
AcDbEntity
8
A-0
6
CONTINUOUS
62
6
100
AcDbLine
10
421.884693000000
20
177.843660000000
30
0.0
11
422.971074000000
21
176.998176000000
31
0.0
0
LINE
5
429
100
AcDbEntity
8
A-0
6
CONTINUOUS
62
6
100
AcDbLine
10
422.971074000000
20
176.998176000000
30
0.0
11
423.945273000000
21
176.076838000000
31
0.0
0
LINE
5
42a
100
AcDbEntity
8
A-0
6
CONTINUOUS
62
6
100
AcDbLine
10
423.945273000000
20
176.076838000000
30
0.0
11
424.449254000000
21
175.501179000000
31
0.0
0
LINE
5
42b
100
AcDbEntity
8
A-0
6
CONTINUOUS
62
6
100
AcDbLine
10
424.449254000000
20
175.501179000000
30
0.0
11
425.168741000000
21
174.485834000000
31
0.0
0
LINE
5
42c
100
AcDbEntity
8
A-0
6
CONTINUOUS
62
6
100
AcDbLine
10
425.168741000000
20
174.485834000000
30
0.0
11
426.123296000000
21
172.544054000000
31
0.0
0
LINE
5
42d
100
AcDbEntity
8
A-0
6
CONTINUOUS
62
6
100
AcDbLine
10
426.123296000000
20
172.544054000000
30
0.0
11
426.767664000000
21
170.398528000000
31
0.0
0
LINE
5
42e
100
AcDbEntity
8
A-0
6
CONTINUOUS
62
6
100
AcDbLine
10
426.767664000000
20
170.398528000000
30
0.0
11
427.162029000000
21
168.093740000000
31
0.0
0
LINE
5
42f
100
AcDbEntity
8
A-0
6
CONTINUOUS
62
6
100
AcDbLine
10
427.162029000000
20
168.093740000000
30
0.0
11
427.366575000000
21
165.674179000000
31
0.0
0
LINE
5
430
100
AcDbEntity
8
A-0
6
CONTINUOUS
62
6
100
AcDbLine
10
427.366575000000
20
165.674179000000
30
0.0
11
427.441487000000
21
163.184328000000
31
0.0
0
LINE
5
431
100
AcDbEntity
8
A-0
6
CONTINUOUS
62
6
100
AcDbLine
10
427.441487000000
20
163.184328000000
30
0.0
11
427.449254000000
21
161.725539000000
31
0.0
0
LINE
5
432
100
AcDbEntity
8
A-0
6
CONTINUOUS
62
6
100
AcDbLine
10
427.449254000000
20
161.725539000000
30
0.0
11
427.441487000000
21
160.266750000000
31
0.0
0
LINE
5
433
100
AcDbEntity
8
A-0
6
CONTINUOUS
62
6
100
AcDbLine
10
427.441487000000
20
160.266750000000
30
0.0
11
427.366575000000
21
157.776899000000
31
0.0
0
LINE
5
434
100
AcDbEntity
8
A-0
6
CONTINUOUS
62
6
100
AcDbLine
10
427.366575000000
20
157.776899000000
30
0.0
11
427.162029000000
21
155.357338000000
31
0.0
0
LINE
5
435
100
AcDbEntity
8
A-0
6
CONTINUOUS
62
6
100
AcDbLine
10
427.162029000000
20
155.357338000000
30
0.0
11
426.767664000000
21
153.052550000000
31
0.0
0
LINE
5
436
100
AcDbEntity
8
A-0
6
CONTINUOUS
62
6
100
AcDbLine
10
426.767664000000
20
153.052550000000
30
0.0
11
426.123296000000
21
150.907024000000
31
0.0
0
LINE
5
437
100
AcDbEntity
8
A-0
6
CONTINUOUS
62
6
100
AcDbLine
10
426.123296000000
20
150.907024000000
30
0.0
11
425.168741000000
21
148.965244000000
31
0.0
0
LINE
5
438
100
AcDbEntity
8
A-0
6
CONTINUOUS
62
6
100
AcDbLine
10
425.168741000000
20
148.965244000000
30
0.0
11
424.449254000000
21
147.949899000000
31
0.0
0
LINE
5
439
100
AcDbEntity
8
A-0
6
CONTINUOUS
62
6
100
AcDbLine
10
424.449254000000
20
147.949899000000
30
0.0
11
423.945273000000
21
147.374240000000
31
0.0
0
LINE
5
43a
100
AcDbEntity
8
A-0
6
CONTINUOUS
62
6
100
AcDbLine
10
423.945273000000
20
147.374240000000
30
0.0
11
422.971074000000
21
146.452902000000
31
0.0
0
LINE
5
43b
100
AcDbEntity
8
A-0
6
CONTINUOUS
62
6
100
AcDbLine
10
422.971074000000
20
146.452902000000
30
0.0
11
421.884693000000
21
145.607418000000
31
0.0
0
LINE
5
43c
100
AcDbEntity
8
A-0
6
CONTINUOUS
62
6
100
AcDbLine
10
421.884693000000
20
145.607418000000
30
0.0
11
420.710623000000
21
144.821225000000
31
0.0
0
LINE
5
43d
100
AcDbEntity
8
A-0
6
CONTINUOUS
62
6
100
AcDbLine
10
420.710623000000
20
144.821225000000
30
0.0
11
419.473359000000
21
144.077762000000
31
0.0
0
LINE
5
43e
100
AcDbEntity
8
A-0
6
CONTINUOUS
62
6
100
AcDbLine
10
419.473359000000
20
144.077762000000
30
0.0
11
418.197394000000
21
143.360466000000
31
0.0
0
LINE
5
43f
100
AcDbEntity
8
A-0
6
CONTINUOUS
62
6
100
AcDbLine
10
418.197394000000
20
143.360466000000
30
0.0
11
417.449254000000
21
142.949899000000
31
0.0
0
LINE
5
440
100
AcDbEntity
8
A-0
6
CONTINUOUS
62
6
100
AcDbLine
10
417.449254000000
20
132.949899000000
30
0.0
11
418.104142000000
21
133.119437000000
31
0.0
0
LINE
5
441
100
AcDbEntity
8
A-0
6
CONTINUOUS
62
6
100
AcDbLine
10
418.104142000000
20
133.119437000000
30
0.0
11
419.233915000000
21
133.414681000000
31
0.0
0
LINE
5
442
100
AcDbEntity
8
A-0
6
CONTINUOUS
62
6
100
AcDbLine
10
419.233915000000
20
133.414681000000
30
0.0
11
420.365516000000
21
133.718084000000
31
0.0
0
LINE
5
443
100
AcDbEntity
8
A-0
6
CONTINUOUS
62
6
100
AcDbLine
10
420.365516000000
20
133.718084000000
30
0.0
11
421.500100000000
21
134.034810000000
31
0.0
0
LINE
5
444
100
AcDbEntity
8
A-0
6
CONTINUOUS
62
6
100
AcDbLine
10
421.500100000000
20
134.034810000000
30
0.0
11
422.638823000000
21
134.370023000000
31
0.0
0
LINE
5
445
100
AcDbEntity
8
A-0
6
CONTINUOUS
62
6
100
AcDbLine
10
422.638823000000
20
134.370023000000
30
0.0
11
423.782841000000
21
134.728886000000
31
0.0
0
LINE
5
446
100
AcDbEntity
8
A-0
6
CONTINUOUS
62
6
100
AcDbLine
10
423.782841000000
20
134.728886000000
30
0.0
11
424.449254000000
21
134.949899000000
31
0.0
0
LINE
5
447
100
AcDbEntity
8
A-0
6
CONTINUOUS
62
6
100
AcDbLine
10
424.449254000000
20
134.949899000000
30
0.0
11
425.774297000000
21
135.419726000000
31
0.0
0
LINE
5
448
100
AcDbEntity
8
A-0
6
CONTINUOUS
62
6
100
AcDbLine
10
425.774297000000
20
135.419726000000
30
0.0
11
428.043323000000
21
136.341132000000
31
0.0
0
LINE
5
449
100
AcDbEntity
8
A-0
6
CONTINUOUS
62
6
100
AcDbLine
10
428.043323000000
20
136.341132000000
30
0.0
11
430.235822000000
21
137.422754000000
31
0.0
0
LINE
5
44a
100
AcDbEntity
8
A-0
6
CONTINUOUS
62
6
100
AcDbLine
10
430.235822000000
20
137.422754000000
30
0.0
11
432.285668000000
21
138.686985000000
31
0.0
0
LINE
5
44b
100
AcDbEntity
8
A-0
6
CONTINUOUS
62
6
100
AcDbLine
10
432.285668000000
20
138.686985000000
30
0.0
11
434.126736000000
21
140.156217000000
31
0.0
0
LINE
5
44c
100
AcDbEntity
8
A-0
6
CONTINUOUS
62
6
100
AcDbLine
10
434.126736000000
20
140.156217000000
30
0.0
11
435.692899000000
21
141.852842000000
31
0.0
0
LINE
5
44d
100
AcDbEntity
8
A-0
6
CONTINUOUS
62
6
100
AcDbLine
10
435.692899000000
20
141.852842000000
30
0.0
11
436.449254000000
21
142.949899000000
31
0.0
0
LINE
5
44e
100
AcDbEntity
8
A-0
6
CONTINUOUS
62
6
100
AcDbLine
10
436.449254000000
20
142.949899000000
30
0.0
11
436.699959000000
21
143.381745000000
31
0.0
0
LINE
5
44f
100
AcDbEntity
8
A-0
6
CONTINUOUS
62
6
100
AcDbLine
10
436.699959000000
20
143.381745000000
30
0.0
11
437.094052000000
21
144.152066000000
31
0.0
0
LINE
5
450
100
AcDbEntity
8
A-0
6
CONTINUOUS
62
6
100
AcDbLine
10
437.094052000000
20
144.152066000000
30
0.0
11
437.445334000000
21
144.950179000000
31
0.0
0
LINE
5
451
100
AcDbEntity
8
A-0
6
CONTINUOUS
62
6
100
AcDbLine
10
437.445334000000
20
144.950179000000
30
0.0
11
437.760185000000
21
145.770485000000
31
0.0
0
LINE
5
452
100
AcDbEntity
8
A-0
6
CONTINUOUS
62
6
100
AcDbLine
10
437.760185000000
20
145.770485000000
30
0.0
11
438.044988000000
21
146.607386000000
31
0.0
0
LINE
5
453
100
AcDbEntity
8
A-0
6
CONTINUOUS
62
6
100
AcDbLine
10
438.044988000000
20
146.607386000000
30
0.0
11
438.306124000000
21
147.455285000000
31
0.0
0
LINE
5
454
100
AcDbEntity
8
A-0
6
CONTINUOUS
62
6
100
AcDbLine
10
438.306124000000
20
147.455285000000
30
0.0
11
438.449254000000
21
147.949899000000
31
0.0
0
LINE
5
455
100
AcDbEntity
8
A-0
6
CONTINUOUS
62
6
100
AcDbLine
10
438.449254000000
20
147.949899000000
30
0.0
11
438.797406000000
21
149.232172000000
31
0.0
0
LINE
5
456
100
AcDbEntity
8
A-0
6
CONTINUOUS
62
6
100
AcDbLine
10
438.797406000000
20
149.232172000000
30
0.0
11
439.323938000000
21
151.453021000000
31
0.0
0
LINE
5
457
100
AcDbEntity
8
A-0
6
CONTINUOUS
62
6
100
AcDbLine
10
439.323938000000
20
151.453021000000
30
0.0
11
439.754073000000
21
153.684562000000
31
0.0
0
LINE
5
458
100
AcDbEntity
8
A-0
6
CONTINUOUS
62
6
100
AcDbLine
10
439.754073000000
20
153.684562000000
30
0.0
11
440.084242000000
21
155.924462000000
31
0.0
0
LINE
5
459
100
AcDbEntity
8
A-0
6
CONTINUOUS
62
6
100
AcDbLine
10
440.084242000000
20
155.924462000000
30
0.0
11
440.310876000000
21
158.170384000000
31
0.0
0
LINE
5
45a
100
AcDbEntity
8
A-0
6
CONTINUOUS
62
6
100
AcDbLine
10
440.310876000000
20
158.170384000000
30
0.0
11
440.430407000000
21
160.419995000000
31
0.0
0
LINE
5
45b
100
AcDbEntity
8
A-0
6
CONTINUOUS
62
6
100
AcDbLine
10
440.430407000000
20
160.419995000000
30
0.0
11
440.449254000000
21
161.725539000000
31
0.0
0
LINE
5
45c
100
AcDbEntity
8
A-0
6
CONTINUOUS
62
6
100
AcDbLine
10
440.449254000000
20
161.725539000000
30
0.0
11
440.430407000000
21
163.031083000000
31
0.0
0
LINE
5
45d
100
AcDbEntity
8
A-0
6
CONTINUOUS
62
6
100
AcDbLine
10
440.430407000000
20
163.031083000000
30
0.0
11
440.310876000000
21
165.280694000000
31
0.0
0
LINE
5
45e
100
AcDbEntity
8
A-0
6
CONTINUOUS
62
6
100
AcDbLine
10
440.310876000000
20
165.280694000000
30
0.0
11
440.084242000000
21
167.526616000000
31
0.0
0
LINE
5
45f
100
AcDbEntity
8
A-0
6
CONTINUOUS
62
6
100
AcDbLine
10
440.084242000000
20
167.526616000000
30
0.0
11
439.754073000000
21
169.766516000000
31
0.0
0
LINE
5
460
100
AcDbEntity
8
A-0
6
CONTINUOUS
62
6
100
AcDbLine
10
439.754073000000
20
169.766516000000
30
0.0
11
439.323938000000
21
171.998057000000
31
0.0
0
LINE
5
461
100
AcDbEntity
8
A-0
6
CONTINUOUS
62
6
100
AcDbLine
10
439.323938000000
20
171.998057000000
30
0.0
11
438.797406000000
21
174.218906000000
31
0.0
0
LINE
5
462
100
AcDbEntity
8
A-0
6
CONTINUOUS
62
6
100
AcDbLine
10
438.797406000000
20
174.218906000000
30
0.0
11
438.449254000000
21
175.501179000000
31
0.0
0
LINE
5
463
100
AcDbEntity
8
A-0
6
CONTINUOUS
62
6
100
AcDbLine
10
438.449254000000
20
175.501179000000
30
0.0
11
438.306124000000
21
175.995793000000
31
0.0
0
LINE
5
464
100
AcDbEntity
8
A-0
6
CONTINUOUS
62
6
100
AcDbLine
10
438.306124000000
20
175.995793000000
30
0.0
11
438.044988000000
21
176.843692000000
31
0.0
0
LINE
5
465
100
AcDbEntity
8
A-0
6
CONTINUOUS
62
6
100
AcDbLine
10
438.044988000000
20
176.843692000000
30
0.0
11
437.760185000000
21
177.680593000000
31
0.0
0
LINE
5
466
100
AcDbEntity
8
A-0
6
CONTINUOUS
62
6
100
AcDbLine
10
437.760185000000
20
177.680593000000
30
0.0
11
437.445334000000
21
178.500899000000
31
0.0
0
LINE
5
467
100
AcDbEntity
8
A-0
6
CONTINUOUS
62
6
100
AcDbLine
10
437.445334000000
20
178.500899000000
30
0.0
11
437.094052000000
21
179.299012000000
31
0.0
0
LINE
5
468
100
AcDbEntity
8
A-0
6
CONTINUOUS
62
6
100
AcDbLine
10
437.094052000000
20
179.299012000000
30
0.0
11
436.699959000000
21
180.069333000000
31
0.0
0
LINE
5
469
100
AcDbEntity
8
A-0
6
CONTINUOUS
62
6
100
AcDbLine
10
436.699959000000
20
180.069333000000
30
0.0
11
436.449254000000
21
180.501179000000
31
0.0
0
LINE
5
46a
100
AcDbEntity
8
A-0
6
CONTINUOUS
62
6
100
AcDbLine
10
436.449254000000
20
180.501179000000
30
0.0
11
435.692899000000
21
181.598236000000
31
0.0
0
LINE
5
46b
100
AcDbEntity
8
A-0
6
CONTINUOUS
62
6
100
AcDbLine
10
435.692899000000
20
181.598236000000
30
0.0
11
434.126736000000
21
183.294861000000
31
0.0
0
LINE
5
46c
100
AcDbEntity
8
A-0
6
CONTINUOUS
62
6
100
AcDbLine
10
434.126736000000
20
183.294861000000
30
0.0
11
432.285668000000
21
184.764093000000
31
0.0
0
LINE
5
46d
100
AcDbEntity
8
A-0
6
CONTINUOUS
62
6
100
AcDbLine
10
432.285668000000
20
184.764093000000
30
0.0
11
430.235822000000
21
186.028324000000
31
0.0
0
LINE
5
46e
100
AcDbEntity
8
A-0
6
CONTINUOUS
62
6
100
AcDbLine
10
430.235822000000
20
186.028324000000
30
0.0
11
428.043323000000
21
187.109946000000
31
0.0
0
LINE
5
46f
100
AcDbEntity
8
A-0
6
CONTINUOUS
62
6
100
AcDbLine
10
428.043323000000
20
187.109946000000
30
0.0
11
425.774297000000
21
188.031352000000
31
0.0
0
LINE
5
470
100
AcDbEntity
8
A-0
6
CONTINUOUS
62
6
100
AcDbLine
10
425.774297000000
20
188.031352000000
30
0.0
11
424.449254000000
21
188.501179000000
31
0.0
0
LINE
5
471
100
AcDbEntity
8
A-0
6
CONTINUOUS
62
6
100
AcDbLine
10
424.449254000000
20
188.501179000000
30
0.0
11
423.782841000000
21
188.722192000000
31
0.0
0
LINE
5
472
100
AcDbEntity
8
A-0
6
CONTINUOUS
62
6
100
AcDbLine
10
423.782841000000
20
188.722192000000
30
0.0
11
422.638823000000
21
189.081055000000
31
0.0
0
LINE
5
473
100
AcDbEntity
8
A-0
6
CONTINUOUS
62
6
100
AcDbLine
10
422.638823000000
20
189.081055000000
30
0.0
11
421.500100000000
21
189.416268000000
31
0.0
0
LINE
5
474
100
AcDbEntity
8
A-0
6
CONTINUOUS
62
6
100
AcDbLine
10
421.500100000000
20
189.416268000000
30
0.0
11
420.365516000000
21
189.732994000000
31
0.0
0
LINE
5
475
100
AcDbEntity
8
A-0
6
CONTINUOUS
62
6
100
AcDbLine
10
420.365516000000
20
189.732994000000
30
0.0
11
419.233915000000
21
190.036397000000
31
0.0
0
LINE
5
476
100
AcDbEntity
8
A-0
6
CONTINUOUS
62
6
100
AcDbLine
10
419.233915000000
20
190.036397000000
30
0.0
11
418.104142000000
21
190.331641000000
31
0.0
0
LINE
5
477
100
AcDbEntity
8
A-0
6
CONTINUOUS
62
6
100
AcDbLine
10
418.104142000000
20
190.331641000000
30
0.0
11
417.449254000000
21
190.501179000000
31
0.0
0
LINE
5
478
100
AcDbEntity
8
A-0
6
CONTINUOUS
62
6
100
AcDbLine
10
453.449254000000
20
190.501179000000
30
0.0
11
473.785857000000
21
146.889194000000
31
0.0
0
LINE
5
479
100
AcDbEntity
8
A-0
6
CONTINUOUS
62
6
100
AcDbLine
10
494.122460000000
20
190.501179000000
30
0.0
11
473.785857000000
21
146.889194000000
31
0.0
0
LINE
5
47a
100
AcDbEntity
8
A-0
6
CONTINUOUS
62
6
100
AcDbLine
10
440.449254000000
20
190.501179000000
30
0.0
11
467.285857000000
21
132.949899000000
31
0.0
0
LINE
5
47b
100
AcDbEntity
8
A-0
6
CONTINUOUS
62
6
100
AcDbLine
10
480.285857000000
20
132.949899000000
30
0.0
11
507.122460000000
21
190.501179000000
31
0.0
0
LINE
5
47c
100
AcDbEntity
8
A-0
6
CONTINUOUS
62
6
100
AcDbLine
10
517.122460000000
20
190.501179000000
30
0.0
11
490.285857000000
21
132.949899000000
31
0.0
0
LINE
5
47d
100
AcDbEntity
8
A-0
6
CONTINUOUS
62
6
100
AcDbLine
10
530.476800000000
20
190.501179000000
30
0.0
11
557.313402000000
21
132.949899000000
31
0.0
0
LINE
5
47e
100
AcDbEntity
8
A-0
6
CONTINUOUS
62
6
100
AcDbLine
10
331.245923000000
20
145.949899000000
30
0.0
11
358.694726000000
21
145.949899000000
31
0.0
0
LINE
5
47f
100
AcDbEntity
8
A-0
6
CONTINUOUS
62
6
100
AcDbLine
10
509.347857000000
20
145.949899000000
30
0.0
11
538.251403000000
21
145.949899000000
31
0.0
0
LINE
5
480
100
AcDbEntity
8
A-0
6
CONTINUOUS
62
6
100
AcDbLine
10
514.010933000000
20
155.949899000000
30
0.0
11
533.588326000000
21
155.949899000000
31
0.0
0
LINE
5
481
100
AcDbEntity
8
A-0
6
CONTINUOUS
62
6
100
AcDbLine
10
576.078887000000
20
180.501179000000
30
0.0
11
605.792225000000
21
132.949899000000
31
0.0
0
LINE
5
482
100
AcDbEntity
8
A-0
6
CONTINUOUS
62
6
100
AcDbLine
10
611.866481000000
20
143.986936000000
30
0.0
11
611.866481000000
21
190.501179000000
31
0.0
0
LINE
5
483
100
AcDbEntity
8
A-0
6
CONTINUOUS
62
6
100
AcDbLine
10
622.866481000000
20
132.949899000000
30
0.0
11
622.866481000000
21
190.501179000000
31
0.0
0
LINE
5
484
100
AcDbEntity
8
A-0
6
CONTINUOUS
62
6
100
AcDbLine
10
582.801156000000
20
190.501179000000
30
0.0
11
611.866481000000
21
143.986936000000
31
0.0
0
LINE
5
485
100
AcDbEntity
8
A-0
6
CONTINUOUS
62
6
100
AcDbLine
10
563.078887000000
20
190.501179000000
30
0.0
11
563.078887000000
21
132.949899000000
31
0.0
0
LINE
5
486
100
AcDbEntity
8
A-0
6
CONTINUOUS
62
6
100
AcDbLine
10
417.449254000000
20
180.501179000000
30
0.0
11
397.449254000000
21
180.501179000000
31
0.0
0
LINE
5
487
100
AcDbEntity
8
A-0
6
CONTINUOUS
62
6
100
AcDbLine
10
397.449254000000
20
142.949899000000
30
0.0
11
417.449254000000
21
142.949899000000
31
0.0
0
LINE
5
488
100
AcDbEntity
8
A-0
6
CONTINUOUS
62
6
100
AcDbLine
10
533.588326000000
20
155.949899000000
30
0.0
11
523.799630000000
21
176.941826000000
31
0.0
0
LINE
5
489
100
AcDbEntity
8
A-0
6
CONTINUOUS
62
6
100
AcDbLine
10
514.010933000000
20
155.949899000000
30
0.0
11
523.799630000000
21
176.941826000000
31
0.0
0
LINE
5
48a
100
AcDbEntity
8
A-0
6
CONTINUOUS
62
6
100
AcDbLine
10
503.285857000000
20
132.949899000000
30
0.0
11
509.347857000000
21
145.949899000000
31
0.0
0
LINE
5
48b
100
AcDbEntity
8
A-0
6
CONTINUOUS
62
6
100
AcDbLine
10
544.313402000000
20
132.949899000000
30
0.0
11
538.251403000000
21
145.949899000000
31
0.0
0
LINE
5
48c
100
AcDbEntity
8
A-0
6
CONTINUOUS
62
6
100
AcDbLine
10
576.078887000000
20
180.501179000000
30
0.0
11
576.078887000000
21
132.949899000000
31
0.0
0
LINE
5
48d
100
AcDbEntity
8
A-0
6
CONTINUOUS
62
6
100
AcDbLine
10
312.183924000000
20
132.949899000000
30
0.0
11
325.183924000000
21
132.949899000000
31
0.0
0
LINE
5
48e
100
AcDbEntity
8
A-0
6
CONTINUOUS
62
6
100
AcDbLine
10
364.756726000000
20
132.949899000000
30
0.0
11
377.756726000000
21
132.949899000000
31
0.0
0
LINE
5
48f
100
AcDbEntity
8
A-0
6
CONTINUOUS
62
6
100
AcDbLine
10
350.920123000000
20
190.501179000000
30
0.0
11
377.756726000000
21
132.949899000000
31
0.0
0
LINE
5
490
100
AcDbEntity
8
A-0
6
CONTINUOUS
62
6
100
AcDbLine
10
350.920123000000
20
190.501179000000
30
0.0
11
339.020526000000
21
190.501179000000
31
0.0
0
LINE
5
491
100
AcDbEntity
8
A-0
6
CONTINUOUS
62
6
100
AcDbLine
10
384.449254000000
20
190.501179000000
30
0.0
11
384.449254000000
21
132.949899000000
31
0.0
0
LINE
5
492
100
AcDbEntity
8
A-0
6
CONTINUOUS
62
6
100
AcDbLine
10
397.449254000000
20
180.501179000000
30
0.0
11
397.449254000000
21
142.949899000000
31
0.0
0
LINE
5
493
100
AcDbEntity
8
A-0
6
CONTINUOUS
62
6
100
AcDbLine
10
384.449254000000
20
132.949899000000
30
0.0
11
417.449254000000
21
132.949899000000
31
0.0
0
LINE
5
494
100
AcDbEntity
8
A-0
6
CONTINUOUS
62
6
100
AcDbLine
10
417.449254000000
20
190.501179000000
30
0.0
11
384.449254000000
21
190.501179000000
31
0.0
0
LINE
5
495
100
AcDbEntity
8
A-0
6
CONTINUOUS
62
6
100
AcDbLine
10
453.449254000000
20
190.501179000000
30
0.0
11
440.449254000000
21
190.501179000000
31
0.0
0
LINE
5
496
100
AcDbEntity
8
A-0
6
CONTINUOUS
62
6
100
AcDbLine
10
467.285857000000
20
132.949899000000
30
0.0
11
480.285857000000
21
132.949899000000
31
0.0
0
LINE
5
497
100
AcDbEntity
8
A-0
6
CONTINUOUS
62
6
100
AcDbLine
10
507.122460000000
20
190.501179000000
30
0.0
11
494.122460000000
21
190.501179000000
31
0.0
0
LINE
5
498
100
AcDbEntity
8
A-0
6
CONTINUOUS
62
6
100
AcDbLine
10
490.285857000000
20
132.949899000000
30
0.0
11
503.285857000000
21
132.949899000000
31
0.0
0
LINE
5
499
100
AcDbEntity
8
A-0
6
CONTINUOUS
62
6
100
AcDbLine
10
544.313402000000
20
132.949899000000
30
0.0
11
557.313402000000
21
132.949899000000
31
0.0
0
LINE
5
49a
100
AcDbEntity
8
A-0
6
CONTINUOUS
62
6
100
AcDbLine
10
563.078887000000
20
132.949899000000
30
0.0
11
576.078887000000
21
132.949899000000
31
0.0
0
LINE
5
49b
100
AcDbEntity
8
A-0
6
CONTINUOUS
62
6
100
AcDbLine
10
605.792225000000
20
132.949899000000
30
0.0
11
622.866481000000
21
132.949899000000
31
0.0
0
LINE
5
49c
100
AcDbEntity
8
A-0
6
CONTINUOUS
62
6
100
AcDbLine
10
622.866481000000
20
190.501179000000
30
0.0
11
611.866481000000
21
190.501179000000
31
0.0
0
LINE
5
49d
100
AcDbEntity
8
A-0
6
CONTINUOUS
62
6
100
AcDbLine
10
582.801156000000
20
190.501179000000
30
0.0
11
563.078887000000
21
190.501179000000
31
0.0
0
LINE
5
49e
100
AcDbEntity
8
A-0
6
CONTINUOUS
62
6
100
AcDbLine
10
530.476800000000
20
190.501179000000
30
0.0
11
517.122460000000
21
190.501179000000
31
0.0
0
LINE
5
49f
100
AcDbEntity
8
A-0
6
CONTINUOUS
62
6
100
AcDbLine
10
312.907298000000
20
134.501179000000
30
0.0
11
325.907298000000
21
134.501179000000
31
0.0
0
LINE
5
4a0
100
AcDbEntity
8
A-0
6
CONTINUOUS
62
6
100
AcDbLine
10
364.033352000000
20
134.501179000000
30
0.0
11
377.033352000000
21
134.501179000000
31
0.0
0
LINE
5
4a1
100
AcDbEntity
8
A-0
6
CONTINUOUS
62
6
100
AcDbLine
10
384.449254000000
20
134.501179000000
30
0.0
11
423.056935000000
21
134.501179000000
31
0.0
0
LINE
5
4a2
100
AcDbEntity
8
A-0
6
CONTINUOUS
62
6
100
AcDbLine
10
466.562483000000
20
134.501179000000
30
0.0
11
481.009231000000
21
134.501179000000
31
0.0
0
LINE
5
4a3
100
AcDbEntity
8
A-0
6
CONTINUOUS
62
6
100
AcDbLine
10
491.009231000000
20
134.501179000000
30
0.0
11
504.009231000000
21
134.501179000000
31
0.0
0
LINE
5
4a4
100
AcDbEntity
8
A-0
6
CONTINUOUS
62
6
100
AcDbLine
10
543.590028000000
20
134.501179000000
30
0.0
11
556.590028000000
21
134.501179000000
31
0.0
0
LINE
5
4a5
100
AcDbEntity
8
A-0
6
CONTINUOUS
62
6
100
AcDbLine
10
563.078887000000
20
134.501179000000
30
0.0
11
576.078887000000
21
134.501179000000
31
0.0
0
LINE
5
4a6
100
AcDbEntity
8
A-0
6
CONTINUOUS
62
6
100
AcDbLine
10
604.822877000000
20
134.501179000000
30
0.0
11
622.866481000000
21
134.501179000000
31
0.0
0
LINE
5
4a7
100
AcDbEntity
8
A-0
6
CONTINUOUS
62
6
100
AcDbLine
10
313.839913000000
20
136.501179000000
30
0.0
11
326.839913000000
21
136.501179000000
31
0.0
0
LINE
5
4a8
100
AcDbEntity
8
A-0
6
CONTINUOUS
62
6
100
AcDbLine
10
363.100736000000
20
136.501179000000
30
0.0
11
376.100736000000
21
136.501179000000
31
0.0
0
LINE
5
4a9
100
AcDbEntity
8
A-0
6
CONTINUOUS
62
6
100
AcDbLine
10
384.449254000000
20
136.501179000000
30
0.0
11
428.367747000000
21
136.501179000000
31
0.0
0
LINE
5
4aa
100
AcDbEntity
8
A-0
6
CONTINUOUS
62
6
100
AcDbLine
10
465.629868000000
20
136.501179000000
30
0.0
11
481.941846000000
21
136.501179000000
31
0.0
0
LINE
5
4ab
100
AcDbEntity
8
A-0
6
CONTINUOUS
62
6
100
AcDbLine
10
491.941846000000
20
136.501179000000
30
0.0
11
504.941846000000
21
136.501179000000
31
0.0
0
LINE
5
4ac
100
AcDbEntity
8
A-0
6
CONTINUOUS
62
6
100
AcDbLine
10
542.657413000000
20
136.501179000000
30
0.0
11
555.657413000000
21
136.501179000000
31
0.0
0
LINE
5
4ad
100
AcDbEntity
8
A-0
6
CONTINUOUS
62
6
100
AcDbLine
10
563.078887000000
20
136.501179000000
30
0.0
11
576.078887000000
21
136.501179000000
31
0.0
0
LINE
5
4ae
100
AcDbEntity
8
A-0
6
CONTINUOUS
62
6
100
AcDbLine
10
603.573139000000
20
136.501179000000
30
0.0
11
622.866481000000
21
136.501179000000
31
0.0
0
LINE
5
4af
100
AcDbEntity
8
A-0
6
CONTINUOUS
62
6
100
AcDbLine
10
314.772528000000
20
138.501179000000
30
0.0
11
327.772528000000
21
138.501179000000
31
0.0
0
LINE
5
4b0
100
AcDbEntity
8
A-0
6
CONTINUOUS
62
6
100
AcDbLine
10
362.168121000000
20
138.501179000000
30
0.0
11
375.168121000000
21
138.501179000000
31
0.0
0
LINE
5
4b1
100
AcDbEntity
8
A-0
6
CONTINUOUS
62
6
100
AcDbLine
10
384.449254000000
20
138.501179000000
30
0.0
11
431.984400000000
21
138.501179000000
31
0.0
0
LINE
5
4b2
100
AcDbEntity
8
A-0
6
CONTINUOUS
62
6
100
AcDbLine
10
464.697253000000
20
138.501179000000
30
0.0
11
482.874462000000
21
138.501179000000
31
0.0
0
LINE
5
4b3
100
AcDbEntity
8
A-0
6
CONTINUOUS
62
6
100
AcDbLine
10
492.874462000000
20
138.501179000000
30
0.0
11
505.874462000000
21
138.501179000000
31
0.0
0
LINE
5
4b4
100
AcDbEntity
8
A-0
6
CONTINUOUS
62
6
100
AcDbLine
10
541.724798000000
20
138.501179000000
30
0.0
11
554.724798000000
21
138.501179000000
31
0.0
0
LINE
5
4b5
100
AcDbEntity
8
A-0
6
CONTINUOUS
62
6
100
AcDbLine
10
563.078887000000
20
138.501179000000
30
0.0
11
576.078887000000
21
138.501179000000
31
0.0
0
LINE
5
4b6
100
AcDbEntity
8
A-0
6
CONTINUOUS
62
6
100
AcDbLine
10
602.323400000000
20
138.501179000000
30
0.0
11
622.866481000000
21
138.501179000000
31
0.0
0
LINE
5
4b7
100
AcDbEntity
8
A-0
6
CONTINUOUS
62
6
100
AcDbLine
10
315.705144000000
20
140.501179000000
30
0.0
11
328.705144000000
21
140.501179000000
31
0.0
0
LINE
5
4b8
100
AcDbEntity
8
A-0
6
CONTINUOUS
62
6
100
AcDbLine
10
361.235506000000
20
140.501179000000
30
0.0
11
374.235506000000
21
140.501179000000
31
0.0
0
LINE
5
4b9
100
AcDbEntity
8
A-0
6
CONTINUOUS
62
6
100
AcDbLine
10
384.449254000000
20
140.501179000000
30
0.0
11
434.445172000000
21
140.501179000000
31
0.0
0
LINE
5
4ba
100
AcDbEntity
8
A-0
6
CONTINUOUS
62
6
100
AcDbLine
10
463.764637000000
20
140.501179000000
30
0.0
11
483.807077000000
21
140.501179000000
31
0.0
0
LINE
5
4bb
100
AcDbEntity
8
A-0
6
CONTINUOUS
62
6
100
AcDbLine
10
493.807077000000
20
140.501179000000
30
0.0
11
506.807077000000
21
140.501179000000
31
0.0
0
LINE
5
4bc
100
AcDbEntity
8
A-0
6
CONTINUOUS
62
6
100
AcDbLine
10
540.792183000000
20
140.501179000000
30
0.0
11
553.792183000000
21
140.501179000000
31
0.0
0
LINE
5
4bd
100
AcDbEntity
8
A-0
6
CONTINUOUS
62
6
100
AcDbLine
10
563.078887000000
20
140.501179000000
30
0.0
11
576.078887000000
21
140.501179000000
31
0.0
0
LINE
5
4be
100
AcDbEntity
8
A-0
6
CONTINUOUS
62
6
100
AcDbLine
10
601.073661000000
20
140.501179000000
30
0.0
11
622.866481000000
21
140.501179000000
31
0.0
0
LINE
5
4bf
100
AcDbEntity
8
A-0
6
CONTINUOUS
62
6
100
AcDbLine
10
316.637759000000
20
142.501179000000
30
0.0
11
329.637759000000
21
142.501179000000
31
0.0
0
LINE
5
4c0
100
AcDbEntity
8
A-0
6
CONTINUOUS
62
6
100
AcDbLine
10
360.302890000000
20
142.501179000000
30
0.0
11
373.302890000000
21
142.501179000000
31
0.0
0
LINE
5
4c1
100
AcDbEntity
8
A-0
6
CONTINUOUS
62
6
100
AcDbLine
10
384.449254000000
20
142.501179000000
30
0.0
11
436.139889000000
21
142.501179000000
31
0.0
0
LINE
5
4c2
100
AcDbEntity
8
A-0
6
CONTINUOUS
62
6
100
AcDbLine
10
462.832022000000
20
142.501179000000
30
0.0
11
484.739692000000
21
142.501179000000
31
0.0
0
LINE
5
4c3
100
AcDbEntity
8
A-0
6
CONTINUOUS
62
6
100
AcDbLine
10
494.739692000000
20
142.501179000000
30
0.0
11
507.739692000000
21
142.501179000000
31
0.0
0
LINE
5
4c4
100
AcDbEntity
8
A-0
6
CONTINUOUS
62
6
100
AcDbLine
10
539.859567000000
20
142.501179000000
30
0.0
11
552.859567000000
21
142.501179000000
31
0.0
0
LINE
5
4c5
100
AcDbEntity
8
A-0
6
CONTINUOUS
62
6
100
AcDbLine
10
563.078887000000
20
142.501179000000
30
0.0
11
576.078887000000
21
142.501179000000
31
0.0
0
LINE
5
4c6
100
AcDbEntity
8
A-0
6
CONTINUOUS
62
6
100
AcDbLine
10
599.823922000000
20
142.501179000000
30
0.0
11
622.866481000000
21
142.501179000000
31
0.0
0
LINE
5
4c7
100
AcDbEntity
8
A-0
6
CONTINUOUS
62
6
100
AcDbLine
10
317.570374000000
20
144.501179000000
30
0.0
11
330.570374000000
21
144.501179000000
31
0.0
0
LINE
5
4c8
100
AcDbEntity
8
A-0
6
CONTINUOUS
62
6
100
AcDbLine
10
359.370275000000
20
144.501179000000
30
0.0
11
372.370275000000
21
144.501179000000
31
0.0
0
LINE
5
4c9
100
AcDbEntity
8
A-0
6
CONTINUOUS
62
6
100
AcDbLine
10
384.449254000000
20
144.501179000000
30
0.0
11
397.449254000000
21
144.501179000000
31
0.0
0
LINE
5
4ca
100
AcDbEntity
8
A-0
6
CONTINUOUS
62
6
100
AcDbLine
10
420.178007000000
20
144.501179000000
30
0.0
11
437.247711000000
21
144.501179000000
31
0.0
0
LINE
5
4cb
100
AcDbEntity
8
A-0
6
CONTINUOUS
62
6
100
AcDbLine
10
461.899407000000
20
144.501179000000
30
0.0
11
485.672308000000
21
144.501179000000
31
0.0
0
LINE
5
4cc
100
AcDbEntity
8
A-0
6
CONTINUOUS
62
6
100
AcDbLine
10
495.672308000000
20
144.501179000000
30
0.0
11
508.672308000000
21
144.501179000000
31
0.0
0
LINE
5
4cd
100
AcDbEntity
8
A-0
6
CONTINUOUS
62
6
100
AcDbLine
10
538.926952000000
20
144.501179000000
30
0.0
11
551.926952000000
21
144.501179000000
31
0.0
0
LINE
5
4ce
100
AcDbEntity
8
A-0
6
CONTINUOUS
62
6
100
AcDbLine
10
563.078887000000
20
144.501179000000
30
0.0
11
576.078887000000
21
144.501179000000
31
0.0
0
LINE
5
4cf
100
AcDbEntity
8
A-0
6
CONTINUOUS
62
6
100
AcDbLine
10
598.574184000000
20
144.501179000000
30
0.0
11
611.545146000000
21
144.501179000000
31
0.0
0
LINE
5
4d0
100
AcDbEntity
8
A-0
6
CONTINUOUS
62
6
100
AcDbLine
10
611.866481000000
20
144.501179000000
30
0.0
11
622.866481000000
21
144.501179000000
31
0.0
0
LINE
5
4d1
100
AcDbEntity
8
A-0
6
CONTINUOUS
62
6
100
AcDbLine
10
318.502990000000
20
146.501179000000
30
0.0
11
371.437660000000
21
146.501179000000
31
0.0
0
LINE
5
4d2
100
AcDbEntity
8
A-0
6
CONTINUOUS
62
6
100
AcDbLine
10
384.449254000000
20
146.501179000000
30
0.0
11
397.449254000000
21
146.501179000000
31
0.0
0
LINE
5
4d3
100
AcDbEntity
8
A-0
6
CONTINUOUS
62
6
100
AcDbLine
10
423.022121000000
20
146.501179000000
30
0.0
11
438.008845000000
21
146.501179000000
31
0.0
0
LINE
5
4d4
100
AcDbEntity
8
A-0
6
CONTINUOUS
62
6
100
AcDbLine
10
460.966791000000
20
146.501179000000
30
0.0
11
486.604923000000
21
146.501179000000
31
0.0
0
LINE
5
4d5
100
AcDbEntity
8
A-0
6
CONTINUOUS
62
6
100
AcDbLine
10
496.604923000000
20
146.501179000000
30
0.0
11
550.994337000000
21
146.501179000000
31
0.0
0
LINE
5
4d6
100
AcDbEntity
8
A-0
6
CONTINUOUS
62
6
100
AcDbLine
10
563.078887000000
20
146.501179000000
30
0.0
11
576.078887000000
21
146.501179000000
31
0.0
0
LINE
5
4d7
100
AcDbEntity
8
A-0
6
CONTINUOUS
62
6
100
AcDbLine
10
597.324445000000
20
146.501179000000
30
0.0
11
610.295407000000
21
146.501179000000
31
0.0
0
LINE
5
4d8
100
AcDbEntity
8
A-0
6
CONTINUOUS
62
6
100
AcDbLine
10
611.866481000000
20
146.501179000000
30
0.0
11
622.866481000000
21
146.501179000000
31
0.0
0
LINE
5
4d9
100
AcDbEntity
8
A-0
6
CONTINUOUS
62
6
100
AcDbLine
10
319.435605000000
20
148.501179000000
30
0.0
11
370.505044000000
21
148.501179000000
31
0.0
0
LINE
5
4da
100
AcDbEntity
8
A-0
6
CONTINUOUS
62
6
100
AcDbLine
10
384.449254000000
20
148.501179000000
30
0.0
11
397.449254000000
21
148.501179000000
31
0.0
0
LINE
5
4db
100
AcDbEntity
8
A-0
6
CONTINUOUS
62
6
100
AcDbLine
10
424.839899000000
20
148.501179000000
30
0.0
11
438.598933000000
21
148.501179000000
31
0.0
0
LINE
5
4dc
100
AcDbEntity
8
A-0
6
CONTINUOUS
62
6
100
AcDbLine
10
460.034176000000
20
148.501179000000
30
0.0
11
473.034176000000
21
148.501179000000
31
0.0
0
LINE
5
4dd
100
AcDbEntity
8
A-0
6
CONTINUOUS
62
6
100
AcDbLine
10
474.537538000000
20
148.501179000000
30
0.0
11
487.537538000000
21
148.501179000000
31
0.0
0
LINE
5
4de
100
AcDbEntity
8
A-0
6
CONTINUOUS
62
6
100
AcDbLine
10
497.537538000000
20
148.501179000000
30
0.0
11
550.061721000000
21
148.501179000000
31
0.0
0
LINE
5
4df
100
AcDbEntity
8
A-0
6
CONTINUOUS
62
6
100
AcDbLine
10
563.078887000000
20
148.501179000000
30
0.0
11
576.078887000000
21
148.501179000000
31
0.0
0
LINE
5
4e0
100
AcDbEntity
8
A-0
6
CONTINUOUS
62
6
100
AcDbLine
10
596.074706000000
20
148.501179000000
30
0.0
11
609.045669000000
21
148.501179000000
31
0.0
0
LINE
5
4e1
100
AcDbEntity
8
A-0
6
CONTINUOUS
62
6
100
AcDbLine
10
611.866481000000
20
148.501179000000
30
0.0
11
622.866481000000
21
148.501179000000
31
0.0
0
LINE
5
4e2
100
AcDbEntity
8
A-0
6
CONTINUOUS
62
6
100
AcDbLine
10
320.368220000000
20
150.501179000000
30
0.0
11
369.572429000000
21
150.501179000000
31
0.0
0
LINE
5
4e3
100
AcDbEntity
8
A-0
6
CONTINUOUS
62
6
100
AcDbLine
10
384.449254000000
20
150.501179000000
30
0.0
11
397.449254000000
21
150.501179000000
31
0.0
0
LINE
5
4e4
100
AcDbEntity
8
A-0
6
CONTINUOUS
62
6
100
AcDbLine
10
425.923788000000
20
150.501179000000
30
0.0
11
439.098270000000
21
150.501179000000
31
0.0
0
LINE
5
4e5
100
AcDbEntity
8
A-0
6
CONTINUOUS
62
6
100
AcDbLine
10
459.101561000000
20
150.501179000000
30
0.0
11
472.101561000000
21
150.501179000000
31
0.0
0
LINE
5
4e6
100
AcDbEntity
8
A-0
6
CONTINUOUS
62
6
100
AcDbLine
10
475.470154000000
20
150.501179000000
30
0.0
11
488.470154000000
21
150.501179000000
31
0.0
0
LINE
5
4e7
100
AcDbEntity
8
A-0
6
CONTINUOUS
62
6
100
AcDbLine
10
498.470154000000
20
150.501179000000
30
0.0
11
549.129106000000
21
150.501179000000
31
0.0
0
LINE
5
4e8
100
AcDbEntity
8
A-0
6
CONTINUOUS
62
6
100
AcDbLine
10
563.078887000000
20
150.501179000000
30
0.0
11
576.078887000000
21
150.501179000000
31
0.0
0
LINE
5
4e9
100
AcDbEntity
8
A-0
6
CONTINUOUS
62
6
100
AcDbLine
10
594.824968000000
20
150.501179000000
30
0.0
11
607.795930000000
21
150.501179000000
31
0.0
0
LINE
5
4ea
100
AcDbEntity
8
A-0
6
CONTINUOUS
62
6
100
AcDbLine
10
611.866481000000
20
150.501179000000
30
0.0
11
622.866481000000
21
150.501179000000
31
0.0
0
LINE
5
4eb
100
AcDbEntity
8
A-0
6
CONTINUOUS
62
6
100
AcDbLine
10
321.300835000000
20
152.501179000000
30
0.0
11
368.639814000000
21
152.501179000000
31
0.0
0
LINE
5
4ec
100
AcDbEntity
8
A-0
6
CONTINUOUS
62
6
100
AcDbLine
10
384.449254000000
20
152.501179000000
30
0.0
11
397.449254000000
21
152.501179000000
31
0.0
0
LINE
5
4ed
100
AcDbEntity
8
A-0
6
CONTINUOUS
62
6
100
AcDbLine
10
426.602070000000
20
152.501179000000
30
0.0
11
439.525973000000
21
152.501179000000
31
0.0
0
LINE
5
4ee
100
AcDbEntity
8
A-0
6
CONTINUOUS
62
6
100
AcDbLine
10
458.168945000000
20
152.501179000000
30
0.0
11
471.168945000000
21
152.501179000000
31
0.0
0
LINE
5
4ef
100
AcDbEntity
8
A-0
6
CONTINUOUS
62
6
100
AcDbLine
10
476.402769000000
20
152.501179000000
30
0.0
11
489.402769000000
21
152.501179000000
31
0.0
0
LINE
5
4f0
100
AcDbEntity
8
A-0
6
CONTINUOUS
62
6
100
AcDbLine
10
499.402769000000
20
152.501179000000
30
0.0
11
548.196491000000
21
152.501179000000
31
0.0
0
LINE
5
4f1
100
AcDbEntity
8
A-0
6
CONTINUOUS
62
6
100
AcDbLine
10
563.078887000000
20
152.501179000000
30
0.0
11
576.078887000000
21
152.501179000000
31
0.0
0
LINE
5
4f2
100
AcDbEntity
8
A-0
6
CONTINUOUS
62
6
100
AcDbLine
10
593.575229000000
20
152.501179000000
30
0.0
11
606.546191000000
21
152.501179000000
31
0.0
0
LINE
5
4f3
100
AcDbEntity
8
A-0
6
CONTINUOUS
62
6
100
AcDbLine
10
611.866481000000
20
152.501179000000
30
0.0
11
622.866481000000
21
152.501179000000
31
0.0
0
LINE
5
4f4
100
AcDbEntity
8
A-0
6
CONTINUOUS
62
6
100
AcDbLine
10
322.233451000000
20
154.501179000000
30
0.0
11
367.707198000000
21
154.501179000000
31
0.0
0
LINE
5
4f5
100
AcDbEntity
8
A-0
6
CONTINUOUS
62
6
100
AcDbLine
10
384.449254000000
20
154.501179000000
30
0.0
11
397.449254000000
21
154.501179000000
31
0.0
0
LINE
5
4f6
100
AcDbEntity
8
A-0
6
CONTINUOUS
62
6
100
AcDbLine
10
427.015534000000
20
154.501179000000
30
0.0
11
439.874445000000
21
154.501179000000
31
0.0
0
LINE
5
4f7
100
AcDbEntity
8
A-0
6
CONTINUOUS
62
6
100
AcDbLine
10
457.236330000000
20
154.501179000000
30
0.0
11
470.236330000000
21
154.501179000000
31
0.0
0
LINE
5
4f8
100
AcDbEntity
8
A-0
6
CONTINUOUS
62
6
100
AcDbLine
10
477.335384000000
20
154.501179000000
30
0.0
11
490.335384000000
21
154.501179000000
31
0.0
0
LINE
5
4f9
100
AcDbEntity
8
A-0
6
CONTINUOUS
62
6
100
AcDbLine
10
500.335384000000
20
154.501179000000
30
0.0
11
547.263875000000
21
154.501179000000
31
0.0
0
LINE
5
4fa
100
AcDbEntity
8
A-0
6
CONTINUOUS
62
6
100
AcDbLine
10
563.078887000000
20
154.501179000000
30
0.0
11
576.078887000000
21
154.501179000000
31
0.0
0
LINE
5
4fb
100
AcDbEntity
8
A-0
6
CONTINUOUS
62
6
100
AcDbLine
10
592.325490000000
20
154.501179000000
30
0.0
11
605.296453000000
21
154.501179000000
31
0.0
0
LINE
5
4fc
100
AcDbEntity
8
A-0
6
CONTINUOUS
62
6
100
AcDbLine
10
611.866481000000
20
154.501179000000
30
0.0
11
622.866481000000
21
154.501179000000
31
0.0
0
LINE
5
4fd
100
AcDbEntity
8
A-0
6
CONTINUOUS
62
6
100
AcDbLine
10
323.166066000000
20
156.501179000000
30
0.0
11
336.166066000000
21
156.501179000000
31
0.0
0
LINE
5
4fe
100
AcDbEntity
8
A-0
6
CONTINUOUS
62
6
100
AcDbLine
10
353.774583000000
20
156.501179000000
30
0.0
11
366.774583000000
21
156.501179000000
31
0.0
0
LINE
5
4ff
100
AcDbEntity
8
A-0
6
CONTINUOUS
62
6
100
AcDbLine
10
384.449254000000
20
156.501179000000
30
0.0
11
397.449254000000
21
156.501179000000
31
0.0
0
LINE
5
500
100
AcDbEntity
8
A-0
6
CONTINUOUS
62
6
100
AcDbLine
10
427.258727000000
20
156.501179000000
30
0.0
11
440.142438000000
21
156.501179000000
31
0.0
0
LINE
5
501
100
AcDbEntity
8
A-0
6
CONTINUOUS
62
6
100
AcDbLine
10
456.303715000000
20
156.501179000000
30
0.0
11
469.303715000000
21
156.501179000000
31
0.0
0
LINE
5
502
100
AcDbEntity
8
A-0
6
CONTINUOUS
62
6
100
AcDbLine
10
478.268000000000
20
156.501179000000
30
0.0
11
491.268000000000
21
156.501179000000
31
0.0
0
LINE
5
503
100
AcDbEntity
8
A-0
6
CONTINUOUS
62
6
100
AcDbLine
10
501.268000000000
20
156.501179000000
30
0.0
11
514.268000000000
21
156.501179000000
31
0.0
0
LINE
5
504
100
AcDbEntity
8
A-0
6
CONTINUOUS
62
6
100
AcDbLine
10
533.331260000000
20
156.501179000000
30
0.0
11
546.331260000000
21
156.501179000000
31
0.0
0
LINE
5
505
100
AcDbEntity
8
A-0
6
CONTINUOUS
62
6
100
AcDbLine
10
563.078887000000
20
156.501179000000
30
0.0
11
576.078887000000
21
156.501179000000
31
0.0
0
LINE
5
506
100
AcDbEntity
8
A-0
6
CONTINUOUS
62
6
100
AcDbLine
10
591.075751000000
20
156.501179000000
30
0.0
11
604.046714000000
21
156.501179000000
31
0.0
0
LINE
5
507
100
AcDbEntity
8
A-0
6
CONTINUOUS
62
6
100
AcDbLine
10
611.866481000000
20
156.501179000000
30
0.0
11
622.866481000000
21
156.501179000000
31
0.0
0
LINE
5
508
100
AcDbEntity
8
A-0
6
CONTINUOUS
62
6
100
AcDbLine
10
324.098681000000
20
158.501179000000
30
0.0
11
337.098681000000
21
158.501179000000
31
0.0
0
LINE
5
509
100
AcDbEntity
8
A-0
6
CONTINUOUS
62
6
100
AcDbLine
10
352.841968000000
20
158.501179000000
30
0.0
11
365.841968000000
21
158.501179000000
31
0.0
0
LINE
5
50a
100
AcDbEntity
8
A-0
6
CONTINUOUS
62
6
100
AcDbLine
10
384.449254000000
20
158.501179000000
30
0.0
11
397.449254000000
21
158.501179000000
31
0.0
0
LINE
5
50b
100
AcDbEntity
8
A-0
6
CONTINUOUS
62
6
100
AcDbLine
10
427.388366000000
20
158.501179000000
30
0.0
11
440.328453000000
21
158.501179000000
31
0.0
0
LINE
5
50c
100
AcDbEntity
8
A-0
6
CONTINUOUS
62
6
100
AcDbLine
10
455.371099000000
20
158.501179000000
30
0.0
11
468.371099000000
21
158.501179000000
31
0.0
0
LINE
5
50d
100
AcDbEntity
8
A-0
6
CONTINUOUS
62
6
100
AcDbLine
10
479.200615000000
20
158.501179000000
30
0.0
11
492.200615000000
21
158.501179000000
31
0.0
0
LINE
5
50e
100
AcDbEntity
8
A-0
6
CONTINUOUS
62
6
100
AcDbLine
10
502.200615000000
20
158.501179000000
30
0.0
11
515.200615000000
21
158.501179000000
31
0.0
0
LINE
5
50f
100
AcDbEntity
8
A-0
6
CONTINUOUS
62
6
100
AcDbLine
10
532.398645000000
20
158.501179000000
30
0.0
11
545.398645000000
21
158.501179000000
31
0.0
0
LINE
5
510
100
AcDbEntity
8
A-0
6
CONTINUOUS
62
6
100
AcDbLine
10
563.078887000000
20
158.501179000000
30
0.0
11
576.078887000000
21
158.501179000000
31
0.0
0
LINE
5
511
100
AcDbEntity
8
A-0
6
CONTINUOUS
62
6
100
AcDbLine
10
589.826013000000
20
158.501179000000
30
0.0
11
602.796975000000
21
158.501179000000
31
0.0
0
LINE
5
512
100
AcDbEntity
8
A-0
6
CONTINUOUS
62
6
100
AcDbLine
10
611.866481000000
20
158.501179000000
30
0.0
11
622.866481000000
21
158.501179000000
31
0.0
0
LINE
5
513
100
AcDbEntity
8
A-0
6
CONTINUOUS
62
6
100
AcDbLine
10
325.031297000000
20
160.501179000000
30
0.0
11
338.031297000000
21
160.501179000000
31
0.0
0
LINE
5
514
100
AcDbEntity
8
A-0
6
CONTINUOUS
62
6
100
AcDbLine
10
351.909353000000
20
160.501179000000
30
0.0
11
364.909353000000
21
160.501179000000
31
0.0
0
LINE
5
515
100
AcDbEntity
8
A-0
6
CONTINUOUS
62
6
100
AcDbLine
10
384.449254000000
20
160.501179000000
30
0.0
11
397.449254000000
21
160.501179000000
31
0.0
0
LINE
5
516
100
AcDbEntity
8
A-0
6
CONTINUOUS
62
6
100
AcDbLine
10
427.442735000000
20
160.501179000000
30
0.0
11
440.431579000000
21
160.501179000000
31
0.0
0
LINE
5
517
100
AcDbEntity
8
A-0
6
CONTINUOUS
62
6
100
AcDbLine
10
454.438484000000
20
160.501179000000
30
0.0
11
467.438484000000
21
160.501179000000
31
0.0
0
LINE
5
518
100
AcDbEntity
8
A-0
6
CONTINUOUS
62
6
100
AcDbLine
10
480.133230000000
20
160.501179000000
30
0.0
11
493.133230000000
21
160.501179000000
31
0.0
0
LINE
5
519
100
AcDbEntity
8
A-0
6
CONTINUOUS
62
6
100
AcDbLine
10
503.133230000000
20
160.501179000000
30
0.0
11
516.133230000000
21
160.501179000000
31
0.0
0
LINE
5
51a
100
AcDbEntity
8
A-0
6
CONTINUOUS
62
6
100
AcDbLine
10
531.466029000000
20
160.501179000000
30
0.0
11
544.466029000000
21
160.501179000000
31
0.0
0
LINE
5
51b
100
AcDbEntity
8
A-0
6
CONTINUOUS
62
6
100
AcDbLine
10
563.078887000000
20
160.501179000000
30
0.0
11
576.078887000000
21
160.501179000000
31
0.0
0
LINE
5
51c
100
AcDbEntity
8
A-0
6
CONTINUOUS
62
6
100
AcDbLine
10
588.576274000000
20
160.501179000000
30
0.0
11
601.547237000000
21
160.501179000000
31
0.0
0
LINE
5
51d
100
AcDbEntity
8
A-0
6
CONTINUOUS
62
6
100
AcDbLine
10
611.866481000000
20
160.501179000000
30
0.0
11
622.866481000000
21
160.501179000000
31
0.0
0
LINE
5
51e
100
AcDbEntity
8
A-0
6
CONTINUOUS
62
6
100
AcDbLine
10
325.963912000000
20
162.501179000000
30
0.0
11
338.963912000000
21
162.501179000000
31
0.0
0
LINE
5
51f
100
AcDbEntity
8
A-0
6
CONTINUOUS
62
6
100
AcDbLine
10
350.976737000000
20
162.501179000000
30
0.0
11
363.976737000000
21
162.501179000000
31
0.0
0
LINE
5
520
100
AcDbEntity
8
A-0
6
CONTINUOUS
62
6
100
AcDbLine
10
384.449254000000
20
162.501179000000
30
0.0
11
397.449254000000
21
162.501179000000
31
0.0
0
LINE
5
521
100
AcDbEntity
8
A-0
6
CONTINUOUS
62
6
100
AcDbLine
10
427.445125000000
20
162.501179000000
30
0.0
11
440.438057000000
21
162.501179000000
31
0.0
0
LINE
5
522
100
AcDbEntity
8
A-0
6
CONTINUOUS
62
6
100
AcDbLine
10
453.505869000000
20
162.501179000000
30
0.0
11
466.505869000000
21
162.501179000000
31
0.0
0
LINE
5
523
100
AcDbEntity
8
A-0
6
CONTINUOUS
62
6
100
AcDbLine
10
481.065846000000
20
162.501179000000
30
0.0
11
494.065846000000
21
162.501179000000
31
0.0
0
LINE
5
524
100
AcDbEntity
8
A-0
6
CONTINUOUS
62
6
100
AcDbLine
10
504.065846000000
20
162.501179000000
30
0.0
11
517.065846000000
21
162.501179000000
31
0.0
0
LINE
5
525
100
AcDbEntity
8
A-0
6
CONTINUOUS
62
6
100
AcDbLine
10
530.533414000000
20
162.501179000000
30
0.0
11
543.533414000000
21
162.501179000000
31
0.0
0
LINE
5
526
100
AcDbEntity
8
A-0
6
CONTINUOUS
62
6
100
AcDbLine
10
563.078887000000
20
162.501179000000
30
0.0
11
576.078887000000
21
162.501179000000
31
0.0
0
LINE
5
527
100
AcDbEntity
8
A-0
6
CONTINUOUS
62
6
100
AcDbLine
10
587.326535000000
20
162.501179000000
30
0.0
11
600.297498000000
21
162.501179000000
31
0.0
0
LINE
5
528
100
AcDbEntity
8
A-0
6
CONTINUOUS
62
6
100
AcDbLine
10
611.866481000000
20
162.501179000000
30
0.0
11
622.866481000000
21
162.501179000000
31
0.0
0
LINE
5
529
100
AcDbEntity
8
A-0
6
CONTINUOUS
62
6
100
AcDbLine
10
326.896527000000
20
164.501179000000
30
0.0
11
339.896527000000
21
164.501179000000
31
0.0
0
LINE
5
52a
100
AcDbEntity
8
A-0
6
CONTINUOUS
62
6
100
AcDbLine
10
350.044122000000
20
164.501179000000
30
0.0
11
363.044122000000
21
164.501179000000
31
0.0
0
LINE
5
52b
100
AcDbEntity
8
A-0
6
CONTINUOUS
62
6
100
AcDbLine
10
384.449254000000
20
164.501179000000
30
0.0
11
397.449254000000
21
164.501179000000
31
0.0
0
LINE
5
52c
100
AcDbEntity
8
A-0
6
CONTINUOUS
62
6
100
AcDbLine
10
427.401867000000
20
164.501179000000
30
0.0
11
440.352295000000
21
164.501179000000
31
0.0
0
LINE
5
52d
100
AcDbEntity
8
A-0
6
CONTINUOUS
62
6
100
AcDbLine
10
452.573253000000
20
164.501179000000
30
0.0
11
465.573253000000
21
164.501179000000
31
0.0
0
LINE
5
52e
100
AcDbEntity
8
A-0
6
CONTINUOUS
62
6
100
AcDbLine
10
481.998461000000
20
164.501179000000
30
0.0
11
494.998461000000
21
164.501179000000
31
0.0
0
LINE
5
52f
100
AcDbEntity
8
A-0
6
CONTINUOUS
62
6
100
AcDbLine
10
504.998461000000
20
164.501179000000
30
0.0
11
517.998461000000
21
164.501179000000
31
0.0
0
LINE
5
530
100
AcDbEntity
8
A-0
6
CONTINUOUS
62
6
100
AcDbLine
10
529.600799000000
20
164.501179000000
30
0.0
11
542.600799000000
21
164.501179000000
31
0.0
0
LINE
5
531
100
AcDbEntity
8
A-0
6
CONTINUOUS
62
6
100
AcDbLine
10
563.078887000000
20
164.501179000000
30
0.0
11
576.078887000000
21
164.501179000000
31
0.0
0
LINE
5
532
100
AcDbEntity
8
A-0
6
CONTINUOUS
62
6
100
AcDbLine
10
586.076797000000
20
164.501179000000
30
0.0
11
599.047759000000
21
164.501179000000
31
0.0
0
LINE
5
533
100
AcDbEntity
8
A-0
6
CONTINUOUS
62
6
100
AcDbLine
10
611.866481000000
20
164.501179000000
30
0.0
11
622.866481000000
21
164.501179000000
31
0.0
0
LINE
5
534
100
AcDbEntity
8
A-0
6
CONTINUOUS
62
6
100
AcDbLine
10
327.829143000000
20
166.501179000000
30
0.0
11
340.829143000000
21
166.501179000000
31
0.0
0
LINE
5
535
100
AcDbEntity
8
A-0
6
CONTINUOUS
62
6
100
AcDbLine
10
349.111507000000
20
166.501179000000
30
0.0
11
362.111507000000
21
166.501179000000
31
0.0
0
LINE
5
536
100
AcDbEntity
8
A-0
6
CONTINUOUS
62
6
100
AcDbLine
10
384.449254000000
20
166.501179000000
30
0.0
11
397.449254000000
21
166.501179000000
31
0.0
0
LINE
5
537
100
AcDbEntity
8
A-0
6
CONTINUOUS
62
6
100
AcDbLine
10
427.296661000000
20
166.501179000000
30
0.0
11
440.187718000000
21
166.501179000000
31
0.0
0
LINE
5
538
100
AcDbEntity
8
A-0
6
CONTINUOUS
62
6
100
AcDbLine
10
451.640638000000
20
166.501179000000
30
0.0
11
464.640638000000
21
166.501179000000
31
0.0
0
LINE
5
539
100
AcDbEntity
8
A-0
6
CONTINUOUS
62
6
100
AcDbLine
10
482.931076000000
20
166.501179000000
30
0.0
11
495.931076000000
21
166.501179000000
31
0.0
0
LINE
5
53a
100
AcDbEntity
8
A-0
6
CONTINUOUS
62
6
100
AcDbLine
10
505.931076000000
20
166.501179000000
30
0.0
11
518.931076000000
21
166.501179000000
31
0.0
0
LINE
5
53b
100
AcDbEntity
8
A-0
6
CONTINUOUS
62
6
100
AcDbLine
10
528.668183000000
20
166.501179000000
30
0.0
11
541.668183000000
21
166.501179000000
31
0.0
0
LINE
5
53c
100
AcDbEntity
8
A-0
6
CONTINUOUS
62
6
100
AcDbLine
10
563.078887000000
20
166.501179000000
30
0.0
11
576.078887000000
21
166.501179000000
31
0.0
0
LINE
5
53d
100
AcDbEntity
8
A-0
6
CONTINUOUS
62
6
100
AcDbLine
10
584.827058000000
20
166.501179000000
30
0.0
11
597.798020000000
21
166.501179000000
31
0.0
0
LINE
5
53e
100
AcDbEntity
8
A-0
6
CONTINUOUS
62
6
100
AcDbLine
10
611.866481000000
20
166.501179000000
30
0.0
11
622.866481000000
21
166.501179000000
31
0.0
0
LINE
5
53f
100
AcDbEntity
8
A-0
6
CONTINUOUS
62
6
100
AcDbLine
10
328.761758000000
20
168.501179000000
30
0.0
11
341.761758000000
21
168.501179000000
31
0.0
0
LINE
5
540
100
AcDbEntity
8
A-0
6
CONTINUOUS
62
6
100
AcDbLine
10
348.178891000000
20
168.501179000000
30
0.0
11
361.178891000000
21
168.501179000000
31
0.0
0
LINE
5
541
100
AcDbEntity
8
A-0
6
CONTINUOUS
62
6
100
AcDbLine
10
384.449254000000
20
168.501179000000
30
0.0
11
397.449254000000
21
168.501179000000
31
0.0
0
LINE
5
542
100
AcDbEntity
8
A-0
6
CONTINUOUS
62
6
100
AcDbLine
10
427.092313000000
20
168.501179000000
30
0.0
11
439.940588000000
21
168.501179000000
31
0.0
0
LINE
5
543
100
AcDbEntity
8
A-0
6
CONTINUOUS
62
6
100
AcDbLine
10
450.708023000000
20
168.501179000000
30
0.0
11
463.708023000000
21
168.501179000000
31
0.0
0
LINE
5
544
100
AcDbEntity
8
A-0
6
CONTINUOUS
62
6
100
AcDbLine
10
483.863692000000
20
168.501179000000
30
0.0
11
496.863692000000
21
168.501179000000
31
0.0
0
LINE
5
545
100
AcDbEntity
8
A-0
6
CONTINUOUS
62
6
100
AcDbLine
10
506.863692000000
20
168.501179000000
30
0.0
11
519.863692000000
21
168.501179000000
31
0.0
0
LINE
5
546
100
AcDbEntity
8
A-0
6
CONTINUOUS
62
6
100
AcDbLine
10
527.735568000000
20
168.501179000000
30
0.0
11
540.735568000000
21
168.501179000000
31
0.0
0
LINE
5
547
100
AcDbEntity
8
A-0
6
CONTINUOUS
62
6
100
AcDbLine
10
563.078887000000
20
168.501179000000
30
0.0
11
576.078887000000
21
168.501179000000
31
0.0
0
LINE
5
548
100
AcDbEntity
8
A-0
6
CONTINUOUS
62
6
100
AcDbLine
10
583.577319000000
20
168.501179000000
30
0.0
11
596.548282000000
21
168.501179000000
31
0.0
0
LINE
5
549
100
AcDbEntity
8
A-0
6
CONTINUOUS
62
6
100
AcDbLine
10
611.866481000000
20
168.501179000000
30
0.0
11
622.866481000000
21
168.501179000000
31
0.0
0
LINE
5
54a
100
AcDbEntity
8
A-0
6
CONTINUOUS
62
6
100
AcDbLine
10
329.694373000000
20
170.501179000000
30
0.0
11
342.694373000000
21
170.501179000000
31
0.0
0
LINE
5
54b
100
AcDbEntity
8
A-0
6
CONTINUOUS
62
6
100
AcDbLine
10
347.246276000000
20
170.501179000000
30
0.0
11
360.246276000000
21
170.501179000000
31
0.0
0
LINE
5
54c
100
AcDbEntity
8
A-0
6
CONTINUOUS
62
6
100
AcDbLine
10
384.449254000000
20
170.501179000000
30
0.0
11
397.449254000000
21
170.501179000000
31
0.0
0
LINE
5
54d
100
AcDbEntity
8
A-0
6
CONTINUOUS
62
6
100
AcDbLine
10
426.736835000000
20
170.501179000000
30
0.0
11
439.612465000000
21
170.501179000000
31
0.0
0
LINE
5
54e
100
AcDbEntity
8
A-0
6
CONTINUOUS
62
6
100
AcDbLine
10
449.775408000000
20
170.501179000000
30
0.0
11
462.775408000000
21
170.501179000000
31
0.0
0
LINE
5
54f
100
AcDbEntity
8
A-0
6
CONTINUOUS
62
6
100
AcDbLine
10
484.796307000000
20
170.501179000000
30
0.0
11
497.796307000000
21
170.501179000000
31
0.0
0
LINE
5
550
100
AcDbEntity
8
A-0
6
CONTINUOUS
62
6
100
AcDbLine
10
507.796307000000
20
170.501179000000
30
0.0
11
520.796307000000
21
170.501179000000
31
0.0
0
LINE
5
551
100
AcDbEntity
8
A-0
6
CONTINUOUS
62
6
100
AcDbLine
10
526.802953000000
20
170.501179000000
30
0.0
11
539.802953000000
21
170.501179000000
31
0.0
0
LINE
5
552
100
AcDbEntity
8
A-0
6
CONTINUOUS
62
6
100
AcDbLine
10
563.078887000000
20
170.501179000000
30
0.0
11
576.078887000000
21
170.501179000000
31
0.0
0
LINE
5
553
100
AcDbEntity
8
A-0
6
CONTINUOUS
62
6
100
AcDbLine
10
582.327581000000
20
170.501179000000
30
0.0
11
595.298543000000
21
170.501179000000
31
0.0
0
LINE
5
554
100
AcDbEntity
8
A-0
6
CONTINUOUS
62
6
100
AcDbLine
10
611.866481000000
20
170.501179000000
30
0.0
11
622.866481000000
21
170.501179000000
31
0.0
0
LINE
5
555
100
AcDbEntity
8
A-0
6
CONTINUOUS
62
6
100
AcDbLine
10
330.626989000000
20
172.501179000000
30
0.0
11
343.626989000000
21
172.501179000000
31
0.0
0
LINE
5
556
100
AcDbEntity
8
A-0
6
CONTINUOUS
62
6
100
AcDbLine
10
346.313661000000
20
172.501179000000
30
0.0
11
359.313661000000
21
172.501179000000
31
0.0
0
LINE
5
557
100
AcDbEntity
8
A-0
6
CONTINUOUS
62
6
100
AcDbLine
10
384.449254000000
20
172.501179000000
30
0.0
11
397.449254000000
21
172.501179000000
31
0.0
0
LINE
5
558
100
AcDbEntity
8
A-0
6
CONTINUOUS
62
6
100
AcDbLine
10
426.136173000000
20
172.501179000000
30
0.0
11
439.204655000000
21
172.501179000000
31
0.0
0
LINE
5
559
100
AcDbEntity
8
A-0
6
CONTINUOUS
62
6
100
AcDbLine
10
448.842792000000
20
172.501179000000
30
0.0
11
461.842792000000
21
172.501179000000
31
0.0
0
LINE
5
55a
100
AcDbEntity
8
A-0
6
CONTINUOUS
62
6
100
AcDbLine
10
485.728922000000
20
172.501179000000
30
0.0
11
498.728922000000
21
172.501179000000
31
0.0
0
LINE
5
55b
100
AcDbEntity
8
A-0
6
CONTINUOUS
62
6
100
AcDbLine
10
508.728922000000
20
172.501179000000
30
0.0
11
521.728922000000
21
172.501179000000
31
0.0
0
LINE
5
55c
100
AcDbEntity
8
A-0
6
CONTINUOUS
62
6
100
AcDbLine
10
525.870337000000
20
172.501179000000
30
0.0
11
538.870337000000
21
172.501179000000
31
0.0
0
LINE
5
55d
100
AcDbEntity
8
A-0
6
CONTINUOUS
62
6
100
AcDbLine
10
563.078887000000
20
172.501179000000
30
0.0
11
576.078887000000
21
172.501179000000
31
0.0
0
LINE
5
55e
100
AcDbEntity
8
A-0
6
CONTINUOUS
62
6
100
AcDbLine
10
581.077842000000
20
172.501179000000
30
0.0
11
594.048804000000
21
172.501179000000
31
0.0
0
LINE
5
55f
100
AcDbEntity
8
A-0
6
CONTINUOUS
62
6
100
AcDbLine
10
611.866481000000
20
172.501179000000
30
0.0
11
622.866481000000
21
172.501179000000
31
0.0
0
LINE
5
560
100
AcDbEntity
8
A-0
6
CONTINUOUS
62
6
100
AcDbLine
10
331.559604000000
20
174.501179000000
30
0.0
11
344.559604000000
21
174.501179000000
31
0.0
0
LINE
5
561
100
AcDbEntity
8
A-0
6
CONTINUOUS
62
6
100
AcDbLine
10
345.381045000000
20
174.501179000000
30
0.0
11
358.381045000000
21
174.501179000000
31
0.0
0
LINE
5
562
100
AcDbEntity
8
A-0
6
CONTINUOUS
62
6
100
AcDbLine
10
384.449254000000
20
174.501179000000
30
0.0
11
397.449254000000
21
174.501179000000
31
0.0
0
LINE
5
563
100
AcDbEntity
8
A-0
6
CONTINUOUS
62
6
100
AcDbLine
10
425.157867000000
20
174.501179000000
30
0.0
11
438.720766000000
21
174.501179000000
31
0.0
0
LINE
5
564
100
AcDbEntity
8
A-0
6
CONTINUOUS
62
6
100
AcDbLine
10
447.910177000000
20
174.501179000000
30
0.0
11
460.910177000000
21
174.501179000000
31
0.0
0
LINE
5
565
100
AcDbEntity
8
A-0
6
CONTINUOUS
62
6
100
AcDbLine
10
486.661537000000
20
174.501179000000
30
0.0
11
499.661537000000
21
174.501179000000
31
0.0
0
LINE
5
566
100
AcDbEntity
8
A-0
6
CONTINUOUS
62
6
100
AcDbLine
10
509.661537000000
20
174.501179000000
30
0.0
11
522.661537000000
21
174.501179000000
31
0.0
0
LINE
5
567
100
AcDbEntity
8
A-0
6
CONTINUOUS
62
6
100
AcDbLine
10
524.937722000000
20
174.501179000000
30
0.0
11
537.937722000000
21
174.501179000000
31
0.0
0
LINE
5
568
100
AcDbEntity
8
A-0
6
CONTINUOUS
62
6
100
AcDbLine
10
563.078887000000
20
174.501179000000
30
0.0
11
576.078887000000
21
174.501179000000
31
0.0
0
LINE
5
569
100
AcDbEntity
8
A-0
6
CONTINUOUS
62
6
100
AcDbLine
10
579.828103000000
20
174.501179000000
30
0.0
11
592.799066000000
21
174.501179000000
31
0.0
0
LINE
5
56a
100
AcDbEntity
8
A-0
6
CONTINUOUS
62
6
100
AcDbLine
10
611.866481000000
20
174.501179000000
30
0.0
11
622.866481000000
21
174.501179000000
31
0.0
0
LINE
5
56b
100
AcDbEntity
8
A-0
6
CONTINUOUS
62
6
100
AcDbLine
10
332.492219000000
20
176.501179000000
30
0.0
11
357.448430000000
21
176.501179000000
31
0.0
0
LINE
5
56c
100
AcDbEntity
8
A-0
6
CONTINUOUS
62
6
100
AcDbLine
10
384.449254000000
20
176.501179000000
30
0.0
11
397.449254000000
21
176.501179000000
31
0.0
0
LINE
5
56d
100
AcDbEntity
8
A-0
6
CONTINUOUS
62
6
100
AcDbLine
10
423.496585000000
20
176.501179000000
30
0.0
11
438.150475000000
21
176.501179000000
31
0.0
0
LINE
5
56e
100
AcDbEntity
8
A-0
6
CONTINUOUS
62
6
100
AcDbLine
10
446.977562000000
20
176.501179000000
30
0.0
11
459.977562000000
21
176.501179000000
31
0.0
0
LINE
5
56f
100
AcDbEntity
8
A-0
6
CONTINUOUS
62
6
100
AcDbLine
10
487.594153000000
20
176.501179000000
30
0.0
11
500.594153000000
21
176.501179000000
31
0.0
0
LINE
5
570
100
AcDbEntity
8
A-0
6
CONTINUOUS
62
6
100
AcDbLine
10
510.594153000000
20
176.501179000000
30
0.0
11
523.594153000000
21
176.501179000000
31
0.0
0
LINE
5
571
100
AcDbEntity
8
A-0
6
CONTINUOUS
62
6
100
AcDbLine
10
524.005107000000
20
176.501179000000
30
0.0
11
537.005107000000
21
176.501179000000
31
0.0
0
LINE
5
572
100
AcDbEntity
8
A-0
6
CONTINUOUS
62
6
100
AcDbLine
10
563.078887000000
20
176.501179000000
30
0.0
11
576.078887000000
21
176.501179000000
31
0.0
0
LINE
5
573
100
AcDbEntity
8
A-0
6
CONTINUOUS
62
6
100
AcDbLine
10
578.578364000000
20
176.501179000000
30
0.0
11
591.549327000000
21
176.501179000000
31
0.0
0
LINE
5
574
100
AcDbEntity
8
A-0
6
CONTINUOUS
62
6
100
AcDbLine
10
611.866481000000
20
176.501179000000
30
0.0
11
622.866481000000
21
176.501179000000
31
0.0
0
LINE
5
575
100
AcDbEntity
8
A-0
6
CONTINUOUS
62
6
100
AcDbLine
10
333.424835000000
20
178.501179000000
30
0.0
11
356.515815000000
21
178.501179000000
31
0.0
0
LINE
5
576
100
AcDbEntity
8
A-0
6
CONTINUOUS
62
6
100
AcDbLine
10
384.449254000000
20
178.501179000000
30
0.0
11
397.449254000000
21
178.501179000000
31
0.0
0
LINE
5
577
100
AcDbEntity
8
A-0
6
CONTINUOUS
62
6
100
AcDbLine
10
420.902780000000
20
178.501179000000
30
0.0
11
437.445210000000
21
178.501179000000
31
0.0
0
LINE
5
578
100
AcDbEntity
8
A-0
6
CONTINUOUS
62
6
100
AcDbLine
10
446.044946000000
20
178.501179000000
30
0.0
11
459.044946000000
21
178.501179000000
31
0.0
0
LINE
5
579
100
AcDbEntity
8
A-0
6
CONTINUOUS
62
6
100
AcDbLine
10
488.526768000000
20
178.501179000000
30
0.0
11
501.526768000000
21
178.501179000000
31
0.0
0
LINE
5
57a
100
AcDbEntity
8
A-0
6
CONTINUOUS
62
6
100
AcDbLine
10
511.526768000000
20
178.501179000000
30
0.0
11
536.072491000000
21
178.501179000000
31
0.0
0
LINE
5
57b
100
AcDbEntity
8
A-0
6
CONTINUOUS
62
6
100
AcDbLine
10
563.078887000000
20
178.501179000000
30
0.0
11
576.078887000000
21
178.501179000000
31
0.0
0
LINE
5
57c
100
AcDbEntity
8
A-0
6
CONTINUOUS
62
6
100
AcDbLine
10
577.328626000000
20
178.501179000000
30
0.0
11
590.299588000000
21
178.501179000000
31
0.0
0
LINE
5
57d
100
AcDbEntity
8
A-0
6
CONTINUOUS
62
6
100
AcDbLine
10
611.866481000000
20
178.501179000000
30
0.0
11
622.866481000000
21
178.501179000000
31
0.0
0
LINE
5
57e
100
AcDbEntity
8
A-0
6
CONTINUOUS
62
6
100
AcDbLine
10
334.357450000000
20
180.501179000000
30
0.0
11
355.583199000000
21
180.501179000000
31
0.0
0
LINE
5
57f
100
AcDbEntity
8
A-0
6
CONTINUOUS
62
6
100
AcDbLine
10
384.449254000000
20
180.501179000000
30
0.0
11
397.449254000000
21
180.501179000000
31
0.0
0
LINE
5
580
100
AcDbEntity
8
A-0
6
CONTINUOUS
62
6
100
AcDbLine
10
417.449254000000
20
180.501179000000
30
0.0
11
436.449254000000
21
180.501179000000
31
0.0
0
LINE
5
581
100
AcDbEntity
8
A-0
6
CONTINUOUS
62
6
100
AcDbLine
10
445.112331000000
20
180.501179000000
30
0.0
11
458.112331000000
21
180.501179000000
31
0.0
0
LINE
5
582
100
AcDbEntity
8
A-0
6
CONTINUOUS
62
6
100
AcDbLine
10
489.459383000000
20
180.501179000000
30
0.0
11
502.459383000000
21
180.501179000000
31
0.0
0
LINE
5
583
100
AcDbEntity
8
A-0
6
CONTINUOUS
62
6
100
AcDbLine
10
512.459383000000
20
180.501179000000
30
0.0
11
535.139876000000
21
180.501179000000
31
0.0
0
LINE
5
584
100
AcDbEntity
8
A-0
6
CONTINUOUS
62
6
100
AcDbLine
10
563.078887000000
20
180.501179000000
30
0.0
11
576.078887000000
21
180.501179000000
31
0.0
0
LINE
5
585
100
AcDbEntity
8
A-0
6
CONTINUOUS
62
6
100
AcDbLine
10
576.078887000000
20
180.501179000000
30
0.0
11
589.049849000000
21
180.501179000000
31
0.0
0
LINE
5
586
100
AcDbEntity
8
A-0
6
CONTINUOUS
62
6
100
AcDbLine
10
611.866481000000
20
180.501179000000
30
0.0
11
622.866481000000
21
180.501179000000
31
0.0
0
LINE
5
587
100
AcDbEntity
8
A-0
6
CONTINUOUS
62
6
100
AcDbLine
10
335.290065000000
20
182.501179000000
30
0.0
11
354.650584000000
21
182.501179000000
31
0.0
0
LINE
5
588
100
AcDbEntity
8
A-0
6
CONTINUOUS
62
6
100
AcDbLine
10
384.449254000000
20
182.501179000000
30
0.0
11
434.859388000000
21
182.501179000000
31
0.0
0
LINE
5
589
100
AcDbEntity
8
A-0
6
CONTINUOUS
62
6
100
AcDbLine
10
444.179716000000
20
182.501179000000
30
0.0
11
457.179716000000
21
182.501179000000
31
0.0
0
LINE
5
58a
100
AcDbEntity
8
A-0
6
CONTINUOUS
62
6
100
AcDbLine
10
490.391999000000
20
182.501179000000
30
0.0
11
503.391999000000
21
182.501179000000
31
0.0
0
LINE
5
58b
100
AcDbEntity
8
A-0
6
CONTINUOUS
62
6
100
AcDbLine
10
513.391999000000
20
182.501179000000
30
0.0
11
534.207261000000
21
182.501179000000
31
0.0
0
LINE
5
58c
100
AcDbEntity
8
A-0
6
CONTINUOUS
62
6
100
AcDbLine
10
563.078887000000
20
182.501179000000
30
0.0
11
587.800111000000
21
182.501179000000
31
0.0
0
LINE
5
58d
100
AcDbEntity
8
A-0
6
CONTINUOUS
62
6
100
AcDbLine
10
611.866481000000
20
182.501179000000
30
0.0
11
622.866481000000
21
182.501179000000
31
0.0
0
LINE
5
58e
100
AcDbEntity
8
A-0
6
CONTINUOUS
62
6
100
AcDbLine
10
336.222681000000
20
184.501179000000
30
0.0
11
353.717969000000
21
184.501179000000
31
0.0
0
LINE
5
58f
100
AcDbEntity
8
A-0
6
CONTINUOUS
62
6
100
AcDbLine
10
384.449254000000
20
184.501179000000
30
0.0
11
432.615121000000
21
184.501179000000
31
0.0
0
LINE
5
590
100
AcDbEntity
8
A-0
6
CONTINUOUS
62
6
100
AcDbLine
10
443.247100000000
20
184.501179000000
30
0.0
11
456.247100000000
21
184.501179000000
31
0.0
0
LINE
5
591
100
AcDbEntity
8
A-0
6
CONTINUOUS
62
6
100
AcDbLine
10
491.324614000000
20
184.501179000000
30
0.0
11
504.324614000000
21
184.501179000000
31
0.0
0
LINE
5
592
100
AcDbEntity
8
A-0
6
CONTINUOUS
62
6
100
AcDbLine
10
514.324614000000
20
184.501179000000
30
0.0
11
533.274646000000
21
184.501179000000
31
0.0
0
LINE
5
593
100
AcDbEntity
8
A-0
6
CONTINUOUS
62
6
100
AcDbLine
10
563.078887000000
20
184.501179000000
30
0.0
11
586.550372000000
21
184.501179000000
31
0.0
0
LINE
5
594
100
AcDbEntity
8
A-0
6
CONTINUOUS
62
6
100
AcDbLine
10
611.866481000000
20
184.501179000000
30
0.0
11
622.866481000000
21
184.501179000000
31
0.0
0
LINE
5
595
100
AcDbEntity
8
A-0
6
CONTINUOUS
62
6
100
AcDbLine
10
337.155296000000
20
186.501179000000
30
0.0
11
352.785353000000
21
186.501179000000
31
0.0
0
LINE
5
596
100
AcDbEntity
8
A-0
6
CONTINUOUS
62
6
100
AcDbLine
10
384.449254000000
20
186.501179000000
30
0.0
11
429.277322000000
21
186.501179000000
31
0.0
0
LINE
5
597
100
AcDbEntity
8
A-0
6
CONTINUOUS
62
6
100
AcDbLine
10
442.314485000000
20
186.501179000000
30
0.0
11
455.314485000000
21
186.501179000000
31
0.0
0
LINE
5
598
100
AcDbEntity
8
A-0
6
CONTINUOUS
62
6
100
AcDbLine
10
492.257229000000
20
186.501179000000
30
0.0
11
505.257229000000
21
186.501179000000
31
0.0
0
LINE
5
599
100
AcDbEntity
8
A-0
6
CONTINUOUS
62
6
100
AcDbLine
10
515.257229000000
20
186.501179000000
30
0.0
11
532.342030000000
21
186.501179000000
31
0.0
0
LINE
5
59a
100
AcDbEntity
8
A-0
6
CONTINUOUS
62
6
100
AcDbLine
10
563.078887000000
20
186.501179000000
30
0.0
11
585.300633000000
21
186.501179000000
31
0.0
0
LINE
5
59b
100
AcDbEntity
8
A-0
6
CONTINUOUS
62
6
100
AcDbLine
10
611.866481000000
20
186.501179000000
30
0.0
11
622.866481000000
21
186.501179000000
31
0.0
0
LINE
5
59c
100
AcDbEntity
8
A-0
6
CONTINUOUS
62
6
100
AcDbLine
10
338.087911000000
20
188.501179000000
30
0.0
11
351.852738000000
21
188.501179000000
31
0.0
0
LINE
5
59d
100
AcDbEntity
8
A-0
6
CONTINUOUS
62
6
100
AcDbLine
10
384.449254000000
20
188.501179000000
30
0.0
11
424.449254000000
21
188.501179000000
31
0.0
0
LINE
5
59e
100
AcDbEntity
8
A-0
6
CONTINUOUS
62
6
100
AcDbLine
10
441.381870000000
20
188.501179000000
30
0.0
11
454.381870000000
21
188.501179000000
31
0.0
0
LINE
5
59f
100
AcDbEntity
8
A-0
6
CONTINUOUS
62
6
100
AcDbLine
10
493.189845000000
20
188.501179000000
30
0.0
11
506.189845000000
21
188.501179000000
31
0.0
0
LINE
5
5a0
100
AcDbEntity
8
A-0
6
CONTINUOUS
62
6
100
AcDbLine
10
516.189845000000
20
188.501179000000
30
0.0
11
531.409415000000
21
188.501179000000
31
0.0
0
LINE
5
5a1
100
AcDbEntity
8
A-0
6
CONTINUOUS
62
6
100
AcDbLine
10
563.078887000000
20
188.501179000000
30
0.0
11
584.050895000000
21
188.501179000000
31
0.0
0
LINE
5
5a2
100
AcDbEntity
8
A-0
6
CONTINUOUS
62
6
100
AcDbLine
10
611.866481000000
20
188.501179000000
30
0.0
11
622.866481000000
21
188.501179000000
31
0.0
0
LINE
5
5a3
100
AcDbEntity
8
A-0
6
CONTINUOUS
62
6
100
AcDbLine
10
339.020526000000
20
190.501179000000
30
0.0
11
350.920123000000
21
190.501179000000
31
0.0
0
LINE
5
5a4
100
AcDbEntity
8
A-0
6
CONTINUOUS
62
6
100
AcDbLine
10
384.449254000000
20
190.501179000000
30
0.0
11
417.449254000000
21
190.501179000000
31
0.0
0
LINE
5
5a5
100
AcDbEntity
8
A-0
6
CONTINUOUS
62
6
100
AcDbLine
10
440.449254000000
20
190.501179000000
30
0.0
11
453.449254000000
21
190.501179000000
31
0.0
0
LINE
5
5a6
100
AcDbEntity
8
A-0
6
CONTINUOUS
62
6
100
AcDbLine
10
494.122460000000
20
190.501179000000
30
0.0
11
507.122460000000
21
190.501179000000
31
0.0
0
LINE
5
5a7
100
AcDbEntity
8
A-0
6
CONTINUOUS
62
6
100
AcDbLine
10
517.122460000000
20
190.501179000000
30
0.0
11
530.476800000000
21
190.501179000000
31
0.0
0
LINE
5
5a8
100
AcDbEntity
8
A-0
6
CONTINUOUS
62
6
100
AcDbLine
10
563.078887000000
20
190.501179000000
30
0.0
11
582.801156000000
21
190.501179000000
31
0.0
0
LINE
5
5a9
100
AcDbEntity
8
A-0
6
CONTINUOUS
62
6
100
AcDbLine
10
611.866481000000
20
190.501179000000
30
0.0
11
622.866481000000
21
190.501179000000
31
0.0
0
LINE
5
5aa
100
AcDbEntity
8
A-0
6
CONTINUOUS
62
6
100
AcDbLine
10
312.440990000000
20
133.501179000000
30
0.0
11
325.440990000000
21
133.501179000000
31
0.0
0
LINE
5
5ab
100
AcDbEntity
8
A-0
6
CONTINUOUS
62
6
100
AcDbLine
10
364.499659000000
20
133.501179000000
30
0.0
11
377.499659000000
21
133.501179000000
31
0.0
0
LINE
5
5ac
100
AcDbEntity
8
A-0
6
CONTINUOUS
62
6
100
AcDbLine
10
384.449254000000
20
133.501179000000
30
0.0
11
419.556527000000
21
133.501179000000
31
0.0
0
LINE
5
5ad
100
AcDbEntity
8
A-0
6
CONTINUOUS
62
6
100
AcDbLine
10
467.028791000000
20
133.501179000000
30
0.0
11
480.542923000000
21
133.501179000000
31
0.0
0
LINE
5
5ae
100
AcDbEntity
8
A-0
6
CONTINUOUS
62
6
100
AcDbLine
10
490.542923000000
20
133.501179000000
30
0.0
11
503.542923000000
21
133.501179000000
31
0.0
0
LINE
5
5af
100
AcDbEntity
8
A-0
6
CONTINUOUS
62
6
100
AcDbLine
10
544.056336000000
20
133.501179000000
30
0.0
11
557.056336000000
21
133.501179000000
31
0.0
0
LINE
5
5b0
100
AcDbEntity
8
A-0
6
CONTINUOUS
62
6
100
AcDbLine
10
563.078887000000
20
133.501179000000
30
0.0
11
576.078887000000
21
133.501179000000
31
0.0
0
LINE
5
5b1
100
AcDbEntity
8
A-0
6
CONTINUOUS
62
6
100
AcDbLine
10
605.447747000000
20
133.501179000000
30
0.0
11
622.866481000000
21
133.501179000000
31
0.0
0
LINE
5
5b2
100
AcDbEntity
8
A-0
6
CONTINUOUS
62
6
100
AcDbLine
10
313.373605000000
20
135.501179000000
30
0.0
11
326.373605000000
21
135.501179000000
31
0.0
0
LINE
5
5b3
100
AcDbEntity
8
A-0
6
CONTINUOUS
62
6
100
AcDbLine
10
363.567044000000
20
135.501179000000
30
0.0
11
376.567044000000
21
135.501179000000
31
0.0
0
LINE
5
5b4
100
AcDbEntity
8
A-0
6
CONTINUOUS
62
6
100
AcDbLine
10
384.449254000000
20
135.501179000000
30
0.0
11
425.974881000000
21
135.501179000000
31
0.0
0
LINE
5
5b5
100
AcDbEntity
8
A-0
6
CONTINUOUS
62
6
100
AcDbLine
10
466.096176000000
20
135.501179000000
30
0.0
11
481.475539000000
21
135.501179000000
31
0.0
0
LINE
5
5b6
100
AcDbEntity
8
A-0
6
CONTINUOUS
62
6
100
AcDbLine
10
491.475539000000
20
135.501179000000
30
0.0
11
504.475539000000
21
135.501179000000
31
0.0
0
LINE
5
5b7
100
AcDbEntity
8
A-0
6
CONTINUOUS
62
6
100
AcDbLine
10
543.123721000000
20
135.501179000000
30
0.0
11
556.123721000000
21
135.501179000000
31
0.0
0
LINE
5
5b8
100
AcDbEntity
8
A-0
6
CONTINUOUS
62
6
100
AcDbLine
10
563.078887000000
20
135.501179000000
30
0.0
11
576.078887000000
21
135.501179000000
31
0.0
0
LINE
5
5b9
100
AcDbEntity
8
A-0
6
CONTINUOUS
62
6
100
AcDbLine
10
604.198008000000
20
135.501179000000
30
0.0
11
622.866481000000
21
135.501179000000
31
0.0
0
LINE
5
5ba
100
AcDbEntity
8
A-0
6
CONTINUOUS
62
6
100
AcDbLine
10
314.306221000000
20
137.501179000000
30
0.0
11
327.306221000000
21
137.501179000000
31
0.0
0
LINE
5
5bb
100
AcDbEntity
8
A-0
6
CONTINUOUS
62
6
100
AcDbLine
10
362.634429000000
20
137.501179000000
30
0.0
11
375.634429000000
21
137.501179000000
31
0.0
0
LINE
5
5bc
100
AcDbEntity
8
A-0
6
CONTINUOUS
62
6
100
AcDbLine
10
384.449254000000
20
137.501179000000
30
0.0
11
430.362982000000
21
137.501179000000
31
0.0
0
LINE
5
5bd
100
AcDbEntity
8
A-0
6
CONTINUOUS
62
6
100
AcDbLine
10
465.163560000000
20
137.501179000000
30
0.0
11
482.408154000000
21
137.501179000000
31
0.0
0
LINE
5
5be
100
AcDbEntity
8
A-0
6
CONTINUOUS
62
6
100
AcDbLine
10
492.408154000000
20
137.501179000000
30
0.0
11
505.408154000000
21
137.501179000000
31
0.0
0
LINE
5
5bf
100
AcDbEntity
8
A-0
6
CONTINUOUS
62
6
100
AcDbLine
10
542.191105000000
20
137.501179000000
30
0.0
11
555.191105000000
21
137.501179000000
31
0.0
0
LINE
5
5c0
100
AcDbEntity
8
A-0
6
CONTINUOUS
62
6
100
AcDbLine
10
563.078887000000
20
137.501179000000
30
0.0
11
576.078887000000
21
137.501179000000
31
0.0
0
LINE
5
5c1
100
AcDbEntity
8
A-0
6
CONTINUOUS
62
6
100
AcDbLine
10
602.948269000000
20
137.501179000000
30
0.0
11
622.866481000000
21
137.501179000000
31
0.0
0
LINE
5
5c2
100
AcDbEntity
8
A-0
6
CONTINUOUS
62
6
100
AcDbLine
10
315.238836000000
20
139.501179000000
30
0.0
11
328.238836000000
21
139.501179000000
31
0.0
0
LINE
5
5c3
100
AcDbEntity
8
A-0
6
CONTINUOUS
62
6
100
AcDbLine
10
361.701813000000
20
139.501179000000
30
0.0
11
374.701813000000
21
139.501179000000
31
0.0
0
LINE
5
5c4
100
AcDbEntity
8
A-0
6
CONTINUOUS
62
6
100
AcDbLine
10
384.449254000000
20
139.501179000000
30
0.0
11
433.305920000000
21
139.501179000000
31
0.0
0
LINE
5
5c5
100
AcDbEntity
8
A-0
6
CONTINUOUS
62
6
100
AcDbLine
10
464.230945000000
20
139.501179000000
30
0.0
11
483.340769000000
21
139.501179000000
31
0.0
0
LINE
5
5c6
100
AcDbEntity
8
A-0
6
CONTINUOUS
62
6
100
AcDbLine
10
493.340769000000
20
139.501179000000
30
0.0
11
506.340769000000
21
139.501179000000
31
0.0
0
LINE
5
5c7
100
AcDbEntity
8
A-0
6
CONTINUOUS
62
6
100
AcDbLine
10
541.258490000000
20
139.501179000000
30
0.0
11
554.258490000000
21
139.501179000000
31
0.0
0
LINE
5
5c8
100
AcDbEntity
8
A-0
6
CONTINUOUS
62
6
100
AcDbLine
10
563.078887000000
20
139.501179000000
30
0.0
11
576.078887000000
21
139.501179000000
31
0.0
0
LINE
5
5c9
100
AcDbEntity
8
A-0
6
CONTINUOUS
62
6
100
AcDbLine
10
601.698530000000
20
139.501179000000
30
0.0
11
622.866481000000
21
139.501179000000
31
0.0
0
LINE
5
5ca
100
AcDbEntity
8
A-0
6
CONTINUOUS
62
6
100
AcDbLine
10
316.171451000000
20
141.501179000000
30
0.0
11
329.171451000000
21
141.501179000000
31
0.0
0
LINE
5
5cb
100
AcDbEntity
8
A-0
6
CONTINUOUS
62
6
100
AcDbLine
10
360.769198000000
20
141.501179000000
30
0.0
11
373.769198000000
21
141.501179000000
31
0.0
0
LINE
5
5cc
100
AcDbEntity
8
A-0
6
CONTINUOUS
62
6
100
AcDbLine
10
384.449254000000
20
141.501179000000
30
0.0
11
435.368277000000
21
141.501179000000
31
0.0
0
LINE
5
5cd
100
AcDbEntity
8
A-0
6
CONTINUOUS
62
6
100
AcDbLine
10
463.298330000000
20
141.501179000000
30
0.0
11
484.273385000000
21
141.501179000000
31
0.0
0
LINE
5
5ce
100
AcDbEntity
8
A-0
6
CONTINUOUS
62
6
100
AcDbLine
10
494.273385000000
20
141.501179000000
30
0.0
11
507.273385000000
21
141.501179000000
31
0.0
0
LINE
5
5cf
100
AcDbEntity
8
A-0
6
CONTINUOUS
62
6
100
AcDbLine
10
540.325875000000
20
141.501179000000
30
0.0
11
553.325875000000
21
141.501179000000
31
0.0
0
LINE
5
5d0
100
AcDbEntity
8
A-0
6
CONTINUOUS
62
6
100
AcDbLine
10
563.078887000000
20
141.501179000000
30
0.0
11
576.078887000000
21
141.501179000000
31
0.0
0
LINE
5
5d1
100
AcDbEntity
8
A-0
6
CONTINUOUS
62
6
100
AcDbLine
10
600.448792000000
20
141.501179000000
30
0.0
11
622.866481000000
21
141.501179000000
31
0.0
0
LINE
5
5d2
100
AcDbEntity
8
A-0
6
CONTINUOUS
62
6
100
AcDbLine
10
317.104067000000
20
143.501179000000
30
0.0
11
330.104067000000
21
143.501179000000
31
0.0
0
LINE
5
5d3
100
AcDbEntity
8
A-0
6
CONTINUOUS
62
6
100
AcDbLine
10
359.836583000000
20
143.501179000000
30
0.0
11
372.836583000000
21
143.501179000000
31
0.0
0
LINE
5
5d4
100
AcDbEntity
8
A-0
6
CONTINUOUS
62
6
100
AcDbLine
10
384.449254000000
20
143.501179000000
30
0.0
11
397.449254000000
21
143.501179000000
31
0.0
0
LINE
5
5d5
100
AcDbEntity
8
A-0
6
CONTINUOUS
62
6
100
AcDbLine
10
418.447703000000
20
143.501179000000
30
0.0
11
436.761061000000
21
143.501179000000
31
0.0
0
LINE
5
5d6
100
AcDbEntity
8
A-0
6
CONTINUOUS
62
6
100
AcDbLine
10
462.365714000000
20
143.501179000000
30
0.0
11
485.206000000000
21
143.501179000000
31
0.0
0
LINE
5
5d7
100
AcDbEntity
8
A-0
6
CONTINUOUS
62
6
100
AcDbLine
10
495.206000000000
20
143.501179000000
30
0.0
11
508.206000000000
21
143.501179000000
31
0.0
0
LINE
5
5d8
100
AcDbEntity
8
A-0
6
CONTINUOUS
62
6
100
AcDbLine
10
539.393260000000
20
143.501179000000
30
0.0
11
552.393260000000
21
143.501179000000
31
0.0
0
LINE
5
5d9
100
AcDbEntity
8
A-0
6
CONTINUOUS
62
6
100
AcDbLine
10
563.078887000000
20
143.501179000000
30
0.0
11
576.078887000000
21
143.501179000000
31
0.0
0
LINE
5
5da
100
AcDbEntity
8
A-0
6
CONTINUOUS
62
6
100
AcDbLine
10
599.199053000000
20
143.501179000000
30
0.0
11
622.866481000000
21
143.501179000000
31
0.0
0
LINE
5
5db
100
AcDbEntity
8
A-0
6
CONTINUOUS
62
6
100
AcDbLine
10
318.036682000000
20
145.501179000000
30
0.0
11
331.036682000000
21
145.501179000000
31
0.0
0
LINE
5
5dc
100
AcDbEntity
8
A-0
6
CONTINUOUS
62
6
100
AcDbLine
10
358.903967000000
20
145.501179000000
30
0.0
11
371.903967000000
21
145.501179000000
31
0.0
0
LINE
5
5dd
100
AcDbEntity
8
A-0
6
CONTINUOUS
62
6
100
AcDbLine
10
384.449254000000
20
145.501179000000
30
0.0
11
397.449254000000
21
145.501179000000
31
0.0
0
LINE
5
5de
100
AcDbEntity
8
A-0
6
CONTINUOUS
62
6
100
AcDbLine
10
421.726040000000
20
145.501179000000
30
0.0
11
437.656820000000
21
145.501179000000
31
0.0
0
LINE
5
5df
100
AcDbEntity
8
A-0
6
CONTINUOUS
62
6
100
AcDbLine
10
461.433099000000
20
145.501179000000
30
0.0
11
486.138615000000
21
145.501179000000
31
0.0
0
LINE
5
5e0
100
AcDbEntity
8
A-0
6
CONTINUOUS
62
6
100
AcDbLine
10
496.138615000000
20
145.501179000000
30
0.0
11
509.138615000000
21
145.501179000000
31
0.0
0
LINE
5
5e1
100
AcDbEntity
8
A-0
6
CONTINUOUS
62
6
100
AcDbLine
10
538.460644000000
20
145.501179000000
30
0.0
11
551.460644000000
21
145.501179000000
31
0.0
0
LINE
5
5e2
100
AcDbEntity
8
A-0
6
CONTINUOUS
62
6
100
AcDbLine
10
563.078887000000
20
145.501179000000
30
0.0
11
576.078887000000
21
145.501179000000
31
0.0
0
LINE
5
5e3
100
AcDbEntity
8
A-0
6
CONTINUOUS
62
6
100
AcDbLine
10
597.949314000000
20
145.501179000000
30
0.0
11
610.920277000000
21
145.501179000000
31
0.0
0
LINE
5
5e4
100
AcDbEntity
8
A-0
6
CONTINUOUS
62
6
100
AcDbLine
10
611.866481000000
20
145.501179000000
30
0.0
11
622.866481000000
21
145.501179000000
31
0.0
0
LINE
5
5e5
100
AcDbEntity
8
A-0
6
CONTINUOUS
62
6
100
AcDbLine
10
318.969297000000
20
147.501179000000
30
0.0
11
370.971352000000
21
147.501179000000
31
0.0
0
LINE
5
5e6
100
AcDbEntity
8
A-0
6
CONTINUOUS
62
6
100
AcDbLine
10
384.449254000000
20
147.501179000000
30
0.0
11
397.449254000000
21
147.501179000000
31
0.0
0
LINE
5
5e7
100
AcDbEntity
8
A-0
6
CONTINUOUS
62
6
100
AcDbLine
10
424.056406000000
20
147.501179000000
30
0.0
11
438.319405000000
21
147.501179000000
31
0.0
0
LINE
5
5e8
100
AcDbEntity
8
A-0
6
CONTINUOUS
62
6
100
AcDbLine
10
460.500484000000
20
147.501179000000
30
0.0
11
473.500484000000
21
147.501179000000
31
0.0
0
LINE
5
5e9
100
AcDbEntity
8
A-0
6
CONTINUOUS
62
6
100
AcDbLine
10
474.071231000000
20
147.501179000000
30
0.0
11
487.071231000000
21
147.501179000000
31
0.0
0
LINE
5
5ea
100
AcDbEntity
8
A-0
6
CONTINUOUS
62
6
100
AcDbLine
10
497.071231000000
20
147.501179000000
30
0.0
11
550.528029000000
21
147.501179000000
31
0.0
0
LINE
5
5eb
100
AcDbEntity
8
A-0
6
CONTINUOUS
62
6
100
AcDbLine
10
563.078887000000
20
147.501179000000
30
0.0
11
576.078887000000
21
147.501179000000
31
0.0
0
LINE
5
5ec
100
AcDbEntity
8
A-0
6
CONTINUOUS
62
6
100
AcDbLine
10
596.699576000000
20
147.501179000000
30
0.0
11
609.670538000000
21
147.501179000000
31
0.0
0
LINE
5
5ed
100
AcDbEntity
8
A-0
6
CONTINUOUS
62
6
100
AcDbLine
10
611.866481000000
20
147.501179000000
30
0.0
11
622.866481000000
21
147.501179000000
31
0.0
0
LINE
5
5ee
100
AcDbEntity
8
A-0
6
CONTINUOUS
62
6
100
AcDbLine
10
319.901912000000
20
149.501179000000
30
0.0
11
370.038737000000
21
149.501179000000
31
0.0
0
LINE
5
5ef
100
AcDbEntity
8
A-0
6
CONTINUOUS
62
6
100
AcDbLine
10
384.449254000000
20
149.501179000000
30
0.0
11
397.449254000000
21
149.501179000000
31
0.0
0
LINE
5
5f0
100
AcDbEntity
8
A-0
6
CONTINUOUS
62
6
100
AcDbLine
10
425.432200000000
20
149.501179000000
30
0.0
11
438.861184000000
21
149.501179000000
31
0.0
0
LINE
5
5f1
100
AcDbEntity
8
A-0
6
CONTINUOUS
62
6
100
AcDbLine
10
459.567868000000
20
149.501179000000
30
0.0
11
472.567868000000
21
149.501179000000
31
0.0
0
LINE
5
5f2
100
AcDbEntity
8
A-0
6
CONTINUOUS
62
6
100
AcDbLine
10
475.003846000000
20
149.501179000000
30
0.0
11
488.003846000000
21
149.501179000000
31
0.0
0
LINE
5
5f3
100
AcDbEntity
8
A-0
6
CONTINUOUS
62
6
100
AcDbLine
10
498.003846000000
20
149.501179000000
30
0.0
11
549.595414000000
21
149.501179000000
31
0.0
0
LINE
5
5f4
100
AcDbEntity
8
A-0
6
CONTINUOUS
62
6
100
AcDbLine
10
563.078887000000
20
149.501179000000
30
0.0
11
576.078887000000
21
149.501179000000
31
0.0
0
LINE
5
5f5
100
AcDbEntity
8
A-0
6
CONTINUOUS
62
6
100
AcDbLine
10
595.449837000000
20
149.501179000000
30
0.0
11
608.420799000000
21
149.501179000000
31
0.0
0
LINE
5
5f6
100
AcDbEntity
8
A-0
6
CONTINUOUS
62
6
100
AcDbLine
10
611.866481000000
20
149.501179000000
30
0.0
11
622.866481000000
21
149.501179000000
31
0.0
0
LINE
5
5f7
100
AcDbEntity
8
A-0
6
CONTINUOUS
62
6
100
AcDbLine
10
320.834528000000
20
151.501179000000
30
0.0
11
369.106121000000
21
151.501179000000
31
0.0
0
LINE
5
5f8
100
AcDbEntity
8
A-0
6
CONTINUOUS
62
6
100
AcDbLine
10
384.449254000000
20
151.501179000000
30
0.0
11
397.449254000000
21
151.501179000000
31
0.0
0
LINE
5
5f9
100
AcDbEntity
8
A-0
6
CONTINUOUS
62
6
100
AcDbLine
10
426.301740000000
20
151.501179000000
30
0.0
11
439.333221000000
21
151.501179000000
31
0.0
0
LINE
5
5fa
100
AcDbEntity
8
A-0
6
CONTINUOUS
62
6
100
AcDbLine
10
458.635253000000
20
151.501179000000
30
0.0
11
471.635253000000
21
151.501179000000
31
0.0
0
LINE
5
5fb
100
AcDbEntity
8
A-0
6
CONTINUOUS
62
6
100
AcDbLine
10
475.936461000000
20
151.501179000000
30
0.0
11
488.936461000000
21
151.501179000000
31
0.0
0
LINE
5
5fc
100
AcDbEntity
8
A-0
6
CONTINUOUS
62
6
100
AcDbLine
10
498.936461000000
20
151.501179000000
30
0.0
11
548.662798000000
21
151.501179000000
31
0.0
0
LINE
5
5fd
100
AcDbEntity
8
A-0
6
CONTINUOUS
62
6
100
AcDbLine
10
563.078887000000
20
151.501179000000
30
0.0
11
576.078887000000
21
151.501179000000
31
0.0
0
LINE
5
5fe
100
AcDbEntity
8
A-0
6
CONTINUOUS
62
6
100
AcDbLine
10
594.200098000000
20
151.501179000000
30
0.0
11
607.171061000000
21
151.501179000000
31
0.0
0
LINE
5
5ff
100
AcDbEntity
8
A-0
6
CONTINUOUS
62
6
100
AcDbLine
10
611.866481000000
20
151.501179000000
30
0.0
11
622.866481000000
21
151.501179000000
31
0.0
0
LINE
5
600
100
AcDbEntity
8
A-0
6
CONTINUOUS
62
6
100
AcDbLine
10
321.767143000000
20
153.501179000000
30
0.0
11
368.173506000000
21
153.501179000000
31
0.0
0
LINE
5
601
100
AcDbEntity
8
A-0
6
CONTINUOUS
62
6
100
AcDbLine
10
384.449254000000
20
153.501179000000
30
0.0
11
397.449254000000
21
153.501179000000
31
0.0
0
LINE
5
602
100
AcDbEntity
8
A-0
6
CONTINUOUS
62
6
100
AcDbLine
10
426.844428000000
20
153.501179000000
30
0.0
11
439.718725000000
21
153.501179000000
31
0.0
0
LINE
5
603
100
AcDbEntity
8
A-0
6
CONTINUOUS
62
6
100
AcDbLine
10
457.702638000000
20
153.501179000000
30
0.0
11
470.702638000000
21
153.501179000000
31
0.0
0
LINE
5
604
100
AcDbEntity
8
A-0
6
CONTINUOUS
62
6
100
AcDbLine
10
476.869077000000
20
153.501179000000
30
0.0
11
489.869077000000
21
153.501179000000
31
0.0
0
LINE
5
605
100
AcDbEntity
8
A-0
6
CONTINUOUS
62
6
100
AcDbLine
10
499.869077000000
20
153.501179000000
30
0.0
11
547.730183000000
21
153.501179000000
31
0.0
0
LINE
5
606
100
AcDbEntity
8
A-0
6
CONTINUOUS
62
6
100
AcDbLine
10
563.078887000000
20
153.501179000000
30
0.0
11
576.078887000000
21
153.501179000000
31
0.0
0
LINE
5
607
100
AcDbEntity
8
A-0
6
CONTINUOUS
62
6
100
AcDbLine
10
592.950360000000
20
153.501179000000
30
0.0
11
605.921322000000
21
153.501179000000
31
0.0
0
LINE
5
608
100
AcDbEntity
8
A-0
6
CONTINUOUS
62
6
100
AcDbLine
10
611.866481000000
20
153.501179000000
30
0.0
11
622.866481000000
21
153.501179000000
31
0.0
0
LINE
5
609
100
AcDbEntity
8
A-0
6
CONTINUOUS
62
6
100
AcDbLine
10
322.699758000000
20
155.501179000000
30
0.0
11
367.240891000000
21
155.501179000000
31
0.0
0
LINE
5
60a
100
AcDbEntity
8
A-0
6
CONTINUOUS
62
6
100
AcDbLine
10
384.449254000000
20
155.501179000000
30
0.0
11
397.449254000000
21
155.501179000000
31
0.0
0
LINE
5
60b
100
AcDbEntity
8
A-0
6
CONTINUOUS
62
6
100
AcDbLine
10
427.174189000000
20
155.501179000000
30
0.0
11
440.021849000000
21
155.501179000000
31
0.0
0
LINE
5
60c
100
AcDbEntity
8
A-0
6
CONTINUOUS
62
6
100
AcDbLine
10
456.770022000000
20
155.501179000000
30
0.0
11
469.770022000000
21
155.501179000000
31
0.0
0
LINE
5
60d
100
AcDbEntity
8
A-0
6
CONTINUOUS
62
6
100
AcDbLine
10
477.801692000000
20
155.501179000000
30
0.0
11
490.801692000000
21
155.501179000000
31
0.0
0
LINE
5
60e
100
AcDbEntity
8
A-0
6
CONTINUOUS
62
6
100
AcDbLine
10
500.801692000000
20
155.501179000000
30
0.0
11
546.797568000000
21
155.501179000000
31
0.0
0
LINE
5
60f
100
AcDbEntity
8
A-0
6
CONTINUOUS
62
6
100
AcDbLine
10
563.078887000000
20
155.501179000000
30
0.0
11
576.078887000000
21
155.501179000000
31
0.0
0
LINE
5
610
100
AcDbEntity
8
A-0
6
CONTINUOUS
62
6
100
AcDbLine
10
591.700621000000
20
155.501179000000
30
0.0
11
604.671583000000
21
155.501179000000
31
0.0
0
LINE
5
611
100
AcDbEntity
8
A-0
6
CONTINUOUS
62
6
100
AcDbLine
10
611.866481000000
20
155.501179000000
30
0.0
11
622.866481000000
21
155.501179000000
31
0.0
0
LINE
5
612
100
AcDbEntity
8
A-0
6
CONTINUOUS
62
6
100
AcDbLine
10
323.632374000000
20
157.501179000000
30
0.0
11
336.632374000000
21
157.501179000000
31
0.0
0
LINE
5
613
100
AcDbEntity
8
A-0
6
CONTINUOUS
62
6
100
AcDbLine
10
353.308276000000
20
157.501179000000
30
0.0
11
366.308276000000
21
157.501179000000
31
0.0
0
LINE
5
614
100
AcDbEntity
8
A-0
6
CONTINUOUS
62
6
100
AcDbLine
10
384.449254000000
20
157.501179000000
30
0.0
11
397.449254000000
21
157.501179000000
31
0.0
0
LINE
5
615
100
AcDbEntity
8
A-0
6
CONTINUOUS
62
6
100
AcDbLine
10
427.343266000000
20
157.501179000000
30
0.0
11
440.243347000000
21
157.501179000000
31
0.0
0
LINE
5
616
100
AcDbEntity
8
A-0
6
CONTINUOUS
62
6
100
AcDbLine
10
455.837407000000
20
157.501179000000
30
0.0
11
468.837407000000
21
157.501179000000
31
0.0
0
LINE
5
617
100
AcDbEntity
8
A-0
6
CONTINUOUS
62
6
100
AcDbLine
10
478.734307000000
20
157.501179000000
30
0.0
11
491.734307000000
21
157.501179000000
31
0.0
0
LINE
5
618
100
AcDbEntity
8
A-0
6
CONTINUOUS
62
6
100
AcDbLine
10
501.734307000000
20
157.501179000000
30
0.0
11
514.734307000000
21
157.501179000000
31
0.0
0
LINE
5
619
100
AcDbEntity
8
A-0
6
CONTINUOUS
62
6
100
AcDbLine
10
532.864952000000
20
157.501179000000
30
0.0
11
545.864952000000
21
157.501179000000
31
0.0
0
LINE
5
61a
100
AcDbEntity
8
A-0
6
CONTINUOUS
62
6
100
AcDbLine
10
563.078887000000
20
157.501179000000
30
0.0
11
576.078887000000
21
157.501179000000
31
0.0
0
LINE
5
61b
100
AcDbEntity
8
A-0
6
CONTINUOUS
62
6
100
AcDbLine
10
590.450882000000
20
157.501179000000
30
0.0
11
603.421845000000
21
157.501179000000
31
0.0
0
LINE
5
61c
100
AcDbEntity
8
A-0
6
CONTINUOUS
62
6
100
AcDbLine
10
611.866481000000
20
157.501179000000
30
0.0
11
622.866481000000
21
157.501179000000
31
0.0
0
LINE
5
61d
100
AcDbEntity
8
A-0
6
CONTINUOUS
62
6
100
AcDbLine
10
324.564989000000
20
159.501179000000
30
0.0
11
337.564989000000
21
159.501179000000
31
0.0
0
LINE
5
61e
100
AcDbEntity
8
A-0
6
CONTINUOUS
62
6
100
AcDbLine
10
352.375660000000
20
159.501179000000
30
0.0
11
365.375660000000
21
159.501179000000
31
0.0
0
LINE
5
61f
100
AcDbEntity
8
A-0
6
CONTINUOUS
62
6
100
AcDbLine
10
384.449254000000
20
159.501179000000
30
0.0
11
397.449254000000
21
159.501179000000
31
0.0
0
LINE
5
620
100
AcDbEntity
8
A-0
6
CONTINUOUS
62
6
100
AcDbLine
10
427.418453000000
20
159.501179000000
30
0.0
11
440.381587000000
21
159.501179000000
31
0.0
0
LINE
5
621
100
AcDbEntity
8
A-0
6
CONTINUOUS
62
6
100
AcDbLine
10
454.904792000000
20
159.501179000000
30
0.0
11
467.904792000000
21
159.501179000000
31
0.0
0
LINE
5
622
100
AcDbEntity
8
A-0
6
CONTINUOUS
62
6
100
AcDbLine
10
479.666923000000
20
159.501179000000
30
0.0
11
492.666923000000
21
159.501179000000
31
0.0
0
LINE
5
623
100
AcDbEntity
8
A-0
6
CONTINUOUS
62
6
100
AcDbLine
10
502.666923000000
20
159.501179000000
30
0.0
11
515.666923000000
21
159.501179000000
31
0.0
0
LINE
5
624
100
AcDbEntity
8
A-0
6
CONTINUOUS
62
6
100
AcDbLine
10
531.932337000000
20
159.501179000000
30
0.0
11
544.932337000000
21
159.501179000000
31
0.0
0
LINE
5
625
100
AcDbEntity
8
A-0
6
CONTINUOUS
62
6
100
AcDbLine
10
563.078887000000
20
159.501179000000
30
0.0
11
576.078887000000
21
159.501179000000
31
0.0
0
LINE
5
626
100
AcDbEntity
8
A-0
6
CONTINUOUS
62
6
100
AcDbLine
10
589.201143000000
20
159.501179000000
30
0.0
11
602.172106000000
21
159.501179000000
31
0.0
0
LINE
5
627
100
AcDbEntity
8
A-0
6
CONTINUOUS
62
6
100
AcDbLine
10
611.866481000000
20
159.501179000000
30
0.0
11
622.866481000000
21
159.501179000000
31
0.0
0
LINE
5
628
100
AcDbEntity
8
A-0
6
CONTINUOUS
62
6
100
AcDbLine
10
325.497604000000
20
161.501179000000
30
0.0
11
338.497604000000
21
161.501179000000
31
0.0
0
LINE
5
629
100
AcDbEntity
8
A-0
6
CONTINUOUS
62
6
100
AcDbLine
10
351.443045000000
20
161.501179000000
30
0.0
11
364.443045000000
21
161.501179000000
31
0.0
0
LINE
5
62a
100
AcDbEntity
8
A-0
6
CONTINUOUS
62
6
100
AcDbLine
10
384.449254000000
20
161.501179000000
30
0.0
11
397.449254000000
21
161.501179000000
31
0.0
0
LINE
5
62b
100
AcDbEntity
8
A-0
6
CONTINUOUS
62
6
100
AcDbLine
10
427.448060000000
20
161.501179000000
30
0.0
11
440.446015000000
21
161.501179000000
31
0.0
0
LINE
5
62c
100
AcDbEntity
8
A-0
6
CONTINUOUS
62
6
100
AcDbLine
10
453.972176000000
20
161.501179000000
30
0.0
11
466.972176000000
21
161.501179000000
31
0.0
0
LINE
5
62d
100
AcDbEntity
8
A-0
6
CONTINUOUS
62
6
100
AcDbLine
10
480.599538000000
20
161.501179000000
30
0.0
11
493.599538000000
21
161.501179000000
31
0.0
0
LINE
5
62e
100
AcDbEntity
8
A-0
6
CONTINUOUS
62
6
100
AcDbLine
10
503.599538000000
20
161.501179000000
30
0.0
11
516.599538000000
21
161.501179000000
31
0.0
0
LINE
5
62f
100
AcDbEntity
8
A-0
6
CONTINUOUS
62
6
100
AcDbLine
10
530.999722000000
20
161.501179000000
30
0.0
11
543.999722000000
21
161.501179000000
31
0.0
0
LINE
5
630
100
AcDbEntity
8
A-0
6
CONTINUOUS
62
6
100
AcDbLine
10
563.078887000000
20
161.501179000000
30
0.0
11
576.078887000000
21
161.501179000000
31
0.0
0
LINE
5
631
100
AcDbEntity
8
A-0
6
CONTINUOUS
62
6
100
AcDbLine
10
587.951405000000
20
161.501179000000
30
0.0
11
600.922367000000
21
161.501179000000
31
0.0
0
LINE
5
632
100
AcDbEntity
8
A-0
6
CONTINUOUS
62
6
100
AcDbLine
10
611.866481000000
20
161.501179000000
30
0.0
11
622.866481000000
21
161.501179000000
31
0.0
0
LINE
5
633
100
AcDbEntity
8
A-0
6
CONTINUOUS
62
6
100
AcDbLine
10
326.430220000000
20
163.501179000000
30
0.0
11
339.430220000000
21
163.501179000000
31
0.0
0
LINE
5
634
100
AcDbEntity
8
A-0
6
CONTINUOUS
62
6
100
AcDbLine
10
350.510430000000
20
163.501179000000
30
0.0
11
363.510430000000
21
163.501179000000
31
0.0
0
LINE
5
635
100
AcDbEntity
8
A-0
6
CONTINUOUS
62
6
100
AcDbLine
10
384.449254000000
20
163.501179000000
30
0.0
11
397.449254000000
21
163.501179000000
31
0.0
0
LINE
5
636
100
AcDbEntity
8
A-0
6
CONTINUOUS
62
6
100
AcDbLine
10
427.431954000000
20
163.501179000000
30
0.0
11
440.405429000000
21
163.501179000000
31
0.0
0
LINE
5
637
100
AcDbEntity
8
A-0
6
CONTINUOUS
62
6
100
AcDbLine
10
453.039561000000
20
163.501179000000
30
0.0
11
466.039561000000
21
163.501179000000
31
0.0
0
LINE
5
638
100
AcDbEntity
8
A-0
6
CONTINUOUS
62
6
100
AcDbLine
10
481.532153000000
20
163.501179000000
30
0.0
11
494.532153000000
21
163.501179000000
31
0.0
0
LINE
5
639
100
AcDbEntity
8
A-0
6
CONTINUOUS
62
6
100
AcDbLine
10
504.532153000000
20
163.501179000000
30
0.0
11
517.532153000000
21
163.501179000000
31
0.0
0
LINE
5
63a
100
AcDbEntity
8
A-0
6
CONTINUOUS
62
6
100
AcDbLine
10
530.067106000000
20
163.501179000000
30
0.0
11
543.067106000000
21
163.501179000000
31
0.0
0
LINE
5
63b
100
AcDbEntity
8
A-0
6
CONTINUOUS
62
6
100
AcDbLine
10
563.078887000000
20
163.501179000000
30
0.0
11
576.078887000000
21
163.501179000000
31
0.0
0
LINE
5
63c
100
AcDbEntity
8
A-0
6
CONTINUOUS
62
6
100
AcDbLine
10
586.701666000000
20
163.501179000000
30
0.0
11
599.672628000000
21
163.501179000000
31
0.0
0
LINE
5
63d
100
AcDbEntity
8
A-0
6
CONTINUOUS
62
6
100
AcDbLine
10
611.866481000000
20
163.501179000000
30
0.0
11
622.866481000000
21
163.501179000000
31
0.0
0
LINE
5
63e
100
AcDbEntity
8
A-0
6
CONTINUOUS
62
6
100
AcDbLine
10
327.362835000000
20
165.501179000000
30
0.0
11
340.362835000000
21
165.501179000000
31
0.0
0
LINE
5
63f
100
AcDbEntity
8
A-0
6
CONTINUOUS
62
6
100
AcDbLine
10
349.577814000000
20
165.501179000000
30
0.0
11
362.577814000000
21
165.501179000000
31
0.0
0
LINE
5
640
100
AcDbEntity
8
A-0
6
CONTINUOUS
62
6
100
AcDbLine
10
384.449254000000
20
165.501179000000
30
0.0
11
397.449254000000
21
165.501179000000
31
0.0
0
LINE
5
641
100
AcDbEntity
8
A-0
6
CONTINUOUS
62
6
100
AcDbLine
10
427.371780000000
20
165.501179000000
30
0.0
11
440.288627000000
21
165.501179000000
31
0.0
0
LINE
5
642
100
AcDbEntity
8
A-0
6
CONTINUOUS
62
6
100
AcDbLine
10
452.106946000000
20
165.501179000000
30
0.0
11
465.106946000000
21
165.501179000000
31
0.0
0
LINE
5
643
100
AcDbEntity
8
A-0
6
CONTINUOUS
62
6
100
AcDbLine
10
482.464769000000
20
165.501179000000
30
0.0
11
495.464769000000
21
165.501179000000
31
0.0
0
LINE
5
644
100
AcDbEntity
8
A-0
6
CONTINUOUS
62
6
100
AcDbLine
10
505.464769000000
20
165.501179000000
30
0.0
11
518.464769000000
21
165.501179000000
31
0.0
0
LINE
5
645
100
AcDbEntity
8
A-0
6
CONTINUOUS
62
6
100
AcDbLine
10
529.134491000000
20
165.501179000000
30
0.0
11
542.134491000000
21
165.501179000000
31
0.0
0
LINE
5
646
100
AcDbEntity
8
A-0
6
CONTINUOUS
62
6
100
AcDbLine
10
563.078887000000
20
165.501179000000
30
0.0
11
576.078887000000
21
165.501179000000
31
0.0
0
LINE
5
647
100
AcDbEntity
8
A-0
6
CONTINUOUS
62
6
100
AcDbLine
10
585.451927000000
20
165.501179000000
30
0.0
11
598.422890000000
21
165.501179000000
31
0.0
0
LINE
5
648
100
AcDbEntity
8
A-0
6
CONTINUOUS
62
6
100
AcDbLine
10
611.866481000000
20
165.501179000000
30
0.0
11
622.866481000000
21
165.501179000000
31
0.0
0
LINE
5
649
100
AcDbEntity
8
A-0
6
CONTINUOUS
62
6
100
AcDbLine
10
328.295450000000
20
167.501179000000
30
0.0
11
341.295450000000
21
167.501179000000
31
0.0
0
LINE
5
64a
100
AcDbEntity
8
A-0
6
CONTINUOUS
62
6
100
AcDbLine
10
348.645199000000
20
167.501179000000
30
0.0
11
361.645199000000
21
167.501179000000
31
0.0
0
LINE
5
64b
100
AcDbEntity
8
A-0
6
CONTINUOUS
62
6
100
AcDbLine
10
384.449254000000
20
167.501179000000
30
0.0
11
397.449254000000
21
167.501179000000
31
0.0
0
LINE
5
64c
100
AcDbEntity
8
A-0
6
CONTINUOUS
62
6
100
AcDbLine
10
427.212123000000
20
167.501179000000
30
0.0
11
440.086809000000
21
167.501179000000
31
0.0
0
LINE
5
64d
100
AcDbEntity
8
A-0
6
CONTINUOUS
62
6
100
AcDbLine
10
451.174330000000
20
167.501179000000
30
0.0
11
464.174330000000
21
167.501179000000
31
0.0
0
LINE
5
64e
100
AcDbEntity
8
A-0
6
CONTINUOUS
62
6
100
AcDbLine
10
483.397384000000
20
167.501179000000
30
0.0
11
496.397384000000
21
167.501179000000
31
0.0
0
LINE
5
64f
100
AcDbEntity
8
A-0
6
CONTINUOUS
62
6
100
AcDbLine
10
506.397384000000
20
167.501179000000
30
0.0
11
519.397384000000
21
167.501179000000
31
0.0
0
LINE
5
650
100
AcDbEntity
8
A-0
6
CONTINUOUS
62
6
100
AcDbLine
10
528.201876000000
20
167.501179000000
30
0.0
11
541.201876000000
21
167.501179000000
31
0.0
0
LINE
5
651
100
AcDbEntity
8
A-0
6
CONTINUOUS
62
6
100
AcDbLine
10
563.078887000000
20
167.501179000000
30
0.0
11
576.078887000000
21
167.501179000000
31
0.0
0
LINE
5
652
100
AcDbEntity
8
A-0
6
CONTINUOUS
62
6
100
AcDbLine
10
584.202189000000
20
167.501179000000
30
0.0
11
597.173151000000
21
167.501179000000
31
0.0
0
LINE
5
653
100
AcDbEntity
8
A-0
6
CONTINUOUS
62
6
100
AcDbLine
10
611.866481000000
20
167.501179000000
30
0.0
11
622.866481000000
21
167.501179000000
31
0.0
0
LINE
5
654
100
AcDbEntity
8
A-0
6
CONTINUOUS
62
6
100
AcDbLine
10
329.228066000000
20
169.501179000000
30
0.0
11
342.228066000000
21
169.501179000000
31
0.0
0
LINE
5
655
100
AcDbEntity
8
A-0
6
CONTINUOUS
62
6
100
AcDbLine
10
347.712584000000
20
169.501179000000
30
0.0
11
360.712584000000
21
169.501179000000
31
0.0
0
LINE
5
656
100
AcDbEntity
8
A-0
6
CONTINUOUS
62
6
100
AcDbLine
10
384.449254000000
20
169.501179000000
30
0.0
11
397.449254000000
21
169.501179000000
31
0.0
0
LINE
5
657
100
AcDbEntity
8
A-0
6
CONTINUOUS
62
6
100
AcDbLine
10
426.921207000000
20
169.501179000000
30
0.0
11
439.793184000000
21
169.501179000000
31
0.0
0
LINE
5
658
100
AcDbEntity
8
A-0
6
CONTINUOUS
62
6
100
AcDbLine
10
450.241715000000
20
169.501179000000
30
0.0
11
463.241715000000
21
169.501179000000
31
0.0
0
LINE
5
659
100
AcDbEntity
8
A-0
6
CONTINUOUS
62
6
100
AcDbLine
10
484.329999000000
20
169.501179000000
30
0.0
11
497.329999000000
21
169.501179000000
31
0.0
0
LINE
5
65a
100
AcDbEntity
8
A-0
6
CONTINUOUS
62
6
100
AcDbLine
10
507.329999000000
20
169.501179000000
30
0.0
11
520.329999000000
21
169.501179000000
31
0.0
0
LINE
5
65b
100
AcDbEntity
8
A-0
6
CONTINUOUS
62
6
100
AcDbLine
10
527.269260000000
20
169.501179000000
30
0.0
11
540.269260000000
21
169.501179000000
31
0.0
0
LINE
5
65c
100
AcDbEntity
8
A-0
6
CONTINUOUS
62
6
100
AcDbLine
10
563.078887000000
20
169.501179000000
30
0.0
11
576.078887000000
21
169.501179000000
31
0.0
0
LINE
5
65d
100
AcDbEntity
8
A-0
6
CONTINUOUS
62
6
100
AcDbLine
10
582.952450000000
20
169.501179000000
30
0.0
11
595.923412000000
21
169.501179000000
31
0.0
0
LINE
5
65e
100
AcDbEntity
8
A-0
6
CONTINUOUS
62
6
100
AcDbLine
10
611.866481000000
20
169.501179000000
30
0.0
11
622.866481000000
21
169.501179000000
31
0.0
0
LINE
5
65f
100
AcDbEntity
8
A-0
6
CONTINUOUS
62
6
100
AcDbLine
10
330.160681000000
20
171.501179000000
30
0.0
11
343.160681000000
21
171.501179000000
31
0.0
0
LINE
5
660
100
AcDbEntity
8
A-0
6
CONTINUOUS
62
6
100
AcDbLine
10
346.779968000000
20
171.501179000000
30
0.0
11
359.779968000000
21
171.501179000000
31
0.0
0
LINE
5
661
100
AcDbEntity
8
A-0
6
CONTINUOUS
62
6
100
AcDbLine
10
384.449254000000
20
171.501179000000
30
0.0
11
397.449254000000
21
171.501179000000
31
0.0
0
LINE
5
662
100
AcDbEntity
8
A-0
6
CONTINUOUS
62
6
100
AcDbLine
10
426.436504000000
20
171.501179000000
30
0.0
11
439.419712000000
21
171.501179000000
31
0.0
0
LINE
5
663
100
AcDbEntity
8
A-0
6
CONTINUOUS
62
6
100
AcDbLine
10
449.309100000000
20
171.501179000000
30
0.0
11
462.309100000000
21
171.501179000000
31
0.0
0
LINE
5
664
100
AcDbEntity
8
A-0
6
CONTINUOUS
62
6
100
AcDbLine
10
485.262614000000
20
171.501179000000
30
0.0
11
498.262614000000
21
171.501179000000
31
0.0
0
LINE
5
665
100
AcDbEntity
8
A-0
6
CONTINUOUS
62
6
100
AcDbLine
10
508.262614000000
20
171.501179000000
30
0.0
11
521.262614000000
21
171.501179000000
31
0.0
0
LINE
5
666
100
AcDbEntity
8
A-0
6
CONTINUOUS
62
6
100
AcDbLine
10
526.336645000000
20
171.501179000000
30
0.0
11
539.336645000000
21
171.501179000000
31
0.0
0
LINE
5
667
100
AcDbEntity
8
A-0
6
CONTINUOUS
62
6
100
AcDbLine
10
563.078887000000
20
171.501179000000
30
0.0
11
576.078887000000
21
171.501179000000
31
0.0
0
LINE
5
668
100
AcDbEntity
8
A-0
6
CONTINUOUS
62
6
100
AcDbLine
10
581.702711000000
20
171.501179000000
30
0.0
11
594.673674000000
21
171.501179000000
31
0.0
0
LINE
5
669
100
AcDbEntity
8
A-0
6
CONTINUOUS
62
6
100
AcDbLine
10
611.866481000000
20
171.501179000000
30
0.0
11
622.866481000000
21
171.501179000000
31
0.0
0
LINE
5
66a
100
AcDbEntity
8
A-0
6
CONTINUOUS
62
6
100
AcDbLine
10
331.093296000000
20
173.501179000000
30
0.0
11
344.093296000000
21
173.501179000000
31
0.0
0
LINE
5
66b
100
AcDbEntity
8
A-0
6
CONTINUOUS
62
6
100
AcDbLine
10
345.847353000000
20
173.501179000000
30
0.0
11
358.847353000000
21
173.501179000000
31
0.0
0
LINE
5
66c
100
AcDbEntity
8
A-0
6
CONTINUOUS
62
6
100
AcDbLine
10
384.449254000000
20
173.501179000000
30
0.0
11
397.449254000000
21
173.501179000000
31
0.0
0
LINE
5
66d
100
AcDbEntity
8
A-0
6
CONTINUOUS
62
6
100
AcDbLine
10
425.652785000000
20
173.501179000000
30
0.0
11
438.967569000000
21
173.501179000000
31
0.0
0
LINE
5
66e
100
AcDbEntity
8
A-0
6
CONTINUOUS
62
6
100
AcDbLine
10
448.376485000000
20
173.501179000000
30
0.0
11
461.376485000000
21
173.501179000000
31
0.0
0
LINE
5
66f
100
AcDbEntity
8
A-0
6
CONTINUOUS
62
6
100
AcDbLine
10
486.195230000000
20
173.501179000000
30
0.0
11
499.195230000000
21
173.501179000000
31
0.0
0
LINE
5
670
100
AcDbEntity
8
A-0
6
CONTINUOUS
62
6
100
AcDbLine
10
509.195230000000
20
173.501179000000
30
0.0
11
522.195230000000
21
173.501179000000
31
0.0
0
LINE
5
671
100
AcDbEntity
8
A-0
6
CONTINUOUS
62
6
100
AcDbLine
10
525.404030000000
20
173.501179000000
30
0.0
11
538.404030000000
21
173.501179000000
31
0.0
0
LINE
5
672
100
AcDbEntity
8
A-0
6
CONTINUOUS
62
6
100
AcDbLine
10
563.078887000000
20
173.501179000000
30
0.0
11
576.078887000000
21
173.501179000000
31
0.0
0
LINE
5
673
100
AcDbEntity
8
A-0
6
CONTINUOUS
62
6
100
AcDbLine
10
580.452972000000
20
173.501179000000
30
0.0
11
593.423935000000
21
173.501179000000
31
0.0
0
LINE
5
674
100
AcDbEntity
8
A-0
6
CONTINUOUS
62
6
100
AcDbLine
10
611.866481000000
20
173.501179000000
30
0.0
11
622.866481000000
21
173.501179000000
31
0.0
0
LINE
5
675
100
AcDbEntity
8
A-0
6
CONTINUOUS
62
6
100
AcDbLine
10
332.025912000000
20
175.501179000000
30
0.0
11
357.914738000000
21
175.501179000000
31
0.0
0
LINE
5
676
100
AcDbEntity
8
A-0
6
CONTINUOUS
62
6
100
AcDbLine
10
384.449254000000
20
175.501179000000
30
0.0
11
397.449254000000
21
175.501179000000
31
0.0
0
LINE
5
677
100
AcDbEntity
8
A-0
6
CONTINUOUS
62
6
100
AcDbLine
10
424.449254000000
20
175.501179000000
30
0.0
11
438.449254000000
21
175.501179000000
31
0.0
0
LINE
5
678
100
AcDbEntity
8
A-0
6
CONTINUOUS
62
6
100
AcDbLine
10
447.443869000000
20
175.501179000000
30
0.0
11
460.443869000000
21
175.501179000000
31
0.0
0
LINE
5
679
100
AcDbEntity
8
A-0
6
CONTINUOUS
62
6
100
AcDbLine
10
487.127845000000
20
175.501179000000
30
0.0
11
500.127845000000
21
175.501179000000
31
0.0
0
LINE
5
67a
100
AcDbEntity
8
A-0
6
CONTINUOUS
62
6
100
AcDbLine
10
510.127845000000
20
175.501179000000
30
0.0
11
523.127845000000
21
175.501179000000
31
0.0
0
LINE
5
67b
100
AcDbEntity
8
A-0
6
CONTINUOUS
62
6
100
AcDbLine
10
524.471414000000
20
175.501179000000
30
0.0
11
537.471414000000
21
175.501179000000
31
0.0
0
LINE
5
67c
100
AcDbEntity
8
A-0
6
CONTINUOUS
62
6
100
AcDbLine
10
563.078887000000
20
175.501179000000
30
0.0
11
576.078887000000
21
175.501179000000
31
0.0
0
LINE
5
67d
100
AcDbEntity
8
A-0
6
CONTINUOUS
62
6
100
AcDbLine
10
579.203234000000
20
175.501179000000
30
0.0
11
592.174196000000
21
175.501179000000
31
0.0
0
LINE
5
67e
100
AcDbEntity
8
A-0
6
CONTINUOUS
62
6
100
AcDbLine
10
611.866481000000
20
175.501179000000
30
0.0
11
622.866481000000
21
175.501179000000
31
0.0
0
LINE
5
67f
100
AcDbEntity
8
A-0
6
CONTINUOUS
62
6
100
AcDbLine
10
332.958527000000
20
177.501179000000
30
0.0
11
356.982122000000
21
177.501179000000
31
0.0
0
LINE
5
680
100
AcDbEntity
8
A-0
6
CONTINUOUS
62
6
100
AcDbLine
10
384.449254000000
20
177.501179000000
30
0.0
11
397.449254000000
21
177.501179000000
31
0.0
0
LINE
5
681
100
AcDbEntity
8
A-0
6
CONTINUOUS
62
6
100
AcDbLine
10
422.324754000000
20
177.501179000000
30
0.0
11
437.821241000000
21
177.501179000000
31
0.0
0
LINE
5
682
100
AcDbEntity
8
A-0
6
CONTINUOUS
62
6
100
AcDbLine
10
446.511254000000
20
177.501179000000
30
0.0
11
459.511254000000
21
177.501179000000
31
0.0
0
LINE
5
683
100
AcDbEntity
8
A-0
6
CONTINUOUS
62
6
100
AcDbLine
10
488.060460000000
20
177.501179000000
30
0.0
11
501.060460000000
21
177.501179000000
31
0.0
0
LINE
5
684
100
AcDbEntity
8
A-0
6
CONTINUOUS
62
6
100
AcDbLine
10
511.060460000000
20
177.501179000000
30
0.0
11
536.538799000000
21
177.501179000000
31
0.0
0
LINE
5
685
100
AcDbEntity
8
A-0
6
CONTINUOUS
62
6
100
AcDbLine
10
563.078887000000
20
177.501179000000
30
0.0
11
576.078887000000
21
177.501179000000
31
0.0
0
LINE
5
686
100
AcDbEntity
8
A-0
6
CONTINUOUS
62
6
100
AcDbLine
10
577.953495000000
20
177.501179000000
30
0.0
11
590.924458000000
21
177.501179000000
31
0.0
0
LINE
5
687
100
AcDbEntity
8
A-0
6
CONTINUOUS
62
6
100
AcDbLine
10
611.866481000000
20
177.501179000000
30
0.0
11
622.866481000000
21
177.501179000000
31
0.0
0
LINE
5
688
100
AcDbEntity
8
A-0
6
CONTINUOUS
62
6
100
AcDbLine
10
333.891142000000
20
179.501179000000
30
0.0
11
356.049507000000
21
179.501179000000
31
0.0
0
LINE
5
689
100
AcDbEntity
8
A-0
6
CONTINUOUS
62
6
100
AcDbLine
10
384.449254000000
20
179.501179000000
30
0.0
11
397.449254000000
21
179.501179000000
31
0.0
0
LINE
5
68a
100
AcDbEntity
8
A-0
6
CONTINUOUS
62
6
100
AcDbLine
10
419.245910000000
20
179.501179000000
30
0.0
11
436.990624000000
21
179.501179000000
31
0.0
0
LINE
5
68b
100
AcDbEntity
8
A-0
6
CONTINUOUS
62
6
100
AcDbLine
10
445.578639000000
20
179.501179000000
30
0.0
11
458.578639000000
21
179.501179000000
31
0.0
0
LINE
5
68c
100
AcDbEntity
8
A-0
6
CONTINUOUS
62
6
100
AcDbLine
10
488.993076000000
20
179.501179000000
30
0.0
11
501.993076000000
21
179.501179000000
31
0.0
0
LINE
5
68d
100
AcDbEntity
8
A-0
6
CONTINUOUS
62
6
100
AcDbLine
10
511.993076000000
20
179.501179000000
30
0.0
11
535.606184000000
21
179.501179000000
31
0.0
0
LINE
5
68e
100
AcDbEntity
8
A-0
6
CONTINUOUS
62
6
100
AcDbLine
10
563.078887000000
20
179.501179000000
30
0.0
11
576.078887000000
21
179.501179000000
31
0.0
0
LINE
5
68f
100
AcDbEntity
8
A-0
6
CONTINUOUS
62
6
100
AcDbLine
10
576.703756000000
20
179.501179000000
30
0.0
11
589.674719000000
21
179.501179000000
31
0.0
0
LINE
5
690
100
AcDbEntity
8
A-0
6
CONTINUOUS
62
6
100
AcDbLine
10
611.866481000000
20
179.501179000000
30
0.0
11
622.866481000000
21
179.501179000000
31
0.0
0
LINE
5
691
100
AcDbEntity
8
A-0
6
CONTINUOUS
62
6
100
AcDbLine
10
334.823758000000
20
181.501179000000
30
0.0
11
355.116892000000
21
181.501179000000
31
0.0
0
LINE
5
692
100
AcDbEntity
8
A-0
6
CONTINUOUS
62
6
100
AcDbLine
10
384.449254000000
20
181.501179000000
30
0.0
11
435.759814000000
21
181.501179000000
31
0.0
0
LINE
5
693
100
AcDbEntity
8
A-0
6
CONTINUOUS
62
6
100
AcDbLine
10
444.646023000000
20
181.501179000000
30
0.0
11
457.646023000000
21
181.501179000000
31
0.0
0
LINE
5
694
100
AcDbEntity
8
A-0
6
CONTINUOUS
62
6
100
AcDbLine
10
489.925691000000
20
181.501179000000
30
0.0
11
502.925691000000
21
181.501179000000
31
0.0
0
LINE
5
695
100
AcDbEntity
8
A-0
6
CONTINUOUS
62
6
100
AcDbLine
10
512.925691000000
20
181.501179000000
30
0.0
11
534.673569000000
21
181.501179000000
31
0.0
0
LINE
5
696
100
AcDbEntity
8
A-0
6
CONTINUOUS
62
6
100
AcDbLine
10
563.078887000000
20
181.501179000000
30
0.0
11
588.424980000000
21
181.501179000000
31
0.0
0
LINE
5
697
100
AcDbEntity
8
A-0
6
CONTINUOUS
62
6
100
AcDbLine
10
611.866481000000
20
181.501179000000
30
0.0
11
622.866481000000
21
181.501179000000
31
0.0
0
LINE
5
698
100
AcDbEntity
8
A-0
6
CONTINUOUS
62
6
100
AcDbLine
10
335.756373000000
20
183.501179000000
30
0.0
11
354.184276000000
21
183.501179000000
31
0.0
0
LINE
5
699
100
AcDbEntity
8
A-0
6
CONTINUOUS
62
6
100
AcDbLine
10
384.449254000000
20
183.501179000000
30
0.0
11
433.868202000000
21
183.501179000000
31
0.0
0
LINE
5
69a
100
AcDbEntity
8
A-0
6
CONTINUOUS
62
6
100
AcDbLine
10
443.713408000000
20
183.501179000000
30
0.0
11
456.713408000000
21
183.501179000000
31
0.0
0
LINE
5
69b
100
AcDbEntity
8
A-0
6
CONTINUOUS
62
6
100
AcDbLine
10
490.858306000000
20
183.501179000000
30
0.0
11
503.858306000000
21
183.501179000000
31
0.0
0
LINE
5
69c
100
AcDbEntity
8
A-0
6
CONTINUOUS
62
6
100
AcDbLine
10
513.858306000000
20
183.501179000000
30
0.0
11
533.740953000000
21
183.501179000000
31
0.0
0
LINE
5
69d
100
AcDbEntity
8
A-0
6
CONTINUOUS
62
6
100
AcDbLine
10
563.078887000000
20
183.501179000000
30
0.0
11
587.175241000000
21
183.501179000000
31
0.0
0
LINE
5
69e
100
AcDbEntity
8
A-0
6
CONTINUOUS
62
6
100
AcDbLine
10
611.866481000000
20
183.501179000000
30
0.0
11
622.866481000000
21
183.501179000000
31
0.0
0
LINE
5
69f
100
AcDbEntity
8
A-0
6
CONTINUOUS
62
6
100
AcDbLine
10
336.688988000000
20
185.501179000000
30
0.0
11
353.251661000000
21
185.501179000000
31
0.0
0
LINE
5
6a0
100
AcDbEntity
8
A-0
6
CONTINUOUS
62
6
100
AcDbLine
10
384.449254000000
20
185.501179000000
30
0.0
11
431.090544000000
21
185.501179000000
31
0.0
0
LINE
5
6a1
100
AcDbEntity
8
A-0
6
CONTINUOUS
62
6
100
AcDbLine
10
442.780793000000
20
185.501179000000
30
0.0
11
455.780793000000
21
185.501179000000
31
0.0
0
LINE
5
6a2
100
AcDbEntity
8
A-0
6
CONTINUOUS
62
6
100
AcDbLine
10
491.790922000000
20
185.501179000000
30
0.0
11
504.790922000000
21
185.501179000000
31
0.0
0
LINE
5
6a3
100
AcDbEntity
8
A-0
6
CONTINUOUS
62
6
100
AcDbLine
10
514.790922000000
20
185.501179000000
30
0.0
11
532.808338000000
21
185.501179000000
31
0.0
0
LINE
5
6a4
100
AcDbEntity
8
A-0
6
CONTINUOUS
62
6
100
AcDbLine
10
563.078887000000
20
185.501179000000
30
0.0
11
585.925503000000
21
185.501179000000
31
0.0
0
LINE
5
6a5
100
AcDbEntity
8
A-0
6
CONTINUOUS
62
6
100
AcDbLine
10
611.866481000000
20
185.501179000000
30
0.0
11
622.866481000000
21
185.501179000000
31
0.0
0
LINE
5
6a6
100
AcDbEntity
8
A-0
6
CONTINUOUS
62
6
100
AcDbLine
10
337.621603000000
20
187.501179000000
30
0.0
11
352.319046000000
21
187.501179000000
31
0.0
0
LINE
5
6a7
100
AcDbEntity
8
A-0
6
CONTINUOUS
62
6
100
AcDbLine
10
384.449254000000
20
187.501179000000
30
0.0
11
427.079884000000
21
187.501179000000
31
0.0
0
LINE
5
6a8
100
AcDbEntity
8
A-0
6
CONTINUOUS
62
6
100
AcDbLine
10
441.848177000000
20
187.501179000000
30
0.0
11
454.848177000000
21
187.501179000000
31
0.0
0
LINE
5
6a9
100
AcDbEntity
8
A-0
6
CONTINUOUS
62
6
100
AcDbLine
10
492.723537000000
20
187.501179000000
30
0.0
11
505.723537000000
21
187.501179000000
31
0.0
0
LINE
5
6aa
100
AcDbEntity
8
A-0
6
CONTINUOUS
62
6
100
AcDbLine
10
515.723537000000
20
187.501179000000
30
0.0
11
531.875723000000
21
187.501179000000
31
0.0
0
LINE
5
6ab
100
AcDbEntity
8
A-0
6
CONTINUOUS
62
6
100
AcDbLine
10
563.078887000000
20
187.501179000000
30
0.0
11
584.675764000000
21
187.501179000000
31
0.0
0
LINE
5
6ac
100
AcDbEntity
8
A-0
6
CONTINUOUS
62
6
100
AcDbLine
10
611.866481000000
20
187.501179000000
30
0.0
11
622.866481000000
21
187.501179000000
31
0.0
0
LINE
5
6ad
100
AcDbEntity
8
A-0
6
CONTINUOUS
62
6
100
AcDbLine
10
338.554219000000
20
189.501179000000
30
0.0
11
351.386430000000
21
189.501179000000
31
0.0
0
LINE
5
6ae
100
AcDbEntity
8
A-0
6
CONTINUOUS
62
6
100
AcDbLine
10
384.449254000000
20
189.501179000000
30
0.0
11
421.195928000000
21
189.501179000000
31
0.0
0
LINE
5
6af
100
AcDbEntity
8
A-0
6
CONTINUOUS
62
6
100
AcDbLine
10
440.915562000000
20
189.501179000000
30
0.0
11
453.915562000000
21
189.501179000000
31
0.0
0
LINE
5
6b0
100
AcDbEntity
8
A-0
6
CONTINUOUS
62
6
100
AcDbLine
10
493.656152000000
20
189.501179000000
30
0.0
11
506.656152000000
21
189.501179000000
31
0.0
0
LINE
5
6b1
100
AcDbEntity
8
A-0
6
CONTINUOUS
62
6
100
AcDbLine
10
516.656152000000
20
189.501179000000
30
0.0
11
530.943107000000
21
189.501179000000
31
0.0
0
LINE
5
6b2
100
AcDbEntity
8
A-0
6
CONTINUOUS
62
6
100
AcDbLine
10
563.078887000000
20
189.501179000000
30
0.0
11
583.426025000000
21
189.501179000000
31
0.0
0
LINE
5
6b3
100
AcDbEntity
8
A-0
6
CONTINUOUS
62
6
100
AcDbLine
10
611.866481000000
20
189.501179000000
30
0.0
11
622.866481000000
21
189.501179000000
31
0.0
0
LINE
5
6b4
100
AcDbEntity
8
A-0
6
CONTINUOUS
62
6
100
AcDbLine
10
204.111627000000
20
134.190526000000
30
0.0
11
246.150125000000
21
134.190526000000
31
0.0
0
LINE
5
6b5
100
AcDbEntity
8
A-0
6
CONTINUOUS
62
6
100
AcDbLine
10
204.111627000000
20
135.190526000000
30
0.0
11
246.150125000000
21
135.190526000000
31
0.0
0
LINE
5
6b6
100
AcDbEntity
8
A-0
6
CONTINUOUS
62
6
100
AcDbLine
10
204.111627000000
20
136.190526000000
30
0.0
11
246.150125000000
21
136.190526000000
31
0.0
0
LINE
5
6b7
100
AcDbEntity
8
A-0
6
CONTINUOUS
62
6
100
AcDbLine
10
204.111627000000
20
137.190526000000
30
0.0
11
246.150125000000
21
137.190526000000
31
0.0
0
LINE
5
6b8
100
AcDbEntity
8
A-0
6
CONTINUOUS
62
6
100
AcDbLine
10
204.111627000000
20
138.190526000000
30
0.0
11
246.150125000000
21
138.190526000000
31
0.0
0
LINE
5
6b9
100
AcDbEntity
8
A-0
6
CONTINUOUS
62
6
100
AcDbLine
10
204.111627000000
20
139.190526000000
30
0.0
11
246.150125000000
21
139.190526000000
31
0.0
0
LINE
5
6ba
100
AcDbEntity
8
A-0
6
CONTINUOUS
62
6
100
AcDbLine
10
204.111627000000
20
140.190526000000
30
0.0
11
246.150125000000
21
140.190526000000
31
0.0
0
LINE
5
6bb
100
AcDbEntity
8
A-0
6
CONTINUOUS
62
6
100
AcDbLine
10
204.111627000000
20
141.190526000000
30
0.0
11
246.150125000000
21
141.190526000000
31
0.0
0
LINE
5
6bc
100
AcDbEntity
8
A-0
6
CONTINUOUS
62
6
100
AcDbLine
10
204.111627000000
20
142.190526000000
30
0.0
11
246.150125000000
21
142.190526000000
31
0.0
0
LINE
5
6bd
100
AcDbEntity
8
A-0
6
CONTINUOUS
62
6
100
AcDbLine
10
204.111627000000
20
143.190526000000
30
0.0
11
246.150125000000
21
143.190526000000
31
0.0
0
LINE
5
6be
100
AcDbEntity
8
A-0
6
CONTINUOUS
62
6
100
AcDbLine
10
204.111627000000
20
144.190526000000
30
0.0
11
246.150125000000
21
144.190526000000
31
0.0
0
LINE
5
6bf
100
AcDbEntity
8
A-0
6
CONTINUOUS
62
6
100
AcDbLine
10
204.111627000000
20
145.190526000000
30
0.0
11
246.150125000000
21
145.190526000000
31
0.0
0
LINE
5
6c0
100
AcDbEntity
8
A-0
6
CONTINUOUS
62
6
100
AcDbLine
10
204.111627000000
20
146.190526000000
30
0.0
11
246.150125000000
21
146.190526000000
31
0.0
0
LINE
5
6c1
100
AcDbEntity
8
A-0
6
CONTINUOUS
62
6
100
AcDbLine
10
204.111627000000
20
147.190526000000
30
0.0
11
246.150125000000
21
147.190526000000
31
0.0
0
LINE
5
6c2
100
AcDbEntity
8
A-0
6
CONTINUOUS
62
6
100
AcDbLine
10
204.111627000000
20
148.190526000000
30
0.0
11
246.150125000000
21
148.190526000000
31
0.0
0
LINE
5
6c3
100
AcDbEntity
8
A-0
6
CONTINUOUS
62
6
100
AcDbLine
10
204.111627000000
20
149.190526000000
30
0.0
11
246.150125000000
21
149.190526000000
31
0.0
0
LINE
5
6c4
100
AcDbEntity
8
A-0
6
CONTINUOUS
62
6
100
AcDbLine
10
204.111627000000
20
150.190526000000
30
0.0
11
246.150125000000
21
150.190526000000
31
0.0
0
LINE
5
6c5
100
AcDbEntity
8
A-0
6
CONTINUOUS
62
6
100
AcDbLine
10
204.111627000000
20
151.190526000000
30
0.0
11
246.150125000000
21
151.190526000000
31
0.0
0
LINE
5
6c6
100
AcDbEntity
8
A-0
6
CONTINUOUS
62
6
100
AcDbLine
10
204.111627000000
20
152.190526000000
30
0.0
11
246.150125000000
21
152.190526000000
31
0.0
0
LINE
5
6c7
100
AcDbEntity
8
A-0
6
CONTINUOUS
62
6
100
AcDbLine
10
204.111627000000
20
153.190526000000
30
0.0
11
246.150125000000
21
153.190526000000
31
0.0
0
LINE
5
6c8
100
AcDbEntity
8
A-0
6
CONTINUOUS
62
6
100
AcDbLine
10
204.111627000000
20
154.190526000000
30
0.0
11
246.150125000000
21
154.190526000000
31
0.0
0
LINE
5
6c9
100
AcDbEntity
8
A-0
6
CONTINUOUS
62
6
100
AcDbLine
10
204.111627000000
20
155.190526000000
30
0.0
11
246.150125000000
21
155.190526000000
31
0.0
0
LINE
5
6ca
100
AcDbEntity
8
A-0
6
CONTINUOUS
62
6
100
AcDbLine
10
204.111627000000
20
156.190526000000
30
0.0
11
246.150125000000
21
156.190526000000
31
0.0
0
LINE
5
6cb
100
AcDbEntity
8
A-0
6
CONTINUOUS
62
6
100
AcDbLine
10
204.111627000000
20
157.190526000000
30
0.0
11
246.150125000000
21
157.190526000000
31
0.0
0
LINE
5
6cc
100
AcDbEntity
8
A-0
6
CONTINUOUS
62
6
100
AcDbLine
10
204.111627000000
20
158.190526000000
30
0.0
11
246.150125000000
21
158.190526000000
31
0.0
0
LINE
5
6cd
100
AcDbEntity
8
A-0
6
CONTINUOUS
62
6
100
AcDbLine
10
204.111627000000
20
159.190526000000
30
0.0
11
246.150125000000
21
159.190526000000
31
0.0
0
LINE
5
6ce
100
AcDbEntity
8
A-0
6
CONTINUOUS
62
6
100
AcDbLine
10
204.111627000000
20
160.190526000000
30
0.0
11
246.150125000000
21
160.190526000000
31
0.0
0
LINE
5
6cf
100
AcDbEntity
8
A-0
6
CONTINUOUS
62
6
100
AcDbLine
10
204.111627000000
20
161.190526000000
30
0.0
11
246.150125000000
21
161.190526000000
31
0.0
0
LINE
5
6d0
100
AcDbEntity
8
A-0
6
CONTINUOUS
62
6
100
AcDbLine
10
204.111627000000
20
162.190526000000
30
0.0
11
246.150125000000
21
162.190526000000
31
0.0
0
LINE
5
6d1
100
AcDbEntity
8
A-0
6
CONTINUOUS
62
6
100
AcDbLine
10
204.111627000000
20
163.190526000000
30
0.0
11
246.150125000000
21
163.190526000000
31
0.0
0
LINE
5
6d2
100
AcDbEntity
8
A-0
6
CONTINUOUS
62
6
100
AcDbLine
10
204.111627000000
20
164.190526000000
30
0.0
11
246.150125000000
21
164.190526000000
31
0.0
0
LINE
5
6d3
100
AcDbEntity
8
A-0
6
CONTINUOUS
62
6
100
AcDbLine
10
204.111627000000
20
165.190526000000
30
0.0
11
246.150125000000
21
165.190526000000
31
0.0
0
LINE
5
6d4
100
AcDbEntity
8
A-0
6
CONTINUOUS
62
6
100
AcDbLine
10
204.111627000000
20
166.190526000000
30
0.0
11
246.150125000000
21
166.190526000000
31
0.0
0
LINE
5
6d5
100
AcDbEntity
8
A-0
6
CONTINUOUS
62
6
100
AcDbLine
10
204.111627000000
20
167.190526000000
30
0.0
11
246.150125000000
21
167.190526000000
31
0.0
0
LINE
5
6d6
100
AcDbEntity
8
A-0
6
CONTINUOUS
62
6
100
AcDbLine
10
204.111627000000
20
168.190526000000
30
0.0
11
246.150125000000
21
168.190526000000
31
0.0
0
LINE
5
6d7
100
AcDbEntity
8
A-0
6
CONTINUOUS
62
6
100
AcDbLine
10
204.111627000000
20
169.190526000000
30
0.0
11
246.150125000000
21
169.190526000000
31
0.0
0
LINE
5
6d8
100
AcDbEntity
8
A-0
6
CONTINUOUS
62
6
100
AcDbLine
10
204.111627000000
20
170.190526000000
30
0.0
11
246.150125000000
21
170.190526000000
31
0.0
0
LINE
5
6d9
100
AcDbEntity
8
A-0
6
CONTINUOUS
62
6
100
AcDbLine
10
204.111627000000
20
171.190526000000
30
0.0
11
246.150125000000
21
171.190526000000
31
0.0
0
LINE
5
6da
100
AcDbEntity
8
A-0
6
CONTINUOUS
62
6
100
AcDbLine
10
204.111627000000
20
172.190526000000
30
0.0
11
246.150125000000
21
172.190526000000
31
0.0
0
LINE
5
6db
100
AcDbEntity
8
A-0
6
CONTINUOUS
62
6
100
AcDbLine
10
204.111627000000
20
173.190526000000
30
0.0
11
246.150125000000
21
173.190526000000
31
0.0
0
LINE
5
6dc
100
AcDbEntity
8
A-0
6
CONTINUOUS
62
6
100
AcDbLine
10
204.111627000000
20
174.190526000000
30
0.0
11
246.150125000000
21
174.190526000000
31
0.0
0
LINE
5
6dd
100
AcDbEntity
8
A-0
6
CONTINUOUS
62
6
100
AcDbLine
10
204.111627000000
20
175.190526000000
30
0.0
11
246.150125000000
21
175.190526000000
31
0.0
0
LINE
5
6de
100
AcDbEntity
8
A-0
6
CONTINUOUS
62
6
100
AcDbLine
10
298.923252000000
20
222.190526000000
30
0.0
11
313.558830000000
21
222.190526000000
31
0.0
0
LINE
5
6df
100
AcDbEntity
8
A-0
6
CONTINUOUS
62
6
100
AcDbLine
10
296.200268000000
20
224.190526000000
30
0.0
11
316.281814000000
21
224.190526000000
31
0.0
0
LINE
5
6e0
100
AcDbEntity
8
A-0
6
CONTINUOUS
62
6
100
AcDbLine
10
294.405323000000
20
226.190526000000
30
0.0
11
318.076759000000
21
226.190526000000
31
0.0
0
LINE
5
6e1
100
AcDbEntity
8
A-0
6
CONTINUOUS
62
6
100
AcDbLine
10
293.150918000000
20
228.190526000000
30
0.0
11
319.331163000000
21
228.190526000000
31
0.0
0
LINE
5
6e2
100
AcDbEntity
8
A-0
6
CONTINUOUS
62
6
100
AcDbLine
10
292.290471000000
20
230.190526000000
30
0.0
11
320.191610000000
21
230.190526000000
31
0.0
0
LINE
5
6e3
100
AcDbEntity
8
A-0
6
CONTINUOUS
62
6
100
AcDbLine
10
291.753616000000
20
232.190526000000
30
0.0
11
320.728466000000
21
232.190526000000
31
0.0
0
LINE
5
6e4
100
AcDbEntity
8
A-0
6
CONTINUOUS
62
6
100
AcDbLine
10
291.504943000000
20
234.190526000000
30
0.0
11
320.977139000000
21
234.190526000000
31
0.0
0
LINE
5
6e5
100
AcDbEntity
8
A-0
6
CONTINUOUS
62
6
100
AcDbLine
10
291.529832000000
20
236.190526000000
30
0.0
11
320.952250000000
21
236.190526000000
31
0.0
0
LINE
5
6e6
100
AcDbEntity
8
A-0
6
CONTINUOUS
62
6
100
AcDbLine
10
291.829700000000
20
238.190526000000
30
0.0
11
320.652382000000
21
238.190526000000
31
0.0
0
LINE
5
6e7
100
AcDbEntity
8
A-0
6
CONTINUOUS
62
6
100
AcDbLine
10
292.422436000000
20
240.190526000000
30
0.0
11
320.059646000000
21
240.190526000000
31
0.0
0
LINE
5
6e8
100
AcDbEntity
8
A-0
6
CONTINUOUS
62
6
100
AcDbLine
10
293.348371000000
20
242.190526000000
30
0.0
11
319.133711000000
21
242.190526000000
31
0.0
0
LINE
5
6e9
100
AcDbEntity
8
A-0
6
CONTINUOUS
62
6
100
AcDbLine
10
294.687339000000
20
244.190526000000
30
0.0
11
317.794743000000
21
244.190526000000
31
0.0
0
LINE
5
6ea
100
AcDbEntity
8
A-0
6
CONTINUOUS
62
6
100
AcDbLine
10
296.610095000000
20
246.190526000000
30
0.0
11
315.871987000000
21
246.190526000000
31
0.0
0
LINE
5
6eb
100
AcDbEntity
8
A-0
6
CONTINUOUS
62
6
100
AcDbLine
10
299.606117000000
20
248.190526000000
30
0.0
11
312.875964000000
21
248.190526000000
31
0.0
0
LINE
5
6ec
100
AcDbEntity
8
A-0
6
CONTINUOUS
62
6
100
AcDbLine
10
320.223162000000
20
230.282895000000
30
0.0
11
320.223162000000
21
239.731703000000
31
0.0
0
LINE
5
6ed
100
AcDbEntity
8
A-0
6
CONTINUOUS
62
6
100
AcDbLine
10
318.223162000000
20
226.390544000000
30
0.0
11
318.223162000000
21
243.624054000000
31
0.0
0
LINE
5
6ee
100
AcDbEntity
8
A-0
6
CONTINUOUS
62
6
100
AcDbLine
10
316.223162000000
20
224.136377000000
30
0.0
11
316.223162000000
21
245.878222000000
31
0.0
0
LINE
5
6ef
100
AcDbEntity
8
A-0
6
CONTINUOUS
62
6
100
AcDbLine
10
314.223162000000
20
222.593378000000
30
0.0
11
314.223162000000
21
247.421220000000
31
0.0
0
LINE
5
6f0
100
AcDbEntity
8
A-0
6
CONTINUOUS
62
6
100
AcDbLine
10
312.223162000000
20
221.515304000000
30
0.0
11
312.223162000000
21
248.499294000000
31
0.0
0
LINE
5
6f1
100
AcDbEntity
8
A-0
6
CONTINUOUS
62
6
100
AcDbLine
10
310.223162000000
20
220.795951000000
30
0.0
11
310.223162000000
21
249.218647000000
31
0.0
0
LINE
5
6f2
100
AcDbEntity
8
A-0
6
CONTINUOUS
62
6
100
AcDbLine
10
308.223162000000
20
220.382290000000
30
0.0
11
308.223162000000
21
249.632308000000
31
0.0
0
LINE
5
6f3
100
AcDbEntity
8
A-0
6
CONTINUOUS
62
6
100
AcDbLine
10
306.223162000000
20
220.248594000000
30
0.0
11
306.223162000000
21
249.766004000000
31
0.0
0
LINE
5
6f4
100
AcDbEntity
8
A-0
6
CONTINUOUS
62
6
100
AcDbLine
10
245.223162000000
20
133.984897000000
30
0.0
11
245.223162000000
21
176.082589000000
31
0.0
0
LINE
5
6f5
100
AcDbEntity
8
A-0
6
CONTINUOUS
62
6
100
AcDbLine
10
244.223162000000
20
133.984897000000
30
0.0
11
244.223162000000
21
176.082589000000
31
0.0
0
LINE
5
6f6
100
AcDbEntity
8
A-0
6
CONTINUOUS
62
6
100
AcDbLine
10
243.223162000000
20
133.984897000000
30
0.0
11
243.223162000000
21
176.082589000000
31
0.0
0
LINE
5
6f7
100
AcDbEntity
8
A-0
6
CONTINUOUS
62
6
100
AcDbLine
10
242.223162000000
20
133.984897000000
30
0.0
11
242.223162000000
21
176.082589000000
31
0.0
0
LINE
5
6f8
100
AcDbEntity
8
A-0
6
CONTINUOUS
62
6
100
AcDbLine
10
241.223162000000
20
133.984897000000
30
0.0
11
241.223162000000
21
176.082589000000
31
0.0
0
LINE
5
6f9
100
AcDbEntity
8
A-0
6
CONTINUOUS
62
6
100
AcDbLine
10
240.223162000000
20
133.984897000000
30
0.0
11
240.223162000000
21
176.082589000000
31
0.0
0
LINE
5
6fa
100
AcDbEntity
8
A-0
6
CONTINUOUS
62
6
100
AcDbLine
10
239.223162000000
20
133.984897000000
30
0.0
11
239.223162000000
21
176.082589000000
31
0.0
0
LINE
5
6fb
100
AcDbEntity
8
A-0
6
CONTINUOUS
62
6
100
AcDbLine
10
238.223162000000
20
133.984897000000
30
0.0
11
238.223162000000
21
176.082589000000
31
0.0
0
LINE
5
6fc
100
AcDbEntity
8
A-0
6
CONTINUOUS
62
6
100
AcDbLine
10
237.223162000000
20
133.984897000000
30
0.0
11
237.223162000000
21
176.082589000000
31
0.0
0
LINE
5
6fd
100
AcDbEntity
8
A-0
6
CONTINUOUS
62
6
100
AcDbLine
10
236.223162000000
20
133.984897000000
30
0.0
11
236.223162000000
21
176.082589000000
31
0.0
0
LINE
5
6fe
100
AcDbEntity
8
A-0
6
CONTINUOUS
62
6
100
AcDbLine
10
235.223162000000
20
133.984897000000
30
0.0
11
235.223162000000
21
176.082589000000
31
0.0
0
LINE
5
6ff
100
AcDbEntity
8
A-0
6
CONTINUOUS
62
6
100
AcDbLine
10
234.223162000000
20
133.984897000000
30
0.0
11
234.223162000000
21
176.082589000000
31
0.0
0
LINE
5
700
100
AcDbEntity
8
A-0
6
CONTINUOUS
62
6
100
AcDbLine
10
233.223162000000
20
133.984897000000
30
0.0
11
233.223162000000
21
176.082589000000
31
0.0
0
LINE
5
701
100
AcDbEntity
8
A-0
6
CONTINUOUS
62
6
100
AcDbLine
10
232.223162000000
20
133.984897000000
30
0.0
11
232.223162000000
21
176.082589000000
31
0.0
0
LINE
5
702
100
AcDbEntity
8
A-0
6
CONTINUOUS
62
6
100
AcDbLine
10
231.223162000000
20
133.984897000000
30
0.0
11
231.223162000000
21
176.082589000000
31
0.0
0
LINE
5
703
100
AcDbEntity
8
A-0
6
CONTINUOUS
62
6
100
AcDbLine
10
230.223162000000
20
133.984897000000
30
0.0
11
230.223162000000
21
176.082589000000
31
0.0
0
LINE
5
704
100
AcDbEntity
8
A-0
6
CONTINUOUS
62
6
100
AcDbLine
10
229.223162000000
20
133.984897000000
30
0.0
11
229.223162000000
21
176.082589000000
31
0.0
0
LINE
5
705
100
AcDbEntity
8
A-0
6
CONTINUOUS
62
6
100
AcDbLine
10
228.223162000000
20
133.984897000000
30
0.0
11
228.223162000000
21
176.082589000000
31
0.0
0
LINE
5
706
100
AcDbEntity
8
A-0
6
CONTINUOUS
62
6
100
AcDbLine
10
227.223162000000
20
133.984897000000
30
0.0
11
227.223162000000
21
176.082589000000
31
0.0
0
LINE
5
707
100
AcDbEntity
8
A-0
6
CONTINUOUS
62
6
100
AcDbLine
10
226.223162000000
20
133.984897000000
30
0.0
11
226.223162000000
21
176.082589000000
31
0.0
0
LINE
5
708
100
AcDbEntity
8
A-0
6
CONTINUOUS
62
6
100
AcDbLine
10
225.223162000000
20
133.984897000000
30
0.0
11
225.223162000000
21
176.082589000000
31
0.0
0
LINE
5
709
100
AcDbEntity
8
A-0
6
CONTINUOUS
62
6
100
AcDbLine
10
224.223162000000
20
133.984897000000
30
0.0
11
224.223162000000
21
176.082589000000
31
0.0
0
LINE
5
70a
100
AcDbEntity
8
A-0
6
CONTINUOUS
62
6
100
AcDbLine
10
223.223162000000
20
133.984897000000
30
0.0
11
223.223162000000
21
176.082589000000
31
0.0
0
LINE
5
70b
100
AcDbEntity
8
A-0
6
CONTINUOUS
62
6
100
AcDbLine
10
222.223162000000
20
133.984897000000
30
0.0
11
222.223162000000
21
176.082589000000
31
0.0
0
LINE
5
70c
100
AcDbEntity
8
A-0
6
CONTINUOUS
62
6
100
AcDbLine
10
221.223162000000
20
133.984897000000
30
0.0
11
221.223162000000
21
176.082589000000
31
0.0
0
LINE
5
70d
100
AcDbEntity
8
A-0
6
CONTINUOUS
62
6
100
AcDbLine
10
220.223162000000
20
133.984897000000
30
0.0
11
220.223162000000
21
176.082589000000
31
0.0
0
LINE
5
70e
100
AcDbEntity
8
A-0
6
CONTINUOUS
62
6
100
AcDbLine
10
219.223162000000
20
133.984897000000
30
0.0
11
219.223162000000
21
176.082589000000
31
0.0
0
LINE
5
70f
100
AcDbEntity
8
A-0
6
CONTINUOUS
62
6
100
AcDbLine
10
218.223162000000
20
133.984897000000
30
0.0
11
218.223162000000
21
176.082589000000
31
0.0
0
LINE
5
710
100
AcDbEntity
8
A-0
6
CONTINUOUS
62
6
100
AcDbLine
10
217.223162000000
20
133.984897000000
30
0.0
11
217.223162000000
21
176.082589000000
31
0.0
0
LINE
5
711
100
AcDbEntity
8
A-0
6
CONTINUOUS
62
6
100
AcDbLine
10
216.223162000000
20
133.984897000000
30
0.0
11
216.223162000000
21
176.082589000000
31
0.0
0
LINE
5
712
100
AcDbEntity
8
A-0
6
CONTINUOUS
62
6
100
AcDbLine
10
215.223162000000
20
133.984897000000
30
0.0
11
215.223162000000
21
176.082589000000
31
0.0
0
LINE
5
713
100
AcDbEntity
8
A-0
6
CONTINUOUS
62
6
100
AcDbLine
10
214.223162000000
20
133.984897000000
30
0.0
11
214.223162000000
21
176.082589000000
31
0.0
0
LINE
5
714
100
AcDbEntity
8
A-0
6
CONTINUOUS
62
6
100
AcDbLine
10
213.223162000000
20
133.984897000000
30
0.0
11
213.223162000000
21
176.082589000000
31
0.0
0
LINE
5
715
100
AcDbEntity
8
A-0
6
CONTINUOUS
62
6
100
AcDbLine
10
212.223162000000
20
133.984897000000
30
0.0
11
212.223162000000
21
176.082589000000
31
0.0
0
LINE
5
716
100
AcDbEntity
8
A-0
6
CONTINUOUS
62
6
100
AcDbLine
10
211.223162000000
20
133.984897000000
30
0.0
11
211.223162000000
21
176.082589000000
31
0.0
0
LINE
5
717
100
AcDbEntity
8
A-0
6
CONTINUOUS
62
6
100
AcDbLine
10
210.223162000000
20
133.984897000000
30
0.0
11
210.223162000000
21
176.082589000000
31
0.0
0
LINE
5
718
100
AcDbEntity
8
A-0
6
CONTINUOUS
62
6
100
AcDbLine
10
209.223162000000
20
133.984897000000
30
0.0
11
209.223162000000
21
176.082589000000
31
0.0
0
LINE
5
719
100
AcDbEntity
8
A-0
6
CONTINUOUS
62
6
100
AcDbLine
10
208.223162000000
20
133.984897000000
30
0.0
11
208.223162000000
21
176.082589000000
31
0.0
0
LINE
5
71a
100
AcDbEntity
8
A-0
6
CONTINUOUS
62
6
100
AcDbLine
10
207.223162000000
20
133.984897000000
30
0.0
11
207.223162000000
21
176.082589000000
31
0.0
0
LINE
5
71b
100
AcDbEntity
8
A-0
6
CONTINUOUS
62
6
100
AcDbLine
10
206.223162000000
20
133.984897000000
30
0.0
11
206.223162000000
21
176.082589000000
31
0.0
0
LINE
5
71c
100
AcDbEntity
8
A-0
6
CONTINUOUS
62
6
100
AcDbLine
10
205.223162000000
20
133.984897000000
30
0.0
11
205.223162000000
21
176.082589000000
31
0.0
0
LINE
5
71d
100
AcDbEntity
8
A-0
6
CONTINUOUS
62
6
100
AcDbLine
10
204.223162000000
20
133.984897000000
30
0.0
11
204.223162000000
21
176.082589000000
31
0.0
0
LINE
5
71e
100
AcDbEntity
8
A-0
6
CONTINUOUS
62
6
100
AcDbLine
10
227.220637000000
20
206.853923000000
30
0.0
11
170.319053000000
21
132.765738000000
31
0.0
0
LINE
5
71f
100
AcDbEntity
8
A-0
6
CONTINUOUS
62
6
100
AcDbLine
10
170.319053000000
20
132.765738000000
30
0.0
11
164.745021000000
21
130.443225000000
31
0.0
0
LINE
5
720
100
AcDbEntity
8
A-0
6
CONTINUOUS
62
6
100
AcDbLine
10
164.745021000000
20
130.443225000000
30
0.0
11
159.635491000000
21
128.585214000000
31
0.0
0
LINE
5
721
100
AcDbEntity
8
A-0
6
CONTINUOUS
62
6
100
AcDbLine
10
159.635491000000
20
128.585214000000
30
0.0
11
156.848474000000
21
131.139979000000
31
0.0
0
LINE
5
722
100
AcDbEntity
8
A-0
6
CONTINUOUS
62
6
100
AcDbLine
10
156.848474000000
20
131.139979000000
30
0.0
11
154.525961000000
21
134.391498000000
31
0.0
0
LINE
5
723
100
AcDbEntity
8
A-0
6
CONTINUOUS
62
6
100
AcDbLine
10
154.525961000000
20
134.391498000000
30
0.0
11
152.667950000000
21
140.662285000000
31
0.0
0
LINE
5
724
100
AcDbEntity
8
A-0
6
CONTINUOUS
62
6
100
AcDbLine
10
152.667950000000
20
140.662285000000
30
0.0
11
154.525961000000
21
146.468569000000
31
0.0
0
LINE
5
725
100
AcDbEntity
8
A-0
6
CONTINUOUS
62
6
100
AcDbLine
10
154.525961000000
20
146.468569000000
30
0.0
11
161.493501000000
21
156.455377000000
31
0.0
0
LINE
5
726
100
AcDbEntity
8
A-0
6
CONTINUOUS
62
6
100
AcDbLine
10
161.493501000000
20
156.455377000000
30
0.0
11
213.982309000000
21
227.524294000000
31
0.0
0
LINE
5
727
100
AcDbEntity
8
A-0
6
CONTINUOUS
62
6
100
AcDbLine
10
213.982309000000
20
227.524294000000
30
0.0
11
213.982309000000
21
232.633824000000
31
0.0
0
LINE
5
728
100
AcDbEntity
8
A-0
6
CONTINUOUS
62
6
100
AcDbLine
10
213.982309000000
20
232.633824000000
30
0.0
11
215.375818000000
21
235.885343000000
31
0.0
0
LINE
5
729
100
AcDbEntity
8
A-0
6
CONTINUOUS
62
6
100
AcDbLine
10
215.375818000000
20
235.885343000000
30
0.0
11
219.091839000000
21
240.065868000000
31
0.0
0
LINE
5
72a
100
AcDbEntity
8
A-0
6
CONTINUOUS
62
6
100
AcDbLine
10
219.091839000000
20
240.065868000000
30
0.0
11
220.253096000000
21
241.227125000000
31
0.0
0
LINE
5
72b
100
AcDbEntity
8
A-0
6
CONTINUOUS
62
6
100
AcDbLine
10
220.253096000000
20
241.227125000000
30
0.0
11
222.343359000000
21
244.246392000000
31
0.0
0
LINE
5
72c
100
AcDbEntity
8
A-0
6
CONTINUOUS
62
6
100
AcDbLine
10
222.343359000000
20
244.246392000000
30
0.0
11
225.827129000000
21
244.710895000000
31
0.0
0
LINE
5
72d
100
AcDbEntity
8
A-0
6
CONTINUOUS
62
6
100
AcDbLine
10
225.827129000000
20
244.710895000000
30
0.0
11
231.865664000000
21
245.872152000000
31
0.0
0
LINE
5
72e
100
AcDbEntity
8
A-0
6
CONTINUOUS
62
6
100
AcDbLine
10
231.865664000000
20
245.872152000000
30
0.0
11
234.188178000000
21
245.639901000000
31
0.0
0
LINE
5
72f
100
AcDbEntity
8
A-0
6
CONTINUOUS
62
6
100
AcDbLine
10
234.188178000000
20
245.639901000000
30
0.0
11
239.065457000000
21
244.014141000000
31
0.0
0
LINE
5
730
100
AcDbEntity
8
A-0
6
CONTINUOUS
62
6
100
AcDbLine
10
239.065457000000
20
244.014141000000
30
0.0
11
240.923468000000
21
241.691628000000
31
0.0
0
LINE
5
731
100
AcDbEntity
8
A-0
6
CONTINUOUS
62
6
100
AcDbLine
10
240.923468000000
20
241.691628000000
30
0.0
11
246.032998000000
21
234.956338000000
31
0.0
0
LINE
5
732
100
AcDbEntity
8
A-0
6
CONTINUOUS
62
6
100
AcDbLine
10
246.032998000000
20
234.956338000000
30
0.0
11
261.826090000000
21
208.711934000000
31
0.0
0
LINE
5
733
100
AcDbEntity
8
A-0
6
CONTINUOUS
62
6
100
AcDbLine
10
273.014718000000
20
189.810507000000
30
0.0
11
295.493435000000
21
151.006963000000
31
0.0
0
LINE
5
734
100
AcDbEntity
8
A-0
6
CONTINUOUS
62
6
100
AcDbLine
10
295.493435000000
20
151.006963000000
30
0.0
11
297.648977000000
21
145.464140000000
31
0.0
0
LINE
5
735
100
AcDbEntity
8
A-0
6
CONTINUOUS
62
6
100
AcDbLine
10
297.648977000000
20
145.464140000000
30
0.0
11
296.725174000000
21
142.692729000000
31
0.0
0
LINE
5
736
100
AcDbEntity
8
A-0
6
CONTINUOUS
62
6
100
AcDbLine
10
296.725174000000
20
142.692729000000
30
0.0
11
293.953762000000
21
138.843546000000
31
0.0
0
LINE
5
737
100
AcDbEntity
8
A-0
6
CONTINUOUS
62
6
100
AcDbLine
10
293.953762000000
20
138.843546000000
30
0.0
11
283.176050000000
21
135.610232000000
31
0.0
0
LINE
5
738
100
AcDbEntity
8
A-0
6
CONTINUOUS
62
6
100
AcDbLine
10
283.176050000000
20
135.610232000000
30
0.0
11
276.709423000000
21
133.300723000000
31
0.0
0
LINE
5
739
100
AcDbEntity
8
A-0
6
CONTINUOUS
62
6
100
AcDbLine
10
276.709423000000
20
133.300723000000
30
0.0
11
271.012633000000
21
135.610232000000
31
0.0
0
LINE
5
73a
100
AcDbEntity
8
A-0
6
CONTINUOUS
62
6
100
AcDbLine
10
271.012633000000
20
135.610232000000
30
0.0
11
262.236496000000
21
145.002238000000
31
0.0
0
LINE
5
73b
100
AcDbEntity
8
A-0
6
CONTINUOUS
62
6
100
AcDbLine
10
262.236496000000
20
145.002238000000
30
0.0
11
261.928562000000
21
150.083159000000
31
0.0
0
LINE
5
73c
100
AcDbEntity
8
A-0
6
CONTINUOUS
62
6
100
AcDbLine
10
261.928562000000
20
150.083159000000
30
0.0
11
227.220637000000
21
206.853923000000
31
0.0
0
LINE
5
73d
100
AcDbEntity
8
A-0
6
CONTINUOUS
62
6
100
AcDbLine
10
292.873232000000
20
138.519387000000
30
0.0
11
295.898715000000
21
141.544870000000
31
0.0
0
LINE
5
73e
100
AcDbEntity
8
A-0
6
CONTINUOUS
62
6
100
AcDbLine
10
288.832622000000
20
137.307204000000
30
0.0
11
297.464340000000
21
145.938922000000
31
0.0
0
LINE
5
73f
100
AcDbEntity
8
A-0
6
CONTINUOUS
62
6
100
AcDbLine
10
284.792012000000
20
136.095021000000
30
0.0
11
296.672380000000
21
147.975389000000
31
0.0
0
LINE
5
740
100
AcDbEntity
8
A-0
6
CONTINUOUS
62
6
100
AcDbLine
10
280.535877000000
20
134.667313000000
30
0.0
11
295.880421000000
21
150.011857000000
31
0.0
0
LINE
5
741
100
AcDbEntity
8
A-0
6
CONTINUOUS
62
6
100
AcDbLine
10
276.447176000000
20
133.407039000000
30
0.0
11
294.962910000000
21
151.922773000000
31
0.0
0
LINE
5
742
100
AcDbEntity
8
A-0
6
CONTINUOUS
62
6
100
AcDbLine
10
274.434641000000
20
134.222932000000
30
0.0
11
293.925426000000
21
153.713716000000
31
0.0
0
LINE
5
743
100
AcDbEntity
8
A-0
6
CONTINUOUS
62
6
100
AcDbLine
10
272.422107000000
20
135.038824000000
30
0.0
11
292.887941000000
21
155.504658000000
31
0.0
0
LINE
5
744
100
AcDbEntity
8
A-0
6
CONTINUOUS
62
6
100
AcDbLine
10
270.603226000000
20
136.048370000000
30
0.0
11
291.850456000000
21
157.295600000000
31
0.0
0
LINE
5
745
100
AcDbEntity
8
A-0
6
CONTINUOUS
62
6
100
AcDbLine
10
269.236951000000
20
137.510523000000
30
0.0
11
290.812971000000
21
159.086543000000
31
0.0
0
LINE
5
746
100
AcDbEntity
8
A-0
6
CONTINUOUS
62
6
100
AcDbLine
10
267.870677000000
20
138.972676000000
30
0.0
11
289.775486000000
21
160.877485000000
31
0.0
0
LINE
5
747
100
AcDbEntity
8
A-0
6
CONTINUOUS
62
6
100
AcDbLine
10
266.504403000000
20
140.434829000000
30
0.0
11
288.738002000000
21
162.668428000000
31
0.0
0
LINE
5
748
100
AcDbEntity
8
A-0
6
CONTINUOUS
62
6
100
AcDbLine
10
265.138129000000
20
141.896982000000
30
0.0
11
287.700517000000
21
164.459370000000
31
0.0
0
LINE
5
749
100
AcDbEntity
8
A-0
6
CONTINUOUS
62
6
100
AcDbLine
10
263.771855000000
20
143.359135000000
30
0.0
11
286.663032000000
21
166.250312000000
31
0.0
0
LINE
5
74a
100
AcDbEntity
8
A-0
6
CONTINUOUS
62
6
100
AcDbLine
10
262.405581000000
20
144.821288000000
30
0.0
11
285.625547000000
21
168.041255000000
31
0.0
0
LINE
5
74b
100
AcDbEntity
8
A-0
6
CONTINUOUS
62
6
100
AcDbLine
10
262.094874000000
20
147.339008000000
30
0.0
11
284.588063000000
21
169.832197000000
31
0.0
0
LINE
5
74c
100
AcDbEntity
8
A-0
6
CONTINUOUS
62
6
100
AcDbLine
10
261.933249000000
20
150.005811000000
30
0.0
11
283.550578000000
21
171.623139000000
31
0.0
0
LINE
5
74d
100
AcDbEntity
8
A-0
6
CONTINUOUS
62
6
100
AcDbLine
10
260.886554000000
20
151.787542000000
30
0.0
11
282.513093000000
21
173.414082000000
31
0.0
0
LINE
5
74e
100
AcDbEntity
8
A-0
6
CONTINUOUS
62
6
100
AcDbLine
10
259.813420000000
20
153.542836000000
30
0.0
11
281.475608000000
21
175.205024000000
31
0.0
0
LINE
5
74f
100
AcDbEntity
8
A-0
6
CONTINUOUS
62
6
100
AcDbLine
10
258.740287000000
20
155.298130000000
30
0.0
11
280.438123000000
21
176.995966000000
31
0.0
0
LINE
5
750
100
AcDbEntity
8
A-0
6
CONTINUOUS
62
6
100
AcDbLine
10
257.667153000000
20
157.053423000000
30
0.0
11
279.400639000000
21
178.786909000000
31
0.0
0
LINE
5
751
100
AcDbEntity
8
A-0
6
CONTINUOUS
62
6
100
AcDbLine
10
256.594020000000
20
158.808717000000
30
0.0
11
278.363154000000
21
180.577851000000
31
0.0
0
LINE
5
752
100
AcDbEntity
8
A-0
6
CONTINUOUS
62
6
100
AcDbLine
10
255.520887000000
20
160.564011000000
30
0.0
11
277.325669000000
21
182.368793000000
31
0.0
0
LINE
5
753
100
AcDbEntity
8
A-0
6
CONTINUOUS
62
6
100
AcDbLine
10
254.447753000000
20
162.319305000000
30
0.0
11
276.288184000000
21
184.159736000000
31
0.0
0
LINE
5
754
100
AcDbEntity
8
A-0
6
CONTINUOUS
62
6
100
AcDbLine
10
253.374620000000
20
164.074598000000
30
0.0
11
275.250700000000
21
185.950678000000
31
0.0
0
LINE
5
755
100
AcDbEntity
8
A-0
6
CONTINUOUS
62
6
100
AcDbLine
10
252.301487000000
20
165.829892000000
30
0.0
11
274.213215000000
21
187.741620000000
31
0.0
0
LINE
5
756
100
AcDbEntity
8
A-0
6
CONTINUOUS
62
6
100
AcDbLine
10
251.228353000000
20
167.585186000000
30
0.0
11
273.175730000000
21
189.532563000000
31
0.0
0
LINE
5
757
100
AcDbEntity
8
A-0
6
CONTINUOUS
62
6
100
AcDbLine
10
250.155220000000
20
169.340480000000
30
0.0
11
270.625247000000
21
189.810507000000
31
0.0
0
LINE
5
758
100
AcDbEntity
8
A-0
6
CONTINUOUS
62
6
100
AcDbLine
10
249.082086000000
20
171.095773000000
30
0.0
11
267.796820000000
21
189.810507000000
31
0.0
0
LINE
5
759
100
AcDbEntity
8
A-0
6
CONTINUOUS
62
6
100
AcDbLine
10
248.008953000000
20
172.851067000000
30
0.0
11
264.968393000000
21
189.810507000000
31
0.0
0
LINE
5
75a
100
AcDbEntity
8
A-0
6
CONTINUOUS
62
6
100
AcDbLine
10
246.935820000000
20
174.606361000000
30
0.0
11
262.139966000000
21
189.810507000000
31
0.0
0
LINE
5
75b
100
AcDbEntity
8
A-0
6
CONTINUOUS
62
6
100
AcDbLine
10
245.862686000000
20
176.361654000000
30
0.0
11
259.311539000000
21
189.810507000000
31
0.0
0
LINE
5
75c
100
AcDbEntity
8
A-0
6
CONTINUOUS
62
6
100
AcDbLine
10
244.789553000000
20
178.116948000000
30
0.0
11
256.483111000000
21
189.810507000000
31
0.0
0
LINE
5
75d
100
AcDbEntity
8
A-0
6
CONTINUOUS
62
6
100
AcDbLine
10
243.716419000000
20
179.872242000000
30
0.0
11
253.654684000000
21
189.810507000000
31
0.0
0
LINE
5
75e
100
AcDbEntity
8
A-0
6
CONTINUOUS
62
6
100
AcDbLine
10
242.643286000000
20
181.627536000000
30
0.0
11
251.032312000000
21
190.016562000000
31
0.0
0
LINE
5
75f
100
AcDbEntity
8
A-0
6
CONTINUOUS
62
6
100
AcDbLine
10
241.570153000000
20
183.382829000000
30
0.0
11
254.896015000000
21
196.708692000000
31
0.0
0
LINE
5
760
100
AcDbEntity
8
A-0
6
CONTINUOUS
62
6
100
AcDbLine
10
240.497019000000
20
185.138123000000
30
0.0
11
258.759719000000
21
203.400823000000
31
0.0
0
LINE
5
761
100
AcDbEntity
8
A-0
6
CONTINUOUS
62
6
100
AcDbLine
10
239.423886000000
20
186.893417000000
30
0.0
11
261.606804000000
21
209.076335000000
31
0.0
0
LINE
5
762
100
AcDbEntity
8
A-0
6
CONTINUOUS
62
6
100
AcDbLine
10
238.350752000000
20
188.648711000000
30
0.0
11
260.544191000000
21
210.842149000000
31
0.0
0
LINE
5
763
100
AcDbEntity
8
A-0
6
CONTINUOUS
62
6
100
AcDbLine
10
237.277619000000
20
190.404004000000
30
0.0
11
259.481577000000
21
212.607963000000
31
0.0
0
LINE
5
764
100
AcDbEntity
8
A-0
6
CONTINUOUS
62
6
100
AcDbLine
10
236.204486000000
20
192.159298000000
30
0.0
11
258.418964000000
21
214.373776000000
31
0.0
0
LINE
5
765
100
AcDbEntity
8
A-0
6
CONTINUOUS
62
6
100
AcDbLine
10
235.131352000000
20
193.914592000000
30
0.0
11
257.356350000000
21
216.139590000000
31
0.0
0
LINE
5
766
100
AcDbEntity
8
A-0
6
CONTINUOUS
62
6
100
AcDbLine
10
234.058219000000
20
195.669886000000
30
0.0
11
256.293737000000
21
217.905404000000
31
0.0
0
LINE
5
767
100
AcDbEntity
8
A-0
6
CONTINUOUS
62
6
100
AcDbLine
10
166.901781000000
20
131.341875000000
30
0.0
11
176.918853000000
21
141.358946000000
31
0.0
0
LINE
5
768
100
AcDbEntity
8
A-0
6
CONTINUOUS
62
6
100
AcDbLine
10
232.985085000000
20
197.425179000000
30
0.0
11
255.231123000000
21
219.671217000000
31
0.0
0
LINE
5
769
100
AcDbEntity
8
A-0
6
CONTINUOUS
62
6
100
AcDbLine
10
162.277380000000
20
129.545901000000
30
0.0
11
186.283240000000
21
153.551761000000
31
0.0
0
LINE
5
76a
100
AcDbEntity
8
A-0
6
CONTINUOUS
62
6
100
AcDbLine
10
231.911952000000
20
199.180473000000
30
0.0
11
254.168510000000
21
221.437031000000
31
0.0
0
LINE
5
76b
100
AcDbEntity
8
A-0
6
CONTINUOUS
62
6
100
AcDbLine
10
159.036938000000
20
129.133887000000
30
0.0
11
195.647627000000
21
165.744575000000
31
0.0
0
LINE
5
76c
100
AcDbEntity
8
A-0
6
CONTINUOUS
62
6
100
AcDbLine
10
230.838819000000
20
200.935767000000
30
0.0
11
253.105896000000
21
223.202844000000
31
0.0
0
LINE
5
76d
100
AcDbEntity
8
A-0
6
CONTINUOUS
62
6
100
AcDbLine
10
157.561237000000
20
130.486613000000
30
0.0
11
205.012014000000
21
177.937389000000
31
0.0
0
LINE
5
76e
100
AcDbEntity
8
A-0
6
CONTINUOUS
62
6
100
AcDbLine
10
229.765685000000
20
202.691060000000
30
0.0
11
252.043283000000
21
224.968658000000
31
0.0
0
LINE
5
76f
100
AcDbEntity
8
A-0
6
CONTINUOUS
62
6
100
AcDbLine
10
156.239183000000
20
131.992986000000
30
0.0
11
214.376401000000
21
190.130203000000
31
0.0
0
LINE
5
770
100
AcDbEntity
8
A-0
6
CONTINUOUS
62
6
100
AcDbLine
10
228.692552000000
20
204.446354000000
30
0.0
11
250.980669000000
21
226.734472000000
31
0.0
0
LINE
5
771
100
AcDbEntity
8
A-0
6
CONTINUOUS
62
6
100
AcDbLine
10
155.060672000000
20
133.642902000000
30
0.0
11
223.740788000000
21
202.323018000000
31
0.0
0
LINE
5
772
100
AcDbEntity
8
A-0
6
CONTINUOUS
62
6
100
AcDbLine
10
227.619418000000
20
206.201648000000
30
0.0
11
249.918056000000
21
228.500285000000
31
0.0
0
LINE
5
773
100
AcDbEntity
8
A-0
6
CONTINUOUS
62
6
100
AcDbLine
10
154.172790000000
20
135.583447000000
30
0.0
11
248.855442000000
21
230.266099000000
31
0.0
0
LINE
5
774
100
AcDbEntity
8
A-0
6
CONTINUOUS
62
6
100
AcDbLine
10
153.526293000000
20
137.765377000000
30
0.0
11
247.792829000000
21
232.031913000000
31
0.0
0
LINE
5
775
100
AcDbEntity
8
A-0
6
CONTINUOUS
62
6
100
AcDbLine
10
152.879795000000
20
139.947306000000
30
0.0
11
246.730215000000
21
233.797726000000
31
0.0
0
LINE
5
776
100
AcDbEntity
8
A-0
6
CONTINUOUS
62
6
100
AcDbLine
10
153.562822000000
20
143.458760000000
30
0.0
11
245.613446000000
21
235.509384000000
31
0.0
0
LINE
5
777
100
AcDbEntity
8
A-0
6
CONTINUOUS
62
6
100
AcDbLine
10
156.330015000000
20
149.054380000000
30
0.0
11
244.393340000000
21
237.117705000000
31
0.0
0
LINE
5
778
100
AcDbEntity
8
A-0
6
CONTINUOUS
62
6
100
AcDbLine
10
163.162840000000
20
158.715632000000
30
0.0
11
243.173234000000
21
238.726026000000
31
0.0
0
LINE
5
779
100
AcDbEntity
8
A-0
6
CONTINUOUS
62
6
100
AcDbLine
10
171.153147000000
20
169.534366000000
30
0.0
11
241.953128000000
21
240.334348000000
31
0.0
0
LINE
5
77a
100
AcDbEntity
8
A-0
6
CONTINUOUS
62
6
100
AcDbLine
10
179.143453000000
20
180.353100000000
30
0.0
11
240.727251000000
21
241.936898000000
31
0.0
0
LINE
5
77b
100
AcDbEntity
8
A-0
6
CONTINUOUS
62
6
100
AcDbLine
10
187.133760000000
20
191.171834000000
30
0.0
11
239.470173000000
21
243.508246000000
31
0.0
0
LINE
5
77c
100
AcDbEntity
8
A-0
6
CONTINUOUS
62
6
100
AcDbLine
10
195.124067000000
20
201.990567000000
30
0.0
11
237.627094000000
21
244.493595000000
31
0.0
0
LINE
5
77d
100
AcDbEntity
8
A-0
6
CONTINUOUS
62
6
100
AcDbLine
10
203.114373000000
20
212.809301000000
30
0.0
11
235.505774000000
21
245.200702000000
31
0.0
0
LINE
5
77e
100
AcDbEntity
8
A-0
6
CONTINUOUS
62
6
100
AcDbLine
10
211.104680000000
20
223.628035000000
30
0.0
11
233.213967000000
21
245.737322000000
31
0.0
0
LINE
5
77f
100
AcDbEntity
8
A-0
6
CONTINUOUS
62
6
100
AcDbLine
10
213.982309000000
20
229.334092000000
30
0.0
11
230.200062000000
21
245.551844000000
31
0.0
0
LINE
5
780
100
AcDbEntity
8
A-0
6
CONTINUOUS
62
6
100
AcDbLine
10
213.982309000000
20
232.162519000000
30
0.0
11
226.698200000000
21
244.878409000000
31
0.0
0
LINE
5
781
100
AcDbEntity
8
A-0
6
CONTINUOUS
62
6
100
AcDbLine
10
220.330964000000
20
241.339600000000
30
0.0
11
223.375356000000
21
244.383992000000
31
0.0
0
LINE
5
782
100
AcDbEntity
8
A-0
6
CONTINUOUS
62
6
100
AcDbLine
10
154.445888000000
20
134.661741000000
30
0.0
11
160.285903000000
21
128.821727000000
31
0.0
0
LINE
5
783
100
AcDbEntity
8
A-0
6
CONTINUOUS
62
6
100
AcDbLine
10
153.254972000000
20
138.681085000000
30
0.0
11
162.360083000000
21
129.575974000000
31
0.0
0
LINE
5
784
100
AcDbEntity
8
A-0
6
CONTINUOUS
62
6
100
AcDbLine
10
153.015647000000
20
141.748838000000
30
0.0
11
164.434262000000
21
130.330222000000
31
0.0
0
LINE
5
785
100
AcDbEntity
8
A-0
6
CONTINUOUS
62
6
100
AcDbLine
10
153.701326000000
20
143.891585000000
30
0.0
11
166.442432000000
21
131.150479000000
31
0.0
0
LINE
5
786
100
AcDbEntity
8
A-0
6
CONTINUOUS
62
6
100
AcDbLine
10
154.387005000000
20
146.034333000000
30
0.0
11
168.438969000000
21
131.982370000000
31
0.0
0
LINE
5
787
100
AcDbEntity
8
A-0
6
CONTINUOUS
62
6
100
AcDbLine
10
155.452770000000
20
147.796996000000
30
0.0
11
170.390717000000
21
132.859048000000
31
0.0
0
LINE
5
788
100
AcDbEntity
8
A-0
6
CONTINUOUS
62
6
100
AcDbLine
10
156.615137000000
20
149.463055000000
30
0.0
11
171.619378000000
21
134.458814000000
31
0.0
0
LINE
5
789
100
AcDbEntity
8
A-0
6
CONTINUOUS
62
6
100
AcDbLine
10
157.777505000000
20
151.129115000000
30
0.0
11
172.848039000000
21
136.058581000000
31
0.0
0
LINE
5
78a
100
AcDbEntity
8
A-0
6
CONTINUOUS
62
6
100
AcDbLine
10
158.939872000000
20
152.795175000000
30
0.0
11
174.076700000000
21
137.658347000000
31
0.0
0
LINE
5
78b
100
AcDbEntity
8
A-0
6
CONTINUOUS
62
6
100
AcDbLine
10
160.102239000000
20
154.461235000000
30
0.0
11
175.305360000000
21
139.258114000000
31
0.0
0
LINE
5
78c
100
AcDbEntity
8
A-0
6
CONTINUOUS
62
6
100
AcDbLine
10
161.264607000000
20
156.127295000000
30
0.0
11
176.534021000000
21
140.857880000000
31
0.0
0
LINE
5
78d
100
AcDbEntity
8
A-0
6
CONTINUOUS
62
6
100
AcDbLine
10
162.458441000000
20
157.761888000000
30
0.0
11
177.762682000000
21
142.457646000000
31
0.0
0
LINE
5
78e
100
AcDbEntity
8
A-0
6
CONTINUOUS
62
6
100
AcDbLine
10
163.659990000000
20
159.388765000000
30
0.0
11
178.991343000000
21
144.057413000000
31
0.0
0
LINE
5
78f
100
AcDbEntity
8
A-0
6
CONTINUOUS
62
6
100
AcDbLine
10
164.861540000000
20
161.015642000000
30
0.0
11
180.220003000000
21
145.657179000000
31
0.0
0
LINE
5
790
100
AcDbEntity
8
A-0
6
CONTINUOUS
62
6
100
AcDbLine
10
166.063090000000
20
162.642520000000
30
0.0
11
181.448664000000
21
147.256946000000
31
0.0
0
LINE
5
791
100
AcDbEntity
8
A-0
6
CONTINUOUS
62
6
100
AcDbLine
10
167.264640000000
20
164.269397000000
30
0.0
11
182.677325000000
21
148.856712000000
31
0.0
0
LINE
5
792
100
AcDbEntity
8
A-0
6
CONTINUOUS
62
6
100
AcDbLine
10
168.466190000000
20
165.896274000000
30
0.0
11
183.905985000000
21
150.456479000000
31
0.0
0
LINE
5
793
100
AcDbEntity
8
A-0
6
CONTINUOUS
62
6
100
AcDbLine
10
169.667740000000
20
167.523151000000
30
0.0
11
185.134646000000
21
152.056245000000
31
0.0
0
LINE
5
794
100
AcDbEntity
8
A-0
6
CONTINUOUS
62
6
100
AcDbLine
10
170.869290000000
20
169.150029000000
30
0.0
11
186.363307000000
21
153.656011000000
31
0.0
0
LINE
5
795
100
AcDbEntity
8
A-0
6
CONTINUOUS
62
6
100
AcDbLine
10
172.070839000000
20
170.776906000000
30
0.0
11
187.591968000000
21
155.255778000000
31
0.0
0
LINE
5
796
100
AcDbEntity
8
A-0
6
CONTINUOUS
62
6
100
AcDbLine
10
173.272389000000
20
172.403783000000
30
0.0
11
188.820628000000
21
156.855544000000
31
0.0
0
LINE
5
797
100
AcDbEntity
8
A-0
6
CONTINUOUS
62
6
100
AcDbLine
10
174.473939000000
20
174.030660000000
30
0.0
11
190.049289000000
21
158.455311000000
31
0.0
0
LINE
5
798
100
AcDbEntity
8
A-0
6
CONTINUOUS
62
6
100
AcDbLine
10
175.675489000000
20
175.657538000000
30
0.0
11
191.277950000000
21
160.055077000000
31
0.0
0
LINE
5
799
100
AcDbEntity
8
A-0
6
CONTINUOUS
62
6
100
AcDbLine
10
176.877039000000
20
177.284415000000
30
0.0
11
192.506610000000
21
161.654843000000
31
0.0
0
LINE
5
79a
100
AcDbEntity
8
A-0
6
CONTINUOUS
62
6
100
AcDbLine
10
178.078589000000
20
178.911292000000
30
0.0
11
193.735271000000
21
163.254610000000
31
0.0
0
LINE
5
79b
100
AcDbEntity
8
A-0
6
CONTINUOUS
62
6
100
AcDbLine
10
179.280139000000
20
180.538169000000
30
0.0
11
194.963932000000
21
164.854376000000
31
0.0
0
LINE
5
79c
100
AcDbEntity
8
A-0
6
CONTINUOUS
62
6
100
AcDbLine
10
180.481689000000
20
182.165047000000
30
0.0
11
196.192593000000
21
166.454143000000
31
0.0
0
LINE
5
79d
100
AcDbEntity
8
A-0
6
CONTINUOUS
62
6
100
AcDbLine
10
181.683238000000
20
183.791924000000
30
0.0
11
197.421253000000
21
168.053909000000
31
0.0
0
LINE
5
79e
100
AcDbEntity
8
A-0
6
CONTINUOUS
62
6
100
AcDbLine
10
182.884788000000
20
185.418801000000
30
0.0
11
198.649914000000
21
169.653675000000
31
0.0
0
LINE
5
79f
100
AcDbEntity
8
A-0
6
CONTINUOUS
62
6
100
AcDbLine
10
184.086338000000
20
187.045678000000
30
0.0
11
199.878575000000
21
171.253442000000
31
0.0
0
LINE
5
7a0
100
AcDbEntity
8
A-0
6
CONTINUOUS
62
6
100
AcDbLine
10
185.287888000000
20
188.672556000000
30
0.0
11
201.107235000000
21
172.853208000000
31
0.0
0
LINE
5
7a1
100
AcDbEntity
8
A-0
6
CONTINUOUS
62
6
100
AcDbLine
10
186.489438000000
20
190.299433000000
30
0.0
11
202.335896000000
21
174.452975000000
31
0.0
0
LINE
5
7a2
100
AcDbEntity
8
A-0
6
CONTINUOUS
62
6
100
AcDbLine
10
187.690988000000
20
191.926310000000
30
0.0
11
203.564557000000
21
176.052741000000
31
0.0
0
LINE
5
7a3
100
AcDbEntity
8
A-0
6
CONTINUOUS
62
6
100
AcDbLine
10
188.892538000000
20
193.553187000000
30
0.0
11
204.793218000000
21
177.652507000000
31
0.0
0
LINE
5
7a4
100
AcDbEntity
8
A-0
6
CONTINUOUS
62
6
100
AcDbLine
10
190.094088000000
20
195.180065000000
30
0.0
11
206.021878000000
21
179.252274000000
31
0.0
0
LINE
5
7a5
100
AcDbEntity
8
A-0
6
CONTINUOUS
62
6
100
AcDbLine
10
191.295637000000
20
196.806942000000
30
0.0
11
207.250539000000
21
180.852040000000
31
0.0
0
LINE
5
7a6
100
AcDbEntity
8
A-0
6
CONTINUOUS
62
6
100
AcDbLine
10
192.497187000000
20
198.433819000000
30
0.0
11
208.479200000000
21
182.451807000000
31
0.0
0
LINE
5
7a7
100
AcDbEntity
8
A-0
6
CONTINUOUS
62
6
100
AcDbLine
10
193.698737000000
20
200.060696000000
30
0.0
11
209.707860000000
21
184.051573000000
31
0.0
0
LINE
5
7a8
100
AcDbEntity
8
A-0
6
CONTINUOUS
62
6
100
AcDbLine
10
194.900287000000
20
201.687574000000
30
0.0
11
210.936521000000
21
185.651339000000
31
0.0
0
LINE
5
7a9
100
AcDbEntity
8
A-0
6
CONTINUOUS
62
6
100
AcDbLine
10
196.101837000000
20
203.314451000000
30
0.0
11
212.165182000000
21
187.251106000000
31
0.0
0
LINE
5
7aa
100
AcDbEntity
8
A-0
6
CONTINUOUS
62
6
100
AcDbLine
10
197.303387000000
20
204.941328000000
30
0.0
11
213.393843000000
21
188.850872000000
31
0.0
0
LINE
5
7ab
100
AcDbEntity
8
A-0
6
CONTINUOUS
62
6
100
AcDbLine
10
198.504937000000
20
206.568205000000
30
0.0
11
214.622503000000
21
190.450639000000
31
0.0
0
LINE
5
7ac
100
AcDbEntity
8
A-0
6
CONTINUOUS
62
6
100
AcDbLine
10
199.706486000000
20
208.195083000000
30
0.0
11
215.851164000000
21
192.050405000000
31
0.0
0
LINE
5
7ad
100
AcDbEntity
8
A-0
6
CONTINUOUS
62
6
100
AcDbLine
10
262.193733000000
20
145.707836000000
30
0.0
11
273.163180000000
21
134.738389000000
31
0.0
0
LINE
5
7ae
100
AcDbEntity
8
A-0
6
CONTINUOUS
62
6
100
AcDbLine
10
200.908036000000
20
209.821960000000
30
0.0
11
217.079825000000
21
193.650171000000
31
0.0
0
LINE
5
7af
100
AcDbEntity
8
A-0
6
CONTINUOUS
62
6
100
AcDbLine
10
262.011254000000
20
148.718743000000
30
0.0
11
277.239839000000
21
133.490157000000
31
0.0
0
LINE
5
7b0
100
AcDbEntity
8
A-0
6
CONTINUOUS
62
6
100
AcDbLine
10
202.109586000000
20
211.448837000000
30
0.0
11
218.308486000000
21
195.249938000000
31
0.0
0
LINE
5
7b1
100
AcDbEntity
8
A-0
6
CONTINUOUS
62
6
100
AcDbLine
10
259.495383000000
20
154.063040000000
30
0.0
11
279.323943000000
21
134.234480000000
31
0.0
0
LINE
5
7b2
100
AcDbEntity
8
A-0
6
CONTINUOUS
62
6
100
AcDbLine
10
203.311136000000
20
213.075714000000
30
0.0
11
219.537146000000
21
196.849704000000
31
0.0
0
LINE
5
7b3
100
AcDbEntity
8
A-0
6
CONTINUOUS
62
6
100
AcDbLine
10
255.045873000000
20
161.340978000000
30
0.0
11
281.408048000000
21
134.978803000000
31
0.0
0
LINE
5
7b4
100
AcDbEntity
8
A-0
6
CONTINUOUS
62
6
100
AcDbLine
10
204.512686000000
20
214.702592000000
30
0.0
11
220.765807000000
21
198.449471000000
31
0.0
0
LINE
5
7b5
100
AcDbEntity
8
A-0
6
CONTINUOUS
62
6
100
AcDbLine
10
250.596362000000
20
168.618916000000
30
0.0
11
283.506046000000
21
135.709231000000
31
0.0
0
LINE
5
7b6
100
AcDbEntity
8
A-0
6
CONTINUOUS
62
6
100
AcDbLine
10
205.714236000000
20
216.329469000000
30
0.0
11
221.994468000000
21
200.049237000000
31
0.0
0
LINE
5
7b7
100
AcDbEntity
8
A-0
6
CONTINUOUS
62
6
100
AcDbLine
10
246.146852000000
20
175.896853000000
30
0.0
11
285.681760000000
21
136.361945000000
31
0.0
0
LINE
5
7b8
100
AcDbEntity
8
A-0
6
CONTINUOUS
62
6
100
AcDbLine
10
206.915786000000
20
217.956346000000
30
0.0
11
223.223128000000
21
201.649003000000
31
0.0
0
LINE
5
7b9
100
AcDbEntity
8
A-0
6
CONTINUOUS
62
6
100
AcDbLine
10
241.697341000000
20
183.174791000000
30
0.0
11
287.857473000000
21
137.014659000000
31
0.0
0
LINE
5
7ba
100
AcDbEntity
8
A-0
6
CONTINUOUS
62
6
100
AcDbLine
10
208.117336000000
20
219.583223000000
30
0.0
11
224.451789000000
21
203.248770000000
31
0.0
0
LINE
5
7bb
100
AcDbEntity
8
A-0
6
CONTINUOUS
62
6
100
AcDbLine
10
237.247831000000
20
190.452728000000
30
0.0
11
290.033186000000
21
137.667373000000
31
0.0
0
LINE
5
7bc
100
AcDbEntity
8
A-0
6
CONTINUOUS
62
6
100
AcDbLine
10
209.318885000000
20
221.210101000000
30
0.0
11
225.680450000000
21
204.848536000000
31
0.0
0
LINE
5
7bd
100
AcDbEntity
8
A-0
6
CONTINUOUS
62
6
100
AcDbLine
10
232.798320000000
20
197.730666000000
30
0.0
11
292.208899000000
21
138.320087000000
31
0.0
0
LINE
5
7be
100
AcDbEntity
8
A-0
6
CONTINUOUS
62
6
100
AcDbLine
10
210.520435000000
20
222.836978000000
30
0.0
11
226.909111000000
21
206.448303000000
31
0.0
0
LINE
5
7bf
100
AcDbEntity
8
A-0
6
CONTINUOUS
62
6
100
AcDbLine
10
228.348809000000
20
205.008604000000
30
0.0
11
294.188225000000
21
139.169189000000
31
0.0
0
LINE
5
7c0
100
AcDbEntity
8
A-0
6
CONTINUOUS
62
6
100
AcDbLine
10
211.721985000000
20
224.463855000000
30
0.0
11
295.372217000000
21
140.813623000000
31
0.0
0
LINE
5
7c1
100
AcDbEntity
8
A-0
6
CONTINUOUS
62
6
100
AcDbLine
10
212.923535000000
20
226.090732000000
30
0.0
11
296.556210000000
21
142.458057000000
31
0.0
0
LINE
5
7c2
100
AcDbEntity
8
A-0
6
CONTINUOUS
62
6
100
AcDbLine
10
213.982309000000
20
227.860385000000
30
0.0
11
251.322871000000
21
190.519824000000
31
0.0
0
LINE
5
7c3
100
AcDbEntity
8
A-0
6
CONTINUOUS
62
6
100
AcDbLine
10
252.032188000000
20
189.810507000000
30
0.0
11
297.331372000000
21
144.511323000000
31
0.0
0
LINE
5
7c4
100
AcDbEntity
8
A-0
6
CONTINUOUS
62
6
100
AcDbLine
10
213.982309000000
20
230.688812000000
30
0.0
11
252.358147000000
21
192.312975000000
31
0.0
0
LINE
5
7c5
100
AcDbEntity
8
A-0
6
CONTINUOUS
62
6
100
AcDbLine
10
254.860615000000
20
189.810507000000
30
0.0
11
296.657520000000
21
148.013602000000
31
0.0
0
LINE
5
7c6
100
AcDbEntity
8
A-0
6
CONTINUOUS
62
6
100
AcDbLine
10
214.247334000000
20
233.252215000000
30
0.0
11
253.393423000000
21
194.106126000000
31
0.0
0
LINE
5
7c7
100
AcDbEntity
8
A-0
6
CONTINUOUS
62
6
100
AcDbLine
10
257.689042000000
20
189.810507000000
30
0.0
11
294.117640000000
21
153.381909000000
31
0.0
0
LINE
5
7c8
100
AcDbEntity
8
A-0
6
CONTINUOUS
62
6
100
AcDbLine
10
215.095862000000
20
235.232114000000
30
0.0
11
254.428699000000
21
195.899277000000
31
0.0
0
LINE
5
7c9
100
AcDbEntity
8
A-0
6
CONTINUOUS
62
6
100
AcDbLine
10
260.517469000000
20
189.810507000000
30
0.0
11
290.222994000000
21
160.104982000000
31
0.0
0
LINE
5
7ca
100
AcDbEntity
8
A-0
6
CONTINUOUS
62
6
100
AcDbLine
10
216.267696000000
20
236.888707000000
30
0.0
11
255.463975000000
21
197.692428000000
31
0.0
0
LINE
5
7cb
100
AcDbEntity
8
A-0
6
CONTINUOUS
62
6
100
AcDbLine
10
263.345896000000
20
189.810507000000
30
0.0
11
286.328349000000
21
166.828054000000
31
0.0
0
LINE
5
7cc
100
AcDbEntity
8
A-0
6
CONTINUOUS
62
6
100
AcDbLine
10
217.598721000000
20
238.386109000000
30
0.0
11
256.499252000000
21
199.485579000000
31
0.0
0
LINE
5
7cd
100
AcDbEntity
8
A-0
6
CONTINUOUS
62
6
100
AcDbLine
10
266.174323000000
20
189.810507000000
30
0.0
11
282.433703000000
21
173.551127000000
31
0.0
0
LINE
5
7ce
100
AcDbEntity
8
A-0
6
CONTINUOUS
62
6
100
AcDbLine
10
218.929745000000
20
239.883512000000
30
0.0
11
257.534528000000
21
201.278730000000
31
0.0
0
LINE
5
7cf
100
AcDbEntity
8
A-0
6
CONTINUOUS
62
6
100
AcDbLine
10
269.002750000000
20
189.810507000000
30
0.0
11
278.539058000000
21
180.274200000000
31
0.0
0
LINE
5
7d0
100
AcDbEntity
8
A-0
6
CONTINUOUS
62
6
100
AcDbLine
10
220.319150000000
20
241.322535000000
30
0.0
11
258.569804000000
21
203.071881000000
31
0.0
0
LINE
5
7d1
100
AcDbEntity
8
A-0
6
CONTINUOUS
62
6
100
AcDbLine
10
271.831178000000
20
189.810507000000
30
0.0
11
274.644412000000
21
186.997272000000
31
0.0
0
LINE
5
7d2
100
AcDbEntity
8
A-0
6
CONTINUOUS
62
6
100
AcDbLine
10
221.476233000000
20
242.993878000000
30
0.0
11
259.605080000000
21
204.865032000000
31
0.0
0
LINE
5
7d3
100
AcDbEntity
8
A-0
6
CONTINUOUS
62
6
100
AcDbLine
10
222.968759000000
20
244.329779000000
30
0.0
11
260.640356000000
21
206.658182000000
31
0.0
0
LINE
5
7d4
100
AcDbEntity
8
A-0
6
CONTINUOUS
62
6
100
AcDbLine
10
225.464430000000
20
244.662535000000
30
0.0
11
261.675632000000
21
208.451333000000
31
0.0
0
LINE
5
7d5
100
AcDbEntity
8
A-0
6
CONTINUOUS
62
6
100
AcDbLine
10
227.854600000000
20
245.100793000000
30
0.0
11
258.173177000000
21
214.782216000000
31
0.0
0
LINE
5
7d6
100
AcDbEntity
8
A-0
6
CONTINUOUS
62
6
100
AcDbLine
10
230.226829000000
20
245.556991000000
30
0.0
11
253.899110000000
21
221.884710000000
31
0.0
0
LINE
5
7d7
100
AcDbEntity
8
A-0
6
CONTINUOUS
62
6
100
AcDbLine
10
232.837254000000
20
245.774993000000
30
0.0
11
249.625042000000
21
228.987205000000
31
0.0
0
LINE
5
7d8
100
AcDbEntity
8
A-0
6
CONTINUOUS
62
6
100
AcDbLine
10
236.607072000000
20
244.833603000000
30
0.0
11
244.614504000000
21
236.826170000000
31
0.0
0
LINE
5
7d9
100
AcDbEntity
8
A-0
6
CONTINUOUS
62
6
100
AcDbLine
10
304.223162000000
20
220.387181000000
30
0.0
11
304.223162000000
21
249.627417000000
31
0.0
0
LINE
5
7da
100
AcDbEntity
8
A-0
6
CONTINUOUS
62
6
100
AcDbLine
10
302.223162000000
20
220.806019000000
30
0.0
11
302.223162000000
21
249.208579000000
31
0.0
0
LINE
5
7db
100
AcDbEntity
8
A-0
6
CONTINUOUS
62
6
100
AcDbLine
10
300.223162000000
20
221.531216000000
30
0.0
11
300.223162000000
21
248.483382000000
31
0.0
0
LINE
5
7dc
100
AcDbEntity
8
A-0
6
CONTINUOUS
62
6
100
AcDbLine
10
298.223162000000
20
222.616443000000
30
0.0
11
298.223162000000
21
247.398155000000
31
0.0
0
LINE
5
7dd
100
AcDbEntity
8
A-0
6
CONTINUOUS
62
6
100
AcDbLine
10
296.223162000000
20
224.169320000000
30
0.0
11
296.223162000000
21
245.845278000000
31
0.0
0
LINE
5
7de
100
AcDbEntity
8
A-0
6
CONTINUOUS
62
6
100
AcDbLine
10
294.223162000000
20
226.440487000000
30
0.0
11
294.223162000000
21
243.574111000000
31
0.0
0
LINE
5
7df
100
AcDbEntity
8
A-0
6
CONTINUOUS
62
6
100
AcDbLine
10
292.223162000000
20
230.390075000000
30
0.0
11
292.223162000000
21
239.624523000000
31
0.0
0
LINE
5
7e0
100
AcDbEntity
8
A-0
6
CONTINUOUS
62
6
100
AcDbLine
10
251.132751000000
20
190.190526000000
30
0.0
11
293.693942000000
21
190.190526000000
31
0.0
0
LINE
5
7e1
100
AcDbEntity
8
A-0
6
CONTINUOUS
62
6
100
AcDbLine
10
252.287451000000
20
192.190526000000
30
0.0
11
292.539241000000
21
192.190526000000
31
0.0
0
LINE
5
7e2
100
AcDbEntity
8
A-0
6
CONTINUOUS
62
6
100
AcDbLine
10
253.442152000000
20
194.190526000000
30
0.0
11
291.384541000000
21
194.190526000000
31
0.0
0
LINE
5
7e3
100
AcDbEntity
8
A-0
6
CONTINUOUS
62
6
100
AcDbLine
10
254.596852000000
20
196.190526000000
30
0.0
11
290.229840000000
21
196.190526000000
31
0.0
0
LINE
5
7e4
100
AcDbEntity
8
A-0
6
CONTINUOUS
62
6
100
AcDbLine
10
255.751553000000
20
198.190526000000
30
0.0
11
289.075140000000
21
198.190526000000
31
0.0
0
LINE
5
7e5
100
AcDbEntity
8
A-0
6
CONTINUOUS
62
6
100
AcDbLine
10
256.906253000000
20
200.190526000000
30
0.0
11
287.920439000000
21
200.190526000000
31
0.0
0
LINE
5
7e6
100
AcDbEntity
8
A-0
6
CONTINUOUS
62
6
100
AcDbLine
10
258.060954000000
20
202.190526000000
30
0.0
11
286.765739000000
21
202.190526000000
31
0.0
0
LINE
5
7e7
100
AcDbEntity
8
A-0
6
CONTINUOUS
62
6
100
AcDbLine
10
259.215654000000
20
204.190526000000
30
0.0
11
285.611038000000
21
204.190526000000
31
0.0
0
LINE
5
7e8
100
AcDbEntity
8
A-0
6
CONTINUOUS
62
6
100
AcDbLine
10
260.370355000000
20
206.190526000000
30
0.0
11
284.456338000000
21
206.190526000000
31
0.0
0
LINE
5
7e9
100
AcDbEntity
8
A-0
6
CONTINUOUS
62
6
100
AcDbLine
10
261.525055000000
20
208.190526000000
30
0.0
11
283.301637000000
21
208.190526000000
31
0.0
0
LINE
5
7ea
100
AcDbEntity
8
A-0
6
CONTINUOUS
62
6
100
AcDbLine
10
262.679756000000
20
210.190526000000
30
0.0
11
282.146936000000
21
210.190526000000
31
0.0
0
LINE
5
7eb
100
AcDbEntity
8
A-0
6
CONTINUOUS
62
6
100
AcDbLine
10
263.834457000000
20
212.190526000000
30
0.0
11
280.992236000000
21
212.190526000000
31
0.0
0
LINE
5
7ec
100
AcDbEntity
8
A-0
6
CONTINUOUS
62
6
100
AcDbLine
10
264.989157000000
20
214.190526000000
30
0.0
11
279.837535000000
21
214.190526000000
31
0.0
0
LINE
5
7ed
100
AcDbEntity
8
A-0
6
CONTINUOUS
62
6
100
AcDbLine
10
266.143858000000
20
216.190526000000
30
0.0
11
278.682835000000
21
216.190526000000
31
0.0
0
LINE
5
7ee
100
AcDbEntity
8
A-0
6
CONTINUOUS
62
6
100
AcDbLine
10
267.298558000000
20
218.190526000000
30
0.0
11
277.528134000000
21
218.190526000000
31
0.0
0
LINE
5
7ef
100
AcDbEntity
8
A-0
6
CONTINUOUS
62
6
100
AcDbLine
10
268.453259000000
20
220.190526000000
30
0.0
11
276.373434000000
21
220.190526000000
31
0.0
0
LINE
5
7f0
100
AcDbEntity
8
A-0
6
CONTINUOUS
62
6
100
AcDbLine
10
269.607959000000
20
222.190526000000
30
0.0
11
275.218733000000
21
222.190526000000
31
0.0
0
LINE
5
7f1
100
AcDbEntity
8
A-0
6
CONTINUOUS
62
6
100
AcDbLine
10
270.762660000000
20
224.190526000000
30
0.0
11
274.064033000000
21
224.190526000000
31
0.0
0
LINE
5
7f2
100
AcDbEntity
8
A-0
6
CONTINUOUS
62
6
100
AcDbLine
10
271.917360000000
20
226.190526000000
30
0.0
11
272.909332000000
21
226.190526000000
31
0.0
0
LINE
5
7f3
100
AcDbEntity
8
A-0
6
CONTINUOUS
62
6
100
AcDbLine
10
292.223162000000
20
189.810507000000
30
0.0
11
292.223162000000
21
192.737992000000
31
0.0
0
LINE
5
7f4
100
AcDbEntity
8
A-0
6
CONTINUOUS
62
6
100
AcDbLine
10
290.223162000000
20
189.810507000000
30
0.0
11
290.223162000000
21
196.202094000000
31
0.0
0
LINE
5
7f5
100
AcDbEntity
8
A-0
6
CONTINUOUS
62
6
100
AcDbLine
10
288.223162000000
20
189.810507000000
30
0.0
11
288.223162000000
21
199.666196000000
31
0.0
0
LINE
5
7f6
100
AcDbEntity
8
A-0
6
CONTINUOUS
62
6
100
AcDbLine
10
286.223162000000
20
189.810507000000
30
0.0
11
286.223162000000
21
203.130297000000
31
0.0
0
LINE
5
7f7
100
AcDbEntity
8
A-0
6
CONTINUOUS
62
6
100
AcDbLine
10
284.223162000000
20
189.810507000000
30
0.0
11
284.223162000000
21
206.594399000000
31
0.0
0
LINE
5
7f8
100
AcDbEntity
8
A-0
6
CONTINUOUS
62
6
100
AcDbLine
10
282.223162000000
20
189.810507000000
30
0.0
11
282.223162000000
21
210.058500000000
31
0.0
0
LINE
5
7f9
100
AcDbEntity
8
A-0
6
CONTINUOUS
62
6
100
AcDbLine
10
280.223162000000
20
189.810507000000
30
0.0
11
280.223162000000
21
213.522602000000
31
0.0
0
LINE
5
7fa
100
AcDbEntity
8
A-0
6
CONTINUOUS
62
6
100
AcDbLine
10
278.223162000000
20
189.810507000000
30
0.0
11
278.223162000000
21
216.986704000000
31
0.0
0
LINE
5
7fb
100
AcDbEntity
8
A-0
6
CONTINUOUS
62
6
100
AcDbLine
10
276.223162000000
20
189.810507000000
30
0.0
11
276.223162000000
21
220.450805000000
31
0.0
0
LINE
5
7fc
100
AcDbEntity
8
A-0
6
CONTINUOUS
62
6
100
AcDbLine
10
274.223162000000
20
189.810507000000
30
0.0
11
274.223162000000
21
223.914907000000
31
0.0
0
LINE
5
7fd
100
AcDbEntity
8
A-0
6
CONTINUOUS
62
6
100
AcDbLine
10
272.223162000000
20
189.810507000000
30
0.0
11
272.223162000000
21
226.720190000000
31
0.0
0
LINE
5
7fe
100
AcDbEntity
8
A-0
6
CONTINUOUS
62
6
100
AcDbLine
10
270.223162000000
20
189.810507000000
30
0.0
11
270.223162000000
21
223.256088000000
31
0.0
0
LINE
5
7ff
100
AcDbEntity
8
A-0
6
CONTINUOUS
62
6
100
AcDbLine
10
268.223162000000
20
189.810507000000
30
0.0
11
268.223162000000
21
219.791987000000
31
0.0
0
LINE
5
800
100
AcDbEntity
8
A-0
6
CONTINUOUS
62
6
100
AcDbLine
10
266.223162000000
20
189.810507000000
30
0.0
11
266.223162000000
21
216.327885000000
31
0.0
0
LINE
5
801
100
AcDbEntity
8
A-0
6
CONTINUOUS
62
6
100
AcDbLine
10
264.223162000000
20
189.810507000000
30
0.0
11
264.223162000000
21
212.863784000000
31
0.0
0
LINE
5
802
100
AcDbEntity
8
A-0
6
CONTINUOUS
62
6
100
AcDbLine
10
262.223162000000
20
189.810507000000
30
0.0
11
262.223162000000
21
209.399682000000
31
0.0
0
LINE
5
803
100
AcDbEntity
8
A-0
6
CONTINUOUS
62
6
100
AcDbLine
10
260.223162000000
20
189.810507000000
30
0.0
11
260.223162000000
21
205.935580000000
31
0.0
0
LINE
5
804
100
AcDbEntity
8
A-0
6
CONTINUOUS
62
6
100
AcDbLine
10
258.223162000000
20
189.810507000000
30
0.0
11
258.223162000000
21
202.471479000000
31
0.0
0
LINE
5
805
100
AcDbEntity
8
A-0
6
CONTINUOUS
62
6
100
AcDbLine
10
256.223162000000
20
189.810507000000
30
0.0
11
256.223162000000
21
199.007377000000
31
0.0
0
LINE
5
806
100
AcDbEntity
8
A-0
6
CONTINUOUS
62
6
100
AcDbLine
10
254.223162000000
20
189.810507000000
30
0.0
11
254.223162000000
21
195.543275000000
31
0.0
0
LINE
5
807
100
AcDbEntity
8
A-0
6
CONTINUOUS
62
6
100
AcDbLine
10
252.223162000000
20
189.810507000000
30
0.0
11
252.223162000000
21
192.079174000000
31
0.0
0
LINE
5
808
100
AcDbEntity
8
B-0
6
CONTINUOUS
62
6
100
AcDbLine
10
1562.232785000000
20
211.675609000000
30
0.0
11
1562.232785000000
21
99.175609000000
31
0.0
0
LINE
5
809
100
AcDbEntity
8
B-0
6
CONTINUOUS
62
6
100
AcDbLine
10
1712.232785000000
20
211.675609000000
30
0.0
11
1712.232785000000
21
99.175609000000
31
0.0
0
LINE
5
80a
100
AcDbEntity
8
B-0
6
CONTINUOUS
62
6
100
AcDbLine
10
2012.232785000000
20
181.675609000000
30
0.0
11
1362.232785000000
21
181.675609000000
31
0.0
0
LINE
5
80b
100
AcDbEntity
8
B-0
6
CONTINUOUS
62
6
100
AcDbLine
10
1812.232785000000
20
279.175609000000
30
0.0
11
1812.232785000000
21
99.175609000000
31
0.0
0
LINE
5
80c
100
AcDbEntity
8
B-0
6
CONTINUOUS
62
6
100
AcDbLine
10
1912.232785000000
20
279.175609000000
30
0.0
11
1912.232785000000
21
99.175609000000
31
0.0
0
LINE
5
80d
100
AcDbEntity
8
B-0
6
CONTINUOUS
62
6
100
AcDbLine
10
2012.232785000000
20
245.425609000000
30
0.0
11
1912.232785000000
21
245.425609000000
31
0.0
0
LINE
5
80e
100
AcDbEntity
8
B-0
6
CONTINUOUS
62
6
100
AcDbLine
10
2012.232785000000
20
211.675609000000
30
0.0
11
1362.232785000000
21
211.675609000000
31
0.0
0
CIRCLE
5
80f
100
AcDbEntity
8
3-0
6
CONTINUOUS
62
2
100
AcDbCircle
10
1837.232785000000
20
245.425609000000
30
0.0
40
20.000000000000
0
CIRCLE
5
810
100
AcDbEntity
8
3-0
6
CONTINUOUS
62
2
100
AcDbCircle
10
1837.232785000000
20
245.425609000000
30
0.0
40
10.000000000000
0
LINE
5
811
100
AcDbEntity
8
D-0
6
CENTER2
62
16
100
AcDbLine
10
1837.232785000000
20
270.425609000000
30
0.0
11
1837.232785000000
21
220.425609000000
31
0.0
0
LINE
5
812
100
AcDbEntity
8
3-0
6
CONTINUOUS
62
2
100
AcDbLine
10
1867.232785000000
20
255.425609000000
30
0.0
11
1902.232785000000
21
265.425609000000
31
0.0
0
LINE
5
813
100
AcDbEntity
8
3-0
6
CONTINUOUS
62
2
100
AcDbLine
10
1902.232785000000
20
265.425609000000
30
0.0
11
1902.232785000000
21
225.425609000000
31
0.0
0
LINE
5
814
100
AcDbEntity
8
3-0
6
CONTINUOUS
62
2
100
AcDbLine
10
1867.232785000000
20
235.425609000000
30
0.0
11
1902.232785000000
21
225.425609000000
31
0.0
0
LINE
5
815
100
AcDbEntity
8
3-0
6
CONTINUOUS
62
2
100
AcDbLine
10
1867.232785000000
20
255.425609000000
30
0.0
11
1867.232785000000
21
235.425609000000
31
0.0
0
LINE
5
816
100
AcDbEntity
8
D-0
6
CENTER2
62
16
100
AcDbLine
10
1812.232785000000
20
245.425609000000
30
0.0
11
1907.232785000000
21
245.425609000000
31
0.0
0
LINE
5
817
100
AcDbEntity
8
B-0
6
CONTINUOUS
62
6
100
AcDbLine
10
1362.232785000000
20
189.175609000000
30
0.0
11
687.767215000000
21
189.175609000000
31
0.0
0
LINE
5
818
100
AcDbEntity
8
B-0
6
CONTINUOUS
62
6
100
AcDbLine
10
687.767215000000
20
99.175609000000
30
0.0
11
687.767215000000
21
279.175609000000
31
0.0
0
TEXT
5
819
100
AcDbEntity
8
E-0
62
4
100
AcDbText
10
697.767
20
252.477
30
0.0
40
25.600
1
品番
41
1.000
50
0.000
100
AcDbText
0
TEXT
5
81a
100
AcDbEntity
8
E-0
62
4
100
AcDbText
10
697.767
20
162.516
30
0.0
40
25.600
1
名称
41
1.000
50
0.000
100
AcDbText
0
TEXT
5
81b
100
AcDbEntity
8
E-0
62
4
100
AcDbText
10
1840.640
20
183.593
30
0.0
40
25.600
1
検図
41
1.000
50
0.000
100
AcDbText
0
LINE
5
81c
100
AcDbEntity
8
B-0
6
CONTINUOUS
62
6
100
AcDbLine
10
87.767215000000
20
279.175609000000
30
0.0
11
87.767215000000
21
99.175609000000
31
0.0
0
TEXT
5
81d
100
AcDbEntity
8
E-0
62
4
100
AcDbText
10
1940.899
20
249.741
30
0.0
40
25.600
1
単位
41
1.000
50
0.000
100
AcDbText
0
TEXT
5
81e
100
AcDbEntity
8
E-0
62
4
100
AcDbText
10
1933.661
20
219.324
30
0.0
40
25.600
1
mm
41
1.000
50
0.000
100
AcDbText
0
TEXT
5
81f
100
AcDbEntity
8
E-0
62
4
100
AcDbText
10
1574.757
20
127.866
30
0.0
40
25.600
1
S=1：10
41
1.000
50
0.000
100
AcDbText
0
TEXT
5
820
100
AcDbEntity
8
E-0
62
4
100
AcDbText
10
1394.138
20
127.866
30
0.0
40
25.600
1
11.05.16
41
1.000
50
0.000
100
AcDbText
0
TEXT
5
821
100
AcDbEntity
8
E-0
62
4
100
AcDbText
10
1741.566
20
127.866
30
0.0
40
25.600
1
竹内
41
1.000
50
0.000
100
AcDbText
0
TEXT
5
822
100
AcDbEntity
8
E-0
62
4
100
AcDbText
10
1439.566
20
184.116
30
0.0
40
25.600
1
日付
41
1.000
50
0.000
100
AcDbText
0
TEXT
5
823
100
AcDbEntity
8
E-0
62
4
100
AcDbText
10
1591.518
20
184.116
30
0.0
40
25.600
1
SCALE
41
1.000
50
0.000
100
AcDbText
0
TEXT
5
824
100
AcDbEntity
8
E-0
62
4
100
AcDbText
10
1741.566
20
184.116
30
0.0
40
25.600
1
製図
41
1.000
50
0.000
100
AcDbText
0
TEXT
5
825
100
AcDbEntity
8
E-0
62
4
100
AcDbText
10
895.476
20
119.056
30
0.0
40
51.200
1
TUBE600
41
1.000
50
0.000
100
AcDbText
0
TEXT
5
826
100
AcDbEntity
8
E-0
62
4
100
AcDbText
10
835.476
20
209.056
30
0.0
40
51.200
1
GIW-07701F
41
1.000
50
0.000
100
AcDbText
0
LINE
5
827
100
AcDbEntity
8
E-0
6
CONTINUOUS
62
4
100
AcDbLine
10
547.638091000000
20
1777.427185000000
30
0.0
11
747.638091000000
21
1777.427185000000
31
0.0
0
LINE
5
828
100
AcDbEntity
8
E-0
6
CONTINUOUS
62
4
100
AcDbLine
10
747.638091000000
20
1777.427185000000
30
0.0
11
747.638091000000
21
1827.427185000000
31
0.0
0
LINE
5
829
100
AcDbEntity
8
E-0
6
CONTINUOUS
62
4
100
AcDbLine
10
747.638091000000
20
1827.427185000000
30
0.0
11
547.638091000000
21
1827.427185000000
31
0.0
0
LINE
5
82a
100
AcDbEntity
8
E-0
6
CONTINUOUS
62
4
100
AcDbLine
10
547.638091000000
20
1827.427185000000
30
0.0
11
547.638091000000
21
1777.427185000000
31
0.0
0
TEXT
5
82b
100
AcDbEntity
8
E-0
62
4
100
AcDbText
10
597.638
20
1783.587
30
0.0
40
38.400
1
平面図
41
1.000
50
0.000
100
AcDbText
0
LINE
5
82c
100
AcDbEntity
8
E-0
6
CONTINUOUS
62
4
100
AcDbLine
10
547.638091000000
20
796.282665000000
30
0.0
11
747.638091000000
21
796.282665000000
31
0.0
0
LINE
5
82d
100
AcDbEntity
8
E-0
6
CONTINUOUS
62
4
100
AcDbLine
10
747.638091000000
20
796.282665000000
30
0.0
11
747.638091000000
21
846.282665000000
31
0.0
0
LINE
5
82e
100
AcDbEntity
8
E-0
6
CONTINUOUS
62
4
100
AcDbLine
10
747.638091000000
20
846.282665000000
30
0.0
11
547.638091000000
21
846.282665000000
31
0.0
0
LINE
5
82f
100
AcDbEntity
8
E-0
6
CONTINUOUS
62
4
100
AcDbLine
10
547.638091000000
20
846.282665000000
30
0.0
11
547.638091000000
21
796.282665000000
31
0.0
0
TEXT
5
830
100
AcDbEntity
8
E-0
62
4
100
AcDbText
10
597.638
20
802.443
30
0.0
40
38.400
1
立面図
41
1.000
50
0.000
100
AcDbText
0
LINE
5
831
100
AcDbEntity
8
E-0
6
CONTINUOUS
62
4
100
AcDbLine
10
1407.436061000000
20
796.282665000000
30
0.0
11
1607.436061000000
21
796.282665000000
31
0.0
0
LINE
5
832
100
AcDbEntity
8
E-0
6
CONTINUOUS
62
4
100
AcDbLine
10
1607.436061000000
20
796.282665000000
30
0.0
11
1607.436061000000
21
846.282665000000
31
0.0
0
LINE
5
833
100
AcDbEntity
8
E-0
6
CONTINUOUS
62
4
100
AcDbLine
10
1607.436061000000
20
846.282665000000
30
0.0
11
1407.436061000000
21
846.282665000000
31
0.0
0
LINE
5
834
100
AcDbEntity
8
E-0
6
CONTINUOUS
62
4
100
AcDbLine
10
1407.436061000000
20
846.282665000000
30
0.0
11
1407.436061000000
21
796.282665000000
31
0.0
0
TEXT
5
835
100
AcDbEntity
8
E-0
62
4
100
AcDbText
10
1457.436
20
802.443
30
0.0
40
38.400
1
立面図
41
1.000
50
0.000
100
AcDbText
0
TEXT
5
836
100
AcDbEntity
8
E-0
62
4
100
AcDbText
10
126.511
20
358.854
30
0.0
40
25.600
1
タイプ：半埋め込み型
41
1.000
50
0.000
100
AcDbText
0
TEXT
5
837
100
AcDbEntity
8
E-0
62
4
100
AcDbText
10
130.338
20
285.160
30
0.0
40
25.600
1
焼成による寸法誤差が生じることがありますのであらかじめご了承下さい。
41
1.000
50
0.000
100
AcDbText
0
LINE
5
838
100
AcDbEntity
8
E-0
6
CONTINUOUS
62
4
100
AcDbLine
10
1333.918457000000
20
1777.427185000000
30
0.0
11
1680.953665000000
21
1777.427185000000
31
0.0
0
LINE
5
839
100
AcDbEntity
8
E-0
6
CONTINUOUS
62
4
100
AcDbLine
10
1680.953665000000
20
1777.427185000000
30
0.0
11
1680.953665000000
21
1827.427185000000
31
0.0
0
LINE
5
83a
100
AcDbEntity
8
E-0
6
CONTINUOUS
62
4
100
AcDbLine
10
1680.953665000000
20
1827.427185000000
30
0.0
11
1333.918457000000
21
1827.427185000000
31
0.0
0
LINE
5
83b
100
AcDbEntity
8
E-0
6
CONTINUOUS
62
4
100
AcDbLine
10
1333.918457000000
20
1827.427185000000
30
0.0
11
1333.918457000000
21
1777.427185000000
31
0.0
0
TEXT
5
83c
100
AcDbEntity
8
E-0
62
4
100
AcDbText
10
1347.386
20
1783.587
30
0.0
40
38.400
1
カウンター開口寸法
41
1.000
50
0.000
100
AcDbText
0
TEXT
5
83d
100
AcDbEntity
8
E-0
62
4
100
AcDbText
10
128.492
20
334.504
30
0.0
40
25.600
1
重量：16Kg
41
1.000
50
0.000
100
AcDbText
0
LINE
5
83e
100
AcDbEntity
8
C-0
6
CONTINUOUS
62
0
100
AcDbLine
10
327.638091000000
20
2377.024169000000
30
0.0
11
172.707389000000
21
2377.024169000000
31
0.0
0
LINE
5
83f
100
AcDbEntity
8
C-0
6
CONTINUOUS
62
0
100
AcDbLine
10
327.638091000000
20
1927.024169000000
30
0.0
11
172.707389000000
21
1927.024169000000
31
0.0
0
TEXT
5
840
100
AcDbEntity
8
C-0
62
0
100
AcDbText
10
169.407
20
2128.024
30
0.0
40
32.000
1
450
41
1.000
50
90.000
100
AcDbText
0
LINE
5
841
100
AcDbEntity
8
C-0
6
CONTINUOUS
62
0
100
AcDbLine
10
172.707388875760
20
1927.024169162680
30
0.0
11
172.707388875761
21
2377.024169162680
31
0.0
0
POINT
5
842
100
AcDbEntity
8
C-0
62
0
100
AcDbPoint
10
172.707388875760
20
1927.024169162680
30
0.0
0
POINT
5
843
100
AcDbEntity
8
C-0
62
0
100
AcDbPoint
10
172.707388875761
20
2377.024169162680
30
0.0
0
LINE
5
844
100
AcDbEntity
8
C-0
6
CONTINUOUS
62
0
100
AcDbLine
10
347.638091000000
20
2397.024169000000
30
0.0
11
347.638091000000
21
2468.978601000000
31
0.0
0
LINE
5
845
100
AcDbEntity
8
C-0
6
CONTINUOUS
62
0
100
AcDbLine
10
947.638091000000
20
2397.024169000000
30
0.0
11
947.638091000000
21
2468.978601000000
31
0.0
0
TEXT
5
846
100
AcDbEntity
8
C-0
62
0
100
AcDbText
10
623.638
20
2472.279
30
0.0
40
32.000
1
600
41
1.000
50
0.000
100
AcDbText
0
LINE
5
847
100
AcDbEntity
8
C-0
6
CONTINUOUS
62
0
100
AcDbLine
10
947.638090819125
20
2468.978601223555
30
0.0
11
347.638090819125
21
2468.978601223555
31
0.0
0
POINT
5
848
100
AcDbEntity
8
C-0
62
0
100
AcDbPoint
10
947.638090819125
20
2468.978601223555
30
0.0
0
POINT
5
849
100
AcDbEntity
8
C-0
62
0
100
AcDbPoint
10
347.638090819125
20
2468.978601223555
30
0.0
0
LINE
5
84a
100
AcDbEntity
8
D-0
6
CENTER2
62
16
100
AcDbLine
10
647.638091000000
20
2402.024169000000
30
0.0
11
647.638091000000
21
1902.024169000000
31
0.0
0
LINE
5
84b
100
AcDbEntity
8
2-0
6
CONTINUOUS
62
5
100
AcDbLine
10
947.638091000000
20
2377.024169000000
30
0.0
11
947.638091000000
21
1927.024169000000
31
0.0
0
LINE
5
84c
100
AcDbEntity
8
2-0
6
CONTINUOUS
62
5
100
AcDbLine
10
347.638091000000
20
2377.024169000000
30
0.0
11
347.638091000000
21
1927.024169000000
31
0.0
0
LINE
5
84d
100
AcDbEntity
8
2-0
6
CONTINUOUS
62
5
100
AcDbLine
10
347.638091000000
20
2377.024169000000
30
0.0
11
947.638091000000
21
2377.024169000000
31
0.0
0
LINE
5
84e
100
AcDbEntity
8
2-0
6
CONTINUOUS
62
5
100
AcDbLine
10
347.638091000000
20
1927.024169000000
30
0.0
11
947.638091000000
21
1927.024169000000
31
0.0
0
LINE
5
84f
100
AcDbEntity
8
D-0
6
CENTER2
62
16
100
AcDbLine
10
322.638091000000
20
2312.024169000000
30
0.0
11
972.638091000000
21
2312.024169000000
31
0.0
0
LINE
5
850
100
AcDbEntity
8
D-0
6
CENTER2
62
16
100
AcDbLine
10
322.638091000000
20
2112.024169000000
30
0.0
11
972.638091000000
21
2112.024169000000
31
0.0
0
LINE
5
851
100
AcDbEntity
8
2-0
6
CONTINUOUS
62
5
100
AcDbLine
10
407.638090819125
20
1982.024169162680
30
0.0
11
887.638090819125
21
1982.024169162680
31
0.0
0
ARC
5
852
100
AcDbEntity
8
2-0
6
CONTINUOUS
62
5
100
AcDbCircle
10
887.638091000000
20
1987.024169000000
30
0.0
40
5.000000000000
100
AcDbArc
50
270.000000000000
51
359.999999999708
0
LINE
5
853
100
AcDbEntity
8
2-0
6
CONTINUOUS
62
5
100
AcDbLine
10
892.638090819125
20
1987.024169162680
30
0.0
11
892.638090819125
21
2242.024169162680
31
0.0
0
ARC
5
854
100
AcDbEntity
8
2-0
6
CONTINUOUS
62
5
100
AcDbCircle
10
887.638091000000
20
2242.024169000000
30
0.0
40
5.000000000000
100
AcDbArc
50
360.000000000292
51
450.000000000000
0
LINE
5
855
100
AcDbEntity
8
2-0
6
CONTINUOUS
62
5
100
AcDbLine
10
887.638090819125
20
2247.024169162680
30
0.0
11
407.638090819125
21
2247.024169162680
31
0.0
0
ARC
5
856
100
AcDbEntity
8
2-0
6
CONTINUOUS
62
5
100
AcDbCircle
10
407.638091000000
20
2242.024169000000
30
0.0
40
5.000000000000
100
AcDbArc
50
450.000000000000
51
539.999999999708
0
LINE
5
857
100
AcDbEntity
8
2-0
6
CONTINUOUS
62
5
100
AcDbLine
10
402.638090819125
20
2242.024169162680
30
0.0
11
402.638090819125
21
1987.024169162680
31
0.0
0
ARC
5
858
100
AcDbEntity
8
2-0
6
CONTINUOUS
62
5
100
AcDbCircle
10
407.638091000000
20
1987.024169000000
30
0.0
40
5.000000000000
100
AcDbArc
50
180.000000000292
51
270.000000000000
0
CIRCLE
5
859
100
AcDbEntity
8
2-0
6
CONTINUOUS
62
5
100
AcDbCircle
10
647.638091000000
20
2312.024169000000
30
0.0
40
17.500000000000
0
LINE
5
85a
100
AcDbEntity
8
C-0
6
CONTINUOUS
62
0
100
AcDbLine
10
402.638091000000
20
1967.024169000000
30
0.0
11
402.638091000000
21
1856.995634000000
31
0.0
0
LINE
5
85b
100
AcDbEntity
8
C-0
6
CONTINUOUS
62
0
100
AcDbLine
10
892.638091000000
20
1967.024169000000
30
0.0
11
892.638091000000
21
1856.995634000000
31
0.0
0
TEXT
5
85c
100
AcDbEntity
8
C-0
62
0
100
AcDbText
10
623.638
20
1860.296
30
0.0
40
32.000
1
490
41
1.000
50
0.000
100
AcDbText
0
LINE
5
85d
100
AcDbEntity
8
C-0
6
CONTINUOUS
62
0
100
AcDbLine
10
892.638090819125
20
1856.995634197147
30
0.0
11
402.638090819125
21
1856.995634197147
31
0.0
0
POINT
5
85e
100
AcDbEntity
8
C-0
62
0
100
AcDbPoint
10
892.638090819125
20
1856.995634197147
30
0.0
0
POINT
5
85f
100
AcDbEntity
8
C-0
62
0
100
AcDbPoint
10
402.638090819125
20
1856.995634197147
30
0.0
0
LINE
5
860
100
AcDbEntity
8
C-0
6
CONTINUOUS
62
0
100
AcDbLine
10
907.638091000000
20
2247.024169000000
30
0.0
11
1022.084714000000
21
2247.024169000000
31
0.0
0
LINE
5
861
100
AcDbEntity
8
C-0
6
CONTINUOUS
62
0
100
AcDbLine
10
907.638091000000
20
1982.024169000000
30
0.0
11
1022.084714000000
21
1982.024169000000
31
0.0
0
TEXT
5
862
100
AcDbEntity
8
C-0
62
0
100
AcDbText
10
1018.785
20
2090.524
30
0.0
40
32.000
1
265
41
1.000
50
90.000
100
AcDbText
0
LINE
5
863
100
AcDbEntity
8
C-0
6
CONTINUOUS
62
0
100
AcDbLine
10
1022.084714092726
20
1982.024169162680
30
0.0
11
1022.084714092726
21
2247.024169162680
31
0.0
0
POINT
5
864
100
AcDbEntity
8
C-0
62
0
100
AcDbPoint
10
1022.084714092726
20
1982.024169162680
30
0.0
0
POINT
5
865
100
AcDbEntity
8
C-0
62
0
100
AcDbPoint
10
1022.084714092726
20
2247.024169162680
30
0.0
0
LINE
5
866
100
AcDbEntity
8
C-0
6
CONTINUOUS
62
0
100
AcDbLine
10
327.638091000000
20
2377.024169000000
30
0.0
11
276.681737000000
21
2377.024169000000
31
0.0
0
LINE
5
867
100
AcDbEntity
8
C-0
6
CONTINUOUS
62
0
100
AcDbLine
10
302.638091000000
20
2312.024169000000
30
0.0
11
276.681737000000
21
2312.024169000000
31
0.0
0
LINE
5
868
100
AcDbEntity
8
C-0
6
CONTINUOUS
62
0
100
AcDbLine
10
276.681737000000
20
2402.024169000000
30
0.0
11
276.681737000000
21
2427.024169000000
31
0.0
0
LINE
5
869
100
AcDbEntity
8
C-0
6
CONTINUOUS
62
0
100
AcDbLine
10
276.681737000000
20
2287.024169000000
30
0.0
11
276.681737000000
21
2262.024169000000
31
0.0
0
LINE
5
86a
100
AcDbEntity
8
C-0
6
CONTINUOUS
62
0
100
AcDbLine
10
276.681737000000
20
2377.024169000000
30
0.0
11
276.681737000000
21
2312.024169000000
31
0.0
0
LINE
5
86b
100
AcDbEntity
8
C-0
6
BYLAYER
62
0
100
AcDbLine
10
283.380462001413
20
2402.024169162783
30
0.0
11
276.681737001796
21
2377.024169162680
31
0.0
0
LINE
5
86c
100
AcDbEntity
8
C-0
6
BYLAYER
62
0
100
AcDbLine
10
276.681737001796
20
2377.024169162680
30
0.0
11
269.983012001413
21
2402.024169162577
31
0.0
0
LINE
5
86d
100
AcDbEntity
8
C-0
6
BYLAYER
62
0
100
AcDbLine
10
276.681737001796
20
2377.024169162680
30
0.0
11
276.681737001413
21
2402.024169162680
31
0.0
0
LINE
5
86e
100
AcDbEntity
8
C-0
6
BYLAYER
62
0
100
AcDbLine
10
269.983012001924
20
2287.024169162646
30
0.0
11
276.681737001796
21
2312.024169162680
31
0.0
0
LINE
5
86f
100
AcDbEntity
8
C-0
6
BYLAYER
62
0
100
AcDbLine
10
276.681737001796
20
2312.024169162680
30
0.0
11
283.380462001924
21
2287.024169162714
31
0.0
0
LINE
5
870
100
AcDbEntity
8
C-0
6
BYLAYER
62
0
100
AcDbLine
10
276.681737001796
20
2312.024169162680
30
0.0
11
276.681737001924
21
2287.024169162680
31
0.0
0
TEXT
5
871
100
AcDbEntity
8
C-0
62
0
100
AcDbText
10
273.382
20
2328.524
30
0.0
40
32.000
1
65
41
1.000
50
90.000
100
AcDbText
0
CIRCLE
5
872
100
AcDbEntity
8
2-0
6
CONTINUOUS
62
5
100
AcDbCircle
10
647.638091000000
20
2112.024169000000
30
0.0
40
22.500000000000
0
CIRCLE
5
873
100
AcDbEntity
8
2-0
6
CONTINUOUS
62
5
100
AcDbCircle
10
647.638091000000
20
2112.024169000000
30
0.0
40
35.000000000000
0
LINE
5
874
100
AcDbEntity
8
C-0
6
CONTINUOUS
62
0
100
AcDbLine
10
606.420364000000
20
2088.415929000000
30
0.0
11
584.726824000000
21
2075.990540000000
31
0.0
0
LINE
5
875
100
AcDbEntity
8
C-0
6
CONTINUOUS
62
0
100
AcDbLine
10
688.855818000000
20
2135.632409000000
30
0.0
11
782.654554000000
21
2189.357427000000
31
0.0
0
LINE
5
876
100
AcDbEntity
8
C-0
6
CONTINUOUS
62
0
100
AcDbLine
10
628.113904000000
20
2100.841319000000
30
0.0
11
667.162277000000
21
2123.207020000000
31
0.0
0
LINE
5
877
100
AcDbEntity
8
C-0
6
BYLAYER
62
0
100
AcDbLine
10
603.090993351371
20
2094.228691539853
30
0.0
11
628.113904453329
21
2100.841318597925
31
0.0
0
LINE
5
878
100
AcDbEntity
8
C-0
6
BYLAYER
62
0
100
AcDbLine
10
628.113904453329
20
2100.841318597925
30
0.0
11
609.749734742447
21
2082.603166623134
31
0.0
0
LINE
5
879
100
AcDbEntity
8
C-0
6
BYLAYER
62
0
100
AcDbLine
10
628.113904453329
20
2100.841318597925
30
0.0
11
606.420364046909
21
2088.415929081493
31
0.0
0
LINE
5
87a
100
AcDbEntity
8
C-0
6
BYLAYER
62
0
100
AcDbLine
10
692.185188286812
20
2129.819646785762
30
0.0
11
667.162277184921
21
2123.207019727435
31
0.0
0
LINE
5
87b
100
AcDbEntity
8
C-0
6
BYLAYER
62
0
100
AcDbLine
10
667.162277184921
20
2123.207019727435
30
0.0
11
685.526446895617
21
2141.445171702414
31
0.0
0
LINE
5
87c
100
AcDbEntity
8
C-0
6
BYLAYER
62
0
100
AcDbLine
10
667.162277184921
20
2123.207019727435
30
0.0
11
688.855817591214
21
2135.632409244088
31
0.0
0
TEXT
5
87d
100
AcDbEntity
8
C-0
62
0
100
AcDbText
10
717.194
20
2155.667
30
0.0
40
32.000
1
φ45
41
1.000
50
29.803
100
AcDbText
0
LINE
5
87e
100
AcDbEntity
8
C-0
6
CONTINUOUS
62
0
100
AcDbLine
10
967.638091000000
20
1927.024169000000
30
0.0
11
1022.084714000000
21
1927.024169000000
31
0.0
0
LINE
5
87f
100
AcDbEntity
8
C-0
6
CONTINUOUS
62
0
100
AcDbLine
10
967.638091000000
20
1982.024169000000
30
0.0
11
1022.084714000000
21
1982.024169000000
31
0.0
0
LINE
5
880
100
AcDbEntity
8
C-0
6
CONTINUOUS
62
0
100
AcDbLine
10
1022.084714000000
20
1902.024169000000
30
0.0
11
1022.084714000000
21
1877.024169000000
31
0.0
0
LINE
5
881
100
AcDbEntity
8
C-0
6
CONTINUOUS
62
0
100
AcDbLine
10
1022.084714000000
20
2007.024169000000
30
0.0
11
1022.084714000000
21
2032.024169000000
31
0.0
0
LINE
5
882
100
AcDbEntity
8
C-0
6
CONTINUOUS
62
0
100
AcDbLine
10
1022.084714000000
20
1927.024169000000
30
0.0
11
1022.084714000000
21
1982.024169000000
31
0.0
0
LINE
5
883
100
AcDbEntity
8
C-0
6
BYLAYER
62
0
100
AcDbLine
10
1015.385989092855
20
1902.024169162646
30
0.0
11
1022.084714092727
21
1927.024169162680
31
0.0
0
LINE
5
884
100
AcDbEntity
8
C-0
6
BYLAYER
62
0
100
AcDbLine
10
1022.084714092727
20
1927.024169162680
30
0.0
11
1028.783439092855
21
1902.024169162714
31
0.0
0
LINE
5
885
100
AcDbEntity
8
C-0
6
BYLAYER
62
0
100
AcDbLine
10
1022.084714092727
20
1927.024169162680
30
0.0
11
1022.084714092855
21
1902.024169162680
31
0.0
0
LINE
5
886
100
AcDbEntity
8
C-0
6
BYLAYER
62
0
100
AcDbLine
10
1028.783439092344
20
2007.024169162783
30
0.0
11
1022.084714092727
21
1982.024169162680
31
0.0
0
LINE
5
887
100
AcDbEntity
8
C-0
6
BYLAYER
62
0
100
AcDbLine
10
1022.084714092727
20
1982.024169162680
30
0.0
11
1015.385989092344
21
2007.024169162577
31
0.0
0
LINE
5
888
100
AcDbEntity
8
C-0
6
BYLAYER
62
0
100
AcDbLine
10
1022.084714092727
20
1982.024169162680
30
0.0
11
1022.084714092344
21
2007.024169162680
31
0.0
0
TEXT
5
889
100
AcDbEntity
8
C-0
62
0
100
AcDbText
10
1018.785
20
1938.524
30
0.0
40
32.000
1
55
41
1.000
50
90.000
100
AcDbText
0
LINE
5
88a
100
AcDbEntity
8
C-0
6
CONTINUOUS
62
0
100
AcDbLine
10
967.638091000000
20
2377.024169000000
30
0.0
11
1022.084714000000
21
2377.024169000000
31
0.0
0
LINE
5
88b
100
AcDbEntity
8
C-0
6
CONTINUOUS
62
0
100
AcDbLine
10
967.638091000000
20
2247.024169000000
30
0.0
11
1022.084714000000
21
2247.024169000000
31
0.0
0
TEXT
5
88c
100
AcDbEntity
8
C-0
62
0
100
AcDbText
10
1018.785
20
2288.024
30
0.0
40
32.000
1
130
41
1.000
50
90.000
100
AcDbText
0
LINE
5
88d
100
AcDbEntity
8
C-0
6
CONTINUOUS
62
0
100
AcDbLine
10
1022.084714092726
20
2247.024169162680
30
0.0
11
1022.084714092726
21
2377.024169162680
31
0.0
0
POINT
5
88e
100
AcDbEntity
8
C-0
62
0
100
AcDbPoint
10
1022.084714092726
20
2247.024169162680
30
0.0
0
POINT
5
88f
100
AcDbEntity
8
C-0
62
0
100
AcDbPoint
10
1022.084714092726
20
2377.024169162680
30
0.0
0
LINE
5
890
100
AcDbEntity
8
C-0
6
CONTINUOUS
62
0
100
AcDbLine
10
327.638091000000
20
2377.024169000000
30
0.0
11
228.918359000000
21
2377.024169000000
31
0.0
0
LINE
5
891
100
AcDbEntity
8
C-0
6
CONTINUOUS
62
0
100
AcDbLine
10
302.638091000000
20
2112.024169000000
30
0.0
11
228.918359000000
21
2112.024169000000
31
0.0
0
TEXT
5
892
100
AcDbEntity
8
C-0
62
0
100
AcDbText
10
225.618
20
2220.524
30
0.0
40
32.000
1
265
41
1.000
50
90.000
100
AcDbText
0
LINE
5
893
100
AcDbEntity
8
C-0
6
CONTINUOUS
62
0
100
AcDbLine
10
228.918359325934
20
2112.024169162680
30
0.0
11
228.918359325934
21
2377.024169162680
31
0.0
0
POINT
5
894
100
AcDbEntity
8
C-0
62
0
100
AcDbPoint
10
228.918359325934
20
2112.024169162680
30
0.0
0
POINT
5
895
100
AcDbEntity
8
C-0
62
0
100
AcDbPoint
10
228.918359325934
20
2377.024169162680
30
0.0
0
LINE
5
896
100
AcDbEntity
8
2-0
6
CONTINUOUS
62
5
100
AcDbLine
10
347.638091000000
20
1232.930684000000
30
0.0
11
347.638091000000
21
1201.051061000000
31
0.0
0
LINE
5
897
100
AcDbEntity
8
2-0
6
CONTINUOUS
62
5
100
AcDbLine
10
351.494124000000
20
1236.990873000000
30
0.0
11
943.782058000000
21
1236.990873000000
31
0.0
0
LINE
5
898
100
AcDbEntity
8
2-0
6
CONTINUOUS
62
5
100
AcDbLine
10
401.698280000000
20
1086.990873000000
30
0.0
11
443.577902000000
21
1086.990873000000
31
0.0
0
LINE
5
899
100
AcDbEntity
8
2-0
6
CONTINUOUS
62
5
100
AcDbLine
10
351.494124000000
20
1196.990873000000
30
0.0
11
943.782058000000
21
1196.990873000000
31
0.0
0
ARC
5
89a
100
AcDbEntity
8
2-0
6
CONTINUOUS
62
5
100
AcDbCircle
10
351.710538000000
20
1232.924174000000
30
0.0
40
4.072453000000
100
AcDbArc
50
93.046000000000
51
179.908000000000
0
ARC
5
89b
100
AcDbEntity
8
2-0
6
CONTINUOUS
62
5
100
AcDbCircle
10
351.710538000000
20
1201.057571000000
30
0.0
40
4.072453000000
100
AcDbArc
50
180.092000000000
51
266.954000000000
0
LINE
5
89c
100
AcDbEntity
8
2-0
6
CONTINUOUS
62
5
100
AcDbLine
10
947.638091000000
20
1232.930684000000
30
0.0
11
947.638091000000
21
1201.051061000000
31
0.0
0
ARC
5
89d
100
AcDbEntity
8
2-0
6
CONTINUOUS
62
5
100
AcDbCircle
10
943.565643000000
20
1232.924174000000
30
0.0
40
4.072453000000
100
AcDbArc
50
0.092000000000
51
86.954000000000
0
ARC
5
89e
100
AcDbEntity
8
2-0
6
CONTINUOUS
62
5
100
AcDbCircle
10
943.565643000000
20
1201.057571000000
30
0.0
40
4.072453000000
100
AcDbArc
50
273.046000000000
51
359.908000000000
0
LINE
5
89f
100
AcDbEntity
8
D-0
6
CENTER2
62
16
100
AcDbLine
10
647.638091000000
20
1412.246966000000
30
0.0
11
647.638091000000
21
896.478980000000
31
0.0
0
LINE
5
8a0
100
AcDbEntity
8
2-0
6
CONTINUOUS
62
5
100
AcDbLine
10
401.698280000000
20
1086.990873000000
30
0.0
11
433.577902000000
21
1086.990873000000
31
0.0
0
LINE
5
8a1
100
AcDbEntity
8
2-0
6
CONTINUOUS
62
5
100
AcDbLine
10
397.638091000000
20
1090.846905000000
30
0.0
11
395.984763000000
21
1189.165604000000
31
0.0
0
ARC
5
8a2
100
AcDbEntity
8
2-0
6
CONTINUOUS
62
5
100
AcDbCircle
10
401.704789000000
20
1091.063320000000
30
0.0
40
4.072453000000
100
AcDbArc
50
183.046000000000
51
269.908000000000
0
ARC
5
8a3
100
AcDbEntity
8
2-0
6
CONTINUOUS
62
5
100
AcDbCircle
10
443.571392000000
20
1091.063320000000
30
0.0
40
4.072453000000
100
AcDbArc
50
270.092000000000
51
356.954000000000
0
ARC
5
8a4
100
AcDbEntity
8
2-0
6
CONTINUOUS
62
5
100
AcDbCircle
10
387.833364000000
20
1188.993118000000
30
0.0
40
8.153223000000
100
AcDbArc
50
1.212000000000
51
78.793000000000
0
LINE
5
8a5
100
AcDbEntity
8
2-0
6
CONTINUOUS
62
5
100
AcDbLine
10
447.638091000000
20
1090.846905000000
30
0.0
11
448.006075000000
21
1112.729899000000
31
0.0
0
LINE
5
8a6
100
AcDbEntity
8
2-0
6
CONTINUOUS
62
5
100
AcDbLine
10
448.006075000000
20
1112.729899000000
30
0.0
11
600.171534000000
21
1105.615027000000
31
0.0
0
LINE
5
8a7
100
AcDbEntity
8
2-0
6
CONTINUOUS
62
5
100
AcDbLine
10
600.171534000000
20
1105.615027000000
30
0.0
11
613.800341000000
21
1097.622400000000
31
0.0
0
LINE
5
8a8
100
AcDbEntity
8
2-0
6
CONTINUOUS
62
5
100
AcDbLine
10
613.800341000000
20
1097.622400000000
30
0.0
11
613.800341000000
21
1071.990873000000
31
0.0
0
LINE
5
8a9
100
AcDbEntity
8
2-0
6
CONTINUOUS
62
5
100
AcDbLine
10
613.800341000000
20
1071.990873000000
30
0.0
11
625.727269000000
21
1071.990873000000
31
0.0
0
LINE
5
8aa
100
AcDbEntity
8
2-0
6
CONTINUOUS
62
5
100
AcDbLine
10
669.548913000000
20
1071.990873000000
30
0.0
11
681.475841000000
21
1071.990873000000
31
0.0
0
LINE
5
8ab
100
AcDbEntity
8
2-0
6
CONTINUOUS
62
5
100
AcDbLine
10
625.727269000000
20
1071.990873000000
30
0.0
11
669.548913000000
21
1071.990873000000
31
0.0
0
LINE
5
8ac
100
AcDbEntity
8
2-0
6
CONTINUOUS
62
5
100
AcDbLine
10
893.577902000000
20
1086.990873000000
30
0.0
11
851.698280000000
21
1086.990873000000
31
0.0
0
LINE
5
8ad
100
AcDbEntity
8
2-0
6
CONTINUOUS
62
5
100
AcDbLine
10
893.577902000000
20
1086.990873000000
30
0.0
11
861.698280000000
21
1086.990873000000
31
0.0
0
LINE
5
8ae
100
AcDbEntity
8
2-0
6
CONTINUOUS
62
5
100
AcDbLine
10
897.638091000000
20
1090.846905000000
30
0.0
11
899.291419000000
21
1189.165604000000
31
0.0
0
ARC
5
8af
100
AcDbEntity
8
2-0
6
CONTINUOUS
62
5
100
AcDbCircle
10
893.571392000000
20
1091.063320000000
30
0.0
40
4.072453000000
100
AcDbArc
50
270.092000000000
51
356.954000000000
0
ARC
5
8b0
100
AcDbEntity
8
2-0
6
CONTINUOUS
62
5
100
AcDbCircle
10
851.704789000000
20
1091.063320000000
30
0.0
40
4.072453000000
100
AcDbArc
50
183.046000000000
51
269.908000000000
0
ARC
5
8b1
100
AcDbEntity
8
2-0
6
CONTINUOUS
62
5
100
AcDbCircle
10
907.442818000000
20
1188.993118000000
30
0.0
40
8.153223000000
100
AcDbArc
50
101.207000000000
51
178.788000000000
0
LINE
5
8b2
100
AcDbEntity
8
2-0
6
CONTINUOUS
62
5
100
AcDbLine
10
847.638091000000
20
1090.846905000000
30
0.0
11
847.270106000000
21
1112.729899000000
31
0.0
0
LINE
5
8b3
100
AcDbEntity
8
2-0
6
CONTINUOUS
62
5
100
AcDbLine
10
847.270106000000
20
1112.729899000000
30
0.0
11
695.104648000000
21
1105.615027000000
31
0.0
0
LINE
5
8b4
100
AcDbEntity
8
2-0
6
CONTINUOUS
62
5
100
AcDbLine
10
695.104648000000
20
1105.615027000000
30
0.0
11
681.475841000000
21
1097.622400000000
31
0.0
0
LINE
5
8b5
100
AcDbEntity
8
2-0
6
CONTINUOUS
62
5
100
AcDbLine
10
681.475841000000
20
1097.622400000000
30
0.0
11
681.475841000000
21
1071.990873000000
31
0.0
0
LINE
5
8b6
100
AcDbEntity
8
2-0
6
CONTINUOUS
62
5
100
AcDbLine
10
1772.436061000000
20
1236.990873000000
30
0.0
11
1772.436061000000
21
1085.658898000000
31
0.0
0
LINE
5
8b7
100
AcDbEntity
8
D-0
6
CENTER2
62
16
100
AcDbLine
10
1507.436061000000
20
1389.128631000000
30
0.0
11
1507.436061000000
21
919.597316000000
31
0.0
0
LINE
5
8b8
100
AcDbEntity
8
2-0
6
CONTINUOUS
62
5
100
AcDbLine
10
1322.436061000000
20
1232.930684000000
30
0.0
11
1322.436061000000
21
1201.051061000000
31
0.0
0
LINE
5
8b9
100
AcDbEntity
8
2-0
6
CONTINUOUS
62
5
100
AcDbLine
10
1326.292093000000
20
1236.990873000000
30
0.0
11
1772.436061000000
21
1236.990873000000
31
0.0
0
LINE
5
8ba
100
AcDbEntity
8
2-0
6
CONTINUOUS
62
5
100
AcDbLine
10
1326.292093000000
20
1196.990873000000
30
0.0
11
1772.436061000000
21
1196.990873000000
31
0.0
0
LINE
5
8bb
100
AcDbEntity
8
2-0
6
CONTINUOUS
62
5
100
AcDbLine
10
1471.745678000000
20
1071.992621000000
30
0.0
11
1543.126444000000
21
1071.992621000000
31
0.0
0
ARC
5
8bc
100
AcDbEntity
8
2-0
6
CONTINUOUS
62
5
100
AcDbCircle
10
1326.508508000000
20
1232.924174000000
30
0.0
40
4.072453000000
100
AcDbArc
50
93.046000000000
51
179.908000000000
0
ARC
5
8bd
100
AcDbEntity
8
2-0
6
CONTINUOUS
62
5
100
AcDbCircle
10
1326.508508000000
20
1201.057571000000
30
0.0
40
4.072453000000
100
AcDbArc
50
180.092000000000
51
266.954000000000
0
ARC
5
8be
100
AcDbEntity
8
2-0
6
CONTINUOUS
62
5
100
AcDbCircle
10
1538.587884000000
20
1275.930716000000
30
0.0
40
194.551491000000
100
AcDbArc
50
207.755000000000
51
250.260000000000
0
ARC
5
8bf
100
AcDbEntity
8
2-0
6
CONTINUOUS
62
5
100
AcDbCircle
10
1347.444314000000
20
1177.243767000000
30
0.0
40
20.626659000000
100
AcDbArc
50
23.083000000000
51
73.208000000000
0
LINE
5
8c0
100
AcDbEntity
8
2-0
6
CONTINUOUS
62
5
100
AcDbLine
10
1772.456731000000
20
1086.990873000000
30
0.0
11
1511.220056000000
21
1086.990873000000
31
0.0
0
ARC
5
8c1
100
AcDbEntity
8
2-0
6
CONTINUOUS
62
5
100
AcDbCircle
10
1512.859267000000
20
1226.971516000000
30
0.0
40
139.990241000000
100
AcDbArc
50
253.404000000000
51
269.329000000000
0
LINE
5
8c2
100
AcDbEntity
8
2-0
6
CONTINUOUS
62
5
100
AcDbLine
10
1470.812191000000
20
1072.814296000000
30
0.0
11
1470.812191000000
21
1093.566416000000
31
0.0
0
ARC
5
8c3
100
AcDbEntity
8
2-0
6
CONTINUOUS
62
5
100
AcDbCircle
10
1471.798921000000
20
1072.994205000000
30
0.0
40
1.002998000000
100
AcDbArc
50
190.333000000000
51
266.957000000000
0
LINE
5
8c4
100
AcDbEntity
8
C-0
6
CONTINUOUS
62
0
100
AcDbLine
10
1792.436061000000
20
1236.990873000000
30
0.0
11
1928.242549000000
21
1236.990873000000
31
0.0
0
LINE
5
8c5
100
AcDbEntity
8
C-0
6
CONTINUOUS
62
0
100
AcDbLine
10
1563.126444000000
20
1071.992621000000
30
0.0
11
1928.242549000000
21
1071.992621000000
31
0.0
0
TEXT
5
8c6
100
AcDbEntity
8
C-0
62
0
100
AcDbText
10
1924.943
20
1130.492
30
0.0
40
32.000
1
165
41
1.000
50
90.000
100
AcDbText
0
LINE
5
8c7
100
AcDbEntity
8
C-0
6
CONTINUOUS
62
0
100
AcDbLine
10
1928.242549474835
20
1071.992621387883
30
0.0
11
1928.242549474835
21
1236.990872727988
31
0.0
0
POINT
5
8c8
100
AcDbEntity
8
C-0
62
0
100
AcDbPoint
10
1928.242549474835
20
1071.992621387883
30
0.0
0
POINT
5
8c9
100
AcDbEntity
8
C-0
62
0
100
AcDbPoint
10
1928.242549474835
20
1236.990872727988
30
0.0
0
ARC
5
8ca
100
AcDbEntity
8
2-0
6
CONTINUOUS
62
5
100
AcDbCircle
10
1543.073200000000
20
1072.994205000000
30
0.0
40
1.002998000000
100
AcDbArc
50
273.043000000000
51
349.667000000000
0
LINE
5
8cb
100
AcDbEntity
8
2-0
6
CONTINUOUS
62
5
100
AcDbLine
10
1544.059931000000
20
1072.814296000000
30
0.0
11
1544.087196000000
21
1073.338809000000
31
0.0
0
ARC
5
8cc
100
AcDbEntity
8
2-0
6
CONTINUOUS
62
5
100
AcDbCircle
10
1544.963987000000
20
1073.335000000000
30
0.0
40
0.876799000000
100
AcDbArc
50
109.544000000000
51
179.751000000000
0
ARC
5
8cd
100
AcDbEntity
8
2-0
6
CONTINUOUS
62
5
100
AcDbCircle
10
1871.021338000000
20
394.838858000000
30
0.0
40
753.646942000000
100
AcDbArc
50
113.561000000000
51
115.660000000000
0
LINE
5
8ce
100
AcDbEntity
8
C-0
6
CONTINUOUS
62
0
100
AcDbLine
10
1792.436061000000
20
1236.990873000000
30
0.0
11
1872.025195000000
21
1236.990873000000
31
0.0
0
LINE
5
8cf
100
AcDbEntity
8
C-0
6
CONTINUOUS
62
0
100
AcDbLine
10
1792.456731000000
20
1086.990873000000
30
0.0
11
1872.025195000000
21
1086.990873000000
31
0.0
0
TEXT
5
8d0
100
AcDbEntity
8
C-0
62
0
100
AcDbText
10
1868.725
20
1137.991
30
0.0
40
32.000
1
150
41
1.000
50
90.000
100
AcDbText
0
LINE
5
8d1
100
AcDbEntity
8
C-0
6
CONTINUOUS
62
0
100
AcDbLine
10
1872.025195382203
20
1086.990872727988
30
0.0
11
1872.025195382203
21
1236.990872727988
31
0.0
0
POINT
5
8d2
100
AcDbEntity
8
C-0
62
0
100
AcDbPoint
10
1872.025195382203
20
1086.990872727988
30
0.0
0
POINT
5
8d3
100
AcDbEntity
8
C-0
62
0
100
AcDbPoint
10
1872.025195382203
20
1236.990872727988
30
0.0
0
LINE
5
8d4
100
AcDbEntity
8
C-0
6
CONTINUOUS
62
0
100
AcDbLine
10
1306.292093000000
20
1236.990873000000
30
0.0
11
1244.472271000000
21
1236.990873000000
31
0.0
0
LINE
5
8d5
100
AcDbEntity
8
C-0
6
CONTINUOUS
62
0
100
AcDbLine
10
1306.292093000000
20
1196.990873000000
30
0.0
11
1244.472271000000
21
1196.990873000000
31
0.0
0
LINE
5
8d6
100
AcDbEntity
8
C-0
6
CONTINUOUS
62
0
100
AcDbLine
10
1244.472271000000
20
1261.990873000000
30
0.0
11
1244.472271000000
21
1286.990873000000
31
0.0
0
LINE
5
8d7
100
AcDbEntity
8
C-0
6
CONTINUOUS
62
0
100
AcDbLine
10
1244.472271000000
20
1171.990873000000
30
0.0
11
1244.472271000000
21
1146.990873000000
31
0.0
0
LINE
5
8d8
100
AcDbEntity
8
C-0
6
CONTINUOUS
62
0
100
AcDbLine
10
1244.472271000000
20
1236.990873000000
30
0.0
11
1244.472271000000
21
1196.990873000000
31
0.0
0
LINE
5
8d9
100
AcDbEntity
8
C-0
6
BYLAYER
62
0
100
AcDbLine
10
1251.170996087120
20
1261.990872728091
30
0.0
11
1244.472271087503
21
1236.990872727988
31
0.0
0
LINE
5
8da
100
AcDbEntity
8
C-0
6
BYLAYER
62
0
100
AcDbLine
10
1244.472271087503
20
1236.990872727988
30
0.0
11
1237.773546087120
21
1261.990872727886
31
0.0
0
LINE
5
8db
100
AcDbEntity
8
C-0
6
BYLAYER
62
0
100
AcDbLine
10
1244.472271087503
20
1236.990872727988
30
0.0
11
1244.472271087120
21
1261.990872727988
31
0.0
0
LINE
5
8dc
100
AcDbEntity
8
C-0
6
BYLAYER
62
0
100
AcDbLine
10
1237.773546087631
20
1171.990872727954
30
0.0
11
1244.472271087503
21
1196.990872727988
31
0.0
0
LINE
5
8dd
100
AcDbEntity
8
C-0
6
BYLAYER
62
0
100
AcDbLine
10
1244.472271087503
20
1196.990872727988
30
0.0
11
1251.170996087631
21
1171.990872728022
31
0.0
0
LINE
5
8de
100
AcDbEntity
8
C-0
6
BYLAYER
62
0
100
AcDbLine
10
1244.472271087503
20
1196.990872727988
30
0.0
11
1244.472271087631
21
1171.990872727988
31
0.0
0
TEXT
5
8df
100
AcDbEntity
8
C-0
62
0
100
AcDbText
10
1241.172
20
1200.991
30
0.0
40
32.000
1
40
41
1.000
50
90.000
100
AcDbText
0
LINE
5
8e0
100
AcDbEntity
8
C-0
6
CONTINUOUS
62
0
100
AcDbLine
10
609.307650000000
20
2293.665866000000
30
0.0
11
586.760332000000
21
2282.866864000000
31
0.0
0
LINE
5
8e1
100
AcDbEntity
8
C-0
6
CONTINUOUS
62
0
100
AcDbLine
10
685.968532000000
20
2330.382472000000
30
0.0
11
783.458841000000
21
2377.075300000000
31
0.0
0
LINE
5
8e2
100
AcDbEntity
8
C-0
6
CONTINUOUS
62
0
100
AcDbLine
10
631.854968000000
20
2304.464868000000
30
0.0
11
663.421214000000
21
2319.583470000000
31
0.0
0
LINE
5
8e3
100
AcDbEntity
8
C-0
6
BYLAYER
62
0
100
AcDbLine
10
606.414068110761
20
2299.707397330486
30
0.0
11
631.854968073683
21
2304.464867845604
31
0.0
0
LINE
5
8e4
100
AcDbEntity
8
C-0
6
BYLAYER
62
0
100
AcDbLine
10
631.854968073683
20
2304.464867845604
30
0.0
11
612.201231621091
21
2287.624334597585
31
0.0
0
LINE
5
8e5
100
AcDbEntity
8
C-0
6
BYLAYER
62
0
100
AcDbLine
10
631.854968073683
20
2304.464867845604
30
0.0
11
609.307649865926
21
2293.665865964035
31
0.0
0
LINE
5
8e6
100
AcDbEntity
8
C-0
6
BYLAYER
62
0
100
AcDbLine
10
688.862113527439
20
2324.340940995133
30
0.0
11
663.421213564566
21
2319.583470479755
31
0.0
0
LINE
5
8e7
100
AcDbEntity
8
C-0
6
BYLAYER
62
0
100
AcDbLine
10
663.421213564566
20
2319.583470479755
30
0.0
11
683.074950016986
21
2336.424003727975
31
0.0
0
LINE
5
8e8
100
AcDbEntity
8
C-0
6
BYLAYER
62
0
100
AcDbLine
10
663.421213564566
20
2319.583470479755
30
0.0
11
685.968531772213
21
2330.382472361554
31
0.0
0
TEXT
5
8e9
100
AcDbEntity
8
C-0
62
0
100
AcDbText
10
715.701
20
2348.282
30
0.0
40
32.000
1
φ35
41
1.000
50
25.592
100
AcDbText
0
LINE
5
8ea
100
AcDbEntity
8
C-0
6
CONTINUOUS
62
0
100
AcDbLine
10
701.475841000000
20
1071.990873000000
30
0.0
11
759.731669000000
21
1071.990873000000
31
0.0
0
LINE
5
8eb
100
AcDbEntity
8
C-0
6
CONTINUOUS
62
0
100
AcDbLine
10
701.475841000000
20
1236.990873000000
30
0.0
11
759.731669000000
21
1236.990873000000
31
0.0
0
TEXT
5
8ec
100
AcDbEntity
8
C-0
62
0
100
AcDbText
10
756.432
20
1130.491
30
0.0
40
32.000
1
165
41
1.000
50
90.000
100
AcDbText
0
LINE
5
8ed
100
AcDbEntity
8
C-0
6
CONTINUOUS
62
0
100
AcDbLine
10
759.731668723538
20
1236.990872727988
30
0.0
11
759.731668723538
21
1071.990872727988
31
0.0
0
POINT
5
8ee
100
AcDbEntity
8
C-0
62
0
100
AcDbPoint
10
759.731668723538
20
1236.990872727988
30
0.0
0
POINT
5
8ef
100
AcDbEntity
8
C-0
62
0
100
AcDbPoint
10
759.731668723538
20
1071.990872727988
30
0.0
0
LINE
5
8f0
100
AcDbEntity
8
C-0
6
CONTINUOUS
62
0
100
AcDbLine
10
381.698280000000
20
1086.990873000000
30
0.0
11
279.591009000000
21
1086.990873000000
31
0.0
0
LINE
5
8f1
100
AcDbEntity
8
C-0
6
CONTINUOUS
62
0
100
AcDbLine
10
331.494124000000
20
1236.990873000000
30
0.0
11
279.591009000000
21
1236.990873000000
31
0.0
0
TEXT
5
8f2
100
AcDbEntity
8
C-0
62
0
100
AcDbText
10
276.291
20
1137.991
30
0.0
40
32.000
1
150
41
1.000
50
90.000
100
AcDbText
0
LINE
5
8f3
100
AcDbEntity
8
C-0
6
CONTINUOUS
62
0
100
AcDbLine
10
279.591009020520
20
1236.990872727988
30
0.0
11
279.591009020520
21
1086.990872727988
31
0.0
0
POINT
5
8f4
100
AcDbEntity
8
C-0
62
0
100
AcDbPoint
10
279.591009020520
20
1236.990872727988
30
0.0
0
POINT
5
8f5
100
AcDbEntity
8
C-0
62
0
100
AcDbPoint
10
279.591009020520
20
1086.990872727988
30
0.0
0
LINE
5
8f6
100
AcDbEntity
8
C-0
6
CONTINUOUS
62
0
100
AcDbLine
10
1207.436061000000
20
2377.024169000000
30
0.0
11
1109.970710000000
21
2377.024169000000
31
0.0
0
LINE
5
8f7
100
AcDbEntity
8
C-0
6
CONTINUOUS
62
0
100
AcDbLine
10
1207.436061000000
20
1947.024169000000
30
0.0
11
1109.970710000000
21
1947.024169000000
31
0.0
0
TEXT
5
8f8
100
AcDbEntity
8
C-0
62
0
100
AcDbText
10
1106.671
20
2138.024
30
0.0
40
32.000
1
430
41
1.000
50
90.000
100
AcDbText
0
LINE
5
8f9
100
AcDbEntity
8
C-0
6
CONTINUOUS
62
0
100
AcDbLine
10
1109.970709678658
20
1947.024169162680
30
0.0
11
1109.970709678658
21
2377.024169162680
31
0.0
0
POINT
5
8fa
100
AcDbEntity
8
C-0
62
0
100
AcDbPoint
10
1109.970709678658
20
1947.024169162680
30
0.0
0
POINT
5
8fb
100
AcDbEntity
8
C-0
62
0
100
AcDbPoint
10
1109.970709678658
20
2377.024169162680
30
0.0
0
LINE
5
8fc
100
AcDbEntity
8
C-0
6
CONTINUOUS
62
0
100
AcDbLine
10
1227.436061000000
20
2397.024169000000
30
0.0
11
1227.436061000000
21
2468.978601000000
31
0.0
0
LINE
5
8fd
100
AcDbEntity
8
C-0
6
CONTINUOUS
62
0
100
AcDbLine
10
1787.436061000000
20
2397.024169000000
30
0.0
11
1787.436061000000
21
2468.978601000000
31
0.0
0
TEXT
5
8fe
100
AcDbEntity
8
C-0
62
0
100
AcDbText
10
1483.436
20
2472.279
30
0.0
40
32.000
1
560
41
1.000
50
0.000
100
AcDbText
0
LINE
5
8ff
100
AcDbEntity
8
C-0
6
CONTINUOUS
62
0
100
AcDbLine
10
1787.436060650340
20
2468.978601223555
30
0.0
11
1227.436060650340
21
2468.978601223555
31
0.0
0
POINT
5
900
100
AcDbEntity
8
C-0
62
0
100
AcDbPoint
10
1787.436060650340
20
2468.978601223555
30
0.0
0
POINT
5
901
100
AcDbEntity
8
C-0
62
0
100
AcDbPoint
10
1227.436060650340
20
2468.978601223555
30
0.0
0
LINE
5
902
100
AcDbEntity
8
D-0
6
CENTER2
62
16
100
AcDbLine
10
1507.436061000000
20
2402.024169000000
30
0.0
11
1507.436061000000
21
1902.024169000000
31
0.0
0
LINE
5
903
100
AcDbEntity
8
2-0
6
DOT
62
5
100
AcDbLine
10
1807.436061000000
20
2377.024169000000
30
0.0
11
1807.436061000000
21
1927.024169000000
31
0.0
0
LINE
5
904
100
AcDbEntity
8
2-0
6
DOT
62
5
100
AcDbLine
10
1207.436061000000
20
2377.024169000000
30
0.0
11
1207.436061000000
21
1927.024169000000
31
0.0
0
LINE
5
905
100
AcDbEntity
8
2-0
6
DOT
62
5
100
AcDbLine
10
1207.436061000000
20
2377.024169000000
30
0.0
11
1807.436061000000
21
2377.024169000000
31
0.0
0
LINE
5
906
100
AcDbEntity
8
D-0
6
CENTER2
62
16
100
AcDbLine
10
1182.436061000000
20
2312.024169000000
30
0.0
11
1832.436061000000
21
2312.024169000000
31
0.0
0
LINE
5
907
100
AcDbEntity
8
D-0
6
CENTER2
62
16
100
AcDbLine
10
1182.436061000000
20
2112.024169000000
30
0.0
11
1832.436061000000
21
2112.024169000000
31
0.0
0
CIRCLE
5
908
100
AcDbEntity
8
2-0
6
DOT
62
5
100
AcDbCircle
10
1507.436061000000
20
2312.024169000000
30
0.0
40
17.500000000000
0
CIRCLE
5
909
100
AcDbEntity
8
2-0
6
DOT
62
5
100
AcDbCircle
10
1507.436061000000
20
2112.024169000000
30
0.0
40
22.500000000000
0
CIRCLE
5
90a
100
AcDbEntity
8
2-0
6
DOT
62
5
100
AcDbCircle
10
1507.436061000000
20
2112.024169000000
30
0.0
40
35.000000000000
0
LINE
5
90b
100
AcDbEntity
8
2-0
6
DOT
62
5
100
AcDbLine
10
1207.436061000000
20
1927.024169000000
30
0.0
11
1807.436061000000
21
1927.024169000000
31
0.0
0
LINE
5
90c
100
AcDbEntity
8
2-0
6
CONTINUOUS
62
5
100
AcDbLine
10
1227.436061000000
20
1947.024169000000
30
0.0
11
1787.436061000000
21
1947.024169000000
31
0.0
0
LINE
5
90d
100
AcDbEntity
8
2-0
6
CONTINUOUS
62
5
100
AcDbLine
10
1787.436061000000
20
2377.024169000000
30
0.0
11
1787.436061000000
21
1947.024169000000
31
0.0
0
LINE
5
90e
100
AcDbEntity
8
2-0
6
CONTINUOUS
62
5
100
AcDbLine
10
1227.436061000000
20
2377.024169000000
30
0.0
11
1227.436061000000
21
1947.024169000000
31
0.0
0
LINE
5
90f
100
AcDbEntity
8
2-0
6
CONTINUOUS
62
5
100
AcDbLine
10
1227.436061000000
20
2377.024169000000
30
0.0
11
1787.436061000000
21
2377.024169000000
31
0.0
0
TEXT
5
910
100
AcDbEntity
8
E-0
62
4
100
AcDbText
10
129.892
20
309.187
30
0.0
40
25.600
1
オーバーフロー：有 ※蛇口付属排水栓、またはハンドプッシュ式排水栓RP-8530.360.5をご使用下さい。
41
1.000
50
0.000
100
AcDbText
0
LINE
5
911
100
AcDbEntity
8
C-0
6
CONTINUOUS
62
0
100
AcDbLine
10
402.638091000000
20
1907.024169000000
30
0.0
11
402.638091000000
21
1856.995634000000
31
0.0
0
LINE
5
912
100
AcDbEntity
8
C-0
6
CONTINUOUS
62
0
100
AcDbLine
10
347.638091000000
20
1907.024169000000
30
0.0
11
347.638091000000
21
1856.995634000000
31
0.0
0
LINE
5
913
100
AcDbEntity
8
C-0
6
CONTINUOUS
62
0
100
AcDbLine
10
427.638091000000
20
1856.995634000000
30
0.0
11
452.638091000000
21
1856.995634000000
31
0.0
0
LINE
5
914
100
AcDbEntity
8
C-0
6
CONTINUOUS
62
0
100
AcDbLine
10
322.638091000000
20
1856.995634000000
30
0.0
11
297.638091000000
21
1856.995634000000
31
0.0
0
LINE
5
915
100
AcDbEntity
8
C-0
6
CONTINUOUS
62
0
100
AcDbLine
10
402.638091000000
20
1856.995634000000
30
0.0
11
347.638091000000
21
1856.995634000000
31
0.0
0
LINE
5
916
100
AcDbEntity
8
C-0
6
BYLAYER
62
0
100
AcDbLine
10
427.638090819194
20
1850.296909197402
30
0.0
11
402.638090819125
21
1856.995634197147
31
0.0
0
LINE
5
917
100
AcDbEntity
8
C-0
6
BYLAYER
62
0
100
AcDbLine
10
402.638090819125
20
1856.995634197147
30
0.0
11
427.638090819057
21
1863.694359197402
31
0.0
0
LINE
5
918
100
AcDbEntity
8
C-0
6
BYLAYER
62
0
100
AcDbLine
10
402.638090819125
20
1856.995634197147
30
0.0
11
427.638090819125
21
1856.995634197402
31
0.0
0
LINE
5
919
100
AcDbEntity
8
C-0
6
BYLAYER
62
0
100
AcDbLine
10
322.638090819125
20
1863.694359197147
30
0.0
11
347.638090819125
21
1856.995634197147
31
0.0
0
LINE
5
91a
100
AcDbEntity
8
C-0
6
BYLAYER
62
0
100
AcDbLine
10
347.638090819125
20
1856.995634197147
30
0.0
11
322.638090819125
21
1850.296909197147
31
0.0
0
LINE
5
91b
100
AcDbEntity
8
C-0
6
BYLAYER
62
0
100
AcDbLine
10
347.638090819125
20
1856.995634197147
30
0.0
11
322.638090819125
21
1856.995634197147
31
0.0
0
TEXT
5
91c
100
AcDbEntity
8
C-0
62
0
100
AcDbText
10
359.138
20
1860.296
30
0.0
40
32.000
1
55
41
1.000
50
0.000
100
AcDbText
0
LINE
5
91d
100
AcDbEntity
8
C-0
6
CONTINUOUS
62
0
100
AcDbLine
10
892.638091000000
20
1907.024169000000
30
0.0
11
892.638091000000
21
1856.995634000000
31
0.0
0
LINE
5
91e
100
AcDbEntity
8
C-0
6
CONTINUOUS
62
0
100
AcDbLine
10
947.638091000000
20
1907.024169000000
30
0.0
11
947.638091000000
21
1856.995634000000
31
0.0
0
LINE
5
91f
100
AcDbEntity
8
C-0
6
CONTINUOUS
62
0
100
AcDbLine
10
867.638091000000
20
1856.995634000000
30
0.0
11
842.638091000000
21
1856.995634000000
31
0.0
0
LINE
5
920
100
AcDbEntity
8
C-0
6
CONTINUOUS
62
0
100
AcDbLine
10
972.638091000000
20
1856.995634000000
30
0.0
11
997.638091000000
21
1856.995634000000
31
0.0
0
LINE
5
921
100
AcDbEntity
8
C-0
6
CONTINUOUS
62
0
100
AcDbLine
10
892.638091000000
20
1856.995634000000
30
0.0
11
947.638091000000
21
1856.995634000000
31
0.0
0
LINE
5
922
100
AcDbEntity
8
C-0
6
BYLAYER
62
0
100
AcDbLine
10
867.638090819125
20
1863.694359197147
30
0.0
11
892.638090819125
21
1856.995634197147
31
0.0
0
LINE
5
923
100
AcDbEntity
8
C-0
6
BYLAYER
62
0
100
AcDbLine
10
892.638090819125
20
1856.995634197147
30
0.0
11
867.638090819125
21
1850.296909197147
31
0.0
0
LINE
5
924
100
AcDbEntity
8
C-0
6
BYLAYER
62
0
100
AcDbLine
10
892.638090819125
20
1856.995634197147
30
0.0
11
867.638090819125
21
1856.995634197147
31
0.0
0
LINE
5
925
100
AcDbEntity
8
C-0
6
BYLAYER
62
0
100
AcDbLine
10
972.638090819193
20
1850.296909197402
30
0.0
11
947.638090819125
21
1856.995634197147
31
0.0
0
LINE
5
926
100
AcDbEntity
8
C-0
6
BYLAYER
62
0
100
AcDbLine
10
947.638090819125
20
1856.995634197147
30
0.0
11
972.638090819057
21
1863.694359197402
31
0.0
0
LINE
5
927
100
AcDbEntity
8
C-0
6
BYLAYER
62
0
100
AcDbLine
10
947.638090819125
20
1856.995634197147
30
0.0
11
972.638090819125
21
1856.995634197402
31
0.0
0
TEXT
5
928
100
AcDbEntity
8
C-0
62
0
100
AcDbText
10
904.138
20
1860.296
30
0.0
40
32.000
1
55
41
1.000
50
0.000
100
AcDbText
0
ENDSEC
0
EOF
