0
SECTION
2
HEADER
9
$ACADVER
1
AC1009
9
$DWGCODEPAGE
3
ANSI_932
9
$EXTMIN
10
0.000
20
0.000
30
0.0
9
$EXTMAX
10
4752.000
20
3360.000
30
0.0
9
$LTSCALE
40
8.000
9
$PDMODE
70
0
9
$PDSIZE
40
40.0
0
ENDSEC
0
SECTION
2
TABLES
0
TABLE
2
LTYPE
70
9
0
LTYPE
5
1f4
2
CONTINUOUS
70
64
3
SolidLine
72
65
73
0
40
0.0
0
LTYPE
5
1f5
2
DOT
70
64
3
--  --  --  --  --  --  --  --     
72
65
73
2
40
3.000
49
1.000
49
-2.000
0
LTYPE
5
1f6
2
DASHED
70
64
3
----    ----    ----    ----    
72
65
73
2
40
5.000
49
2.000
49
-3.000
0
LTYPE
5
1f7
2
DASHED2
70
64
3
------  ------  ------  ------ 
72
65
73
2
40
10.000
49
4.000
49
-6.000
0
LTYPE
5
1f8
2
CENTER
70
64
3
----- - ----- - ----- - ----- - 
72
65
73
4
40
10.000
49
6.000
49
-3.000
49
1.000
49
-3.000
0
LTYPE
5
1f9
2
CENTER2
70
64
3
----------  --  ----------  -- 
72
65
73
4
40
17.000
49
12.000
49
-5.000
49
2.000
49
-5.000
0
LTYPE
5
1fa
2
PHANTOM
70
64
3
--- - - --- - - --- - - --- - -
72
65
73
6
40
13.000
49
5.000
49
-3.000
49
1.000
49
-3.000
49
1.000
49
-3.000
0
LTYPE
5
1fb
2
PHANTOM2
70
64
3
--------  -  -  --------  -  -
72
65
73
6
40
20.000
49
6.000
49
-5.000
49
2.000
49
-5.000
49
2.000
49
-5.000
0
LTYPE
5
1fc
2
HIDDEN
70
64
3
-   -   -   -   -   -   -   -   
72
65
73
2
40
3.000
49
0.500
49
-2.500
0
ENDTAB
0
TABLE
2
STYLE
70
1
0
STYLE
5
1fd
100
AcDbSymbolTableRecord
100
AcDbTextStyleTableRecord
2
STANDARD
70
0
40
0.0
41
1.0
50
0.0
71
0
42
0.0
3
txt.shx
4
extfont.shx
0
STYLE
5
1fe
100
AcDbSymbolTableRecord
100
AcDbTextStyleTableRecord
2
TATEGAKI
70
4
40
0.0
41
1.0
50
0.0
71
0
42
0.0
3
txt.shx
4
extfont.shx
0
STYLE
5
1ff
100
AcDbSymbolTableRecord
100
AcDbTextStyleTableRecord
2
DIM
70
0
40
0.0
41
0.75
50
0.0
71
0
42
0.0
3
txt.shx
4
extfont.shx
0
STYLE
5
200
100
AcDbSymbolTableRecord
100
AcDbTextStyleTableRecord
2
_Gothic__
70
0
40
0.0
41
1.0
50
0.0
71
0
42
0.0
3
MS Gothic
4

0
STYLE
5
201
100
AcDbSymbolTableRecord
100
AcDbTextStyleTableRecord
2
_TateGothic_
70
4
40
0.0
41
1.0
50
0.0
71
0
42
0.0
3
@MS Gothic
4

0
ENDTAB
0
TABLE
2
LAYER
5
403
100
AcDbSymbolTable
70
10
0
LAYER
5
404
100
AcDbSymbolTableRecord
100
AcDbLayerTableRecord
2
2-0
70
0
62
7
6
CONTINUOUS
0
LAYER
5
405
100
AcDbSymbolTableRecord
100
AcDbLayerTableRecord
2
3-0
70
0
62
7
6
CONTINUOUS
0
LAYER
5
406
100
AcDbSymbolTableRecord
100
AcDbLayerTableRecord
2
5-0
70
0
62
7
6
CONTINUOUS
0
LAYER
5
407
100
AcDbSymbolTableRecord
100
AcDbLayerTableRecord
2
6-0
70
0
62
7
6
CONTINUOUS
0
LAYER
5
408
100
AcDbSymbolTableRecord
100
AcDbLayerTableRecord
2
8-0
70
0
62
-7
6
CONTINUOUS
0
LAYER
5
409
100
AcDbSymbolTableRecord
100
AcDbLayerTableRecord
2
9-0
70
0
62
-7
6
CONTINUOUS
0
LAYER
5
40a
100
AcDbSymbolTableRecord
100
AcDbLayerTableRecord
2
B-0
70
0
62
6
6
CONTINUOUS
0
LAYER
5
40b
100
AcDbSymbolTableRecord
100
AcDbLayerTableRecord
2
C-0
70
0
62
6
6
CONTINUOUS
0
LAYER
5
40c
100
AcDbSymbolTableRecord
100
AcDbLayerTableRecord
2
D-0
70
0
62
3
6
CONTINUOUS
0
LAYER
5
40d
100
AcDbSymbolTableRecord
100
AcDbLayerTableRecord
2
E-0
70
0
62
1
6
CENTER2
0
LAYER
5
40e
100
AcDbSymbolTableRecord
100
AcDbLayerTableRecord
2
F-0
70
0
62
4
6
CONTINUOUS
0
ENDTAB
0
ENDSEC
0
SECTION
2
ENTITIES
0
ARC
5
40f
100
AcDbEntity
8
5-0
6
CONTINUOUS
62
5
100
AcDbCircle
10
568.637053000000
20
2491.675609000000
30
0.0
40
1232.500000000000
100
AcDbArc
50
259.718000000000
51
285.530000000000
0
LINE
5
410
100
AcDbEntity
8
5-0
6
CONTINUOUS
62
5
100
AcDbLine
10
348.637053000000
20
1278.969441000000
30
0.0
11
348.637053000000
21
1304.175609000000
31
0.0
0
LINE
5
411
100
AcDbEntity
8
5-0
6
CONTINUOUS
62
5
100
AcDbLine
10
533.637053000000
20
1249.175609000000
30
0.0
11
533.637053000000
21
1259.672667000000
31
0.0
0
LINE
5
412
100
AcDbEntity
8
5-0
6
CONTINUOUS
62
5
100
AcDbLine
10
603.637053000000
20
1249.175609000000
30
0.0
11
603.637053000000
21
1259.672667000000
31
0.0
0
LINE
5
413
100
AcDbEntity
8
5-0
6
CONTINUOUS
62
5
100
AcDbLine
10
533.637053000000
20
1249.175609000000
30
0.0
11
603.637053000000
21
1249.175609000000
31
0.0
0
LINE
5
414
100
AcDbEntity
8
5-0
6
CONTINUOUS
62
5
100
AcDbLine
10
328.637053000000
20
1304.175609000000
30
0.0
11
328.637053000000
21
1349.175609000000
31
0.0
0
LINE
5
415
100
AcDbEntity
8
5-0
6
CONTINUOUS
62
5
100
AcDbLine
10
328.637053000000
20
1304.175609000000
30
0.0
11
1008.637053000000
21
1304.175609000000
31
0.0
0
LINE
5
416
100
AcDbEntity
8
5-0
6
CONTINUOUS
62
5
100
AcDbLine
10
1008.637053000000
20
1304.175609000000
30
0.0
11
1008.637053000000
21
1349.175609000000
31
0.0
0
LINE
5
417
100
AcDbEntity
8
5-0
6
CONTINUOUS
62
5
100
AcDbLine
10
328.637053000000
20
1349.175609000000
30
0.0
11
1008.637053000000
21
1349.175609000000
31
0.0
0
LINE
5
418
100
AcDbEntity
8
E-0
6
CENTER2
62
16
100
AcDbLine
10
568.637053000000
20
949.175609000000
30
0.0
11
568.637053000000
21
1729.175609000000
31
0.0
0
LINE
5
419
100
AcDbEntity
8
E-0
6
CENTER2
62
16
100
AcDbLine
10
568.637053000000
20
2065.824391000000
30
0.0
11
568.637053000000
21
2535.824391000000
31
0.0
0
CIRCLE
5
41a
100
AcDbEntity
8
5-0
6
CONTINUOUS
62
5
100
AcDbCircle
10
568.637053000000
20
2300.824391000000
30
0.0
40
25.000000000000
0
CIRCLE
5
41b
100
AcDbEntity
8
5-0
6
CONTINUOUS
62
5
100
AcDbCircle
10
568.637053000000
20
2300.824391000000
30
0.0
40
35.000000000000
0
LINE
5
41c
100
AcDbEntity
8
5-0
6
CONTINUOUS
62
5
100
AcDbLine
10
328.637053000000
20
2115.824391000000
30
0.0
11
1008.637053000000
21
2115.824391000000
31
0.0
0
LINE
5
41d
100
AcDbEntity
8
5-0
6
CONTINUOUS
62
5
100
AcDbLine
10
358.637053000000
20
2140.824391000000
30
0.0
11
978.637053000000
21
2140.824391000000
31
0.0
0
LINE
5
41e
100
AcDbEntity
8
5-0
6
CONTINUOUS
62
5
100
AcDbLine
10
1008.637053000000
20
2115.824391000000
30
0.0
11
1008.637053000000
21
2485.824391000000
31
0.0
0
LINE
5
41f
100
AcDbEntity
8
5-0
6
CONTINUOUS
62
5
100
AcDbLine
10
328.637053000000
20
2115.824391000000
30
0.0
11
328.637053000000
21
2485.824391000000
31
0.0
0
LINE
5
420
100
AcDbEntity
8
5-0
6
CONTINUOUS
62
5
100
AcDbLine
10
978.637053000000
20
2140.824391000000
30
0.0
11
978.637053000000
21
2460.824391000000
31
0.0
0
LINE
5
421
100
AcDbEntity
8
5-0
6
CONTINUOUS
62
5
100
AcDbLine
10
358.637053000000
20
2140.824391000000
30
0.0
11
358.637053000000
21
2460.824391000000
31
0.0
0
LINE
5
422
100
AcDbEntity
8
5-0
6
CONTINUOUS
62
5
100
AcDbLine
10
1247.432051000000
20
2450.824391000000
30
0.0
11
1821.432051000000
21
2450.824391000000
31
0.0
0
LINE
5
423
100
AcDbEntity
8
5-0
6
CONTINUOUS
62
5
100
AcDbLine
10
1834.432051000000
20
2437.824391000000
30
0.0
11
1834.432051000000
21
2163.824391000000
31
0.0
0
LINE
5
424
100
AcDbEntity
8
5-0
6
CONTINUOUS
62
5
100
AcDbLine
10
1247.432051000000
20
2150.824391000000
30
0.0
11
1821.432051000000
21
2150.824391000000
31
0.0
0
LINE
5
425
100
AcDbEntity
8
5-0
6
CONTINUOUS
62
5
100
AcDbLine
10
1234.432051000000
20
2437.824391000000
30
0.0
11
1234.432051000000
21
2163.824391000000
31
0.0
0
CIRCLE
5
426
100
AcDbEntity
8
5-0
6
CONTINUOUS
62
5
100
AcDbCircle
10
1434.432051000000
20
2300.824391000000
30
0.0
40
25.000000000000
0
CIRCLE
5
427
100
AcDbEntity
8
5-0
6
CONTINUOUS
62
5
100
AcDbCircle
10
1434.432051000000
20
2300.824391000000
30
0.0
40
35.000000000000
0
TEXT
5
428
100
AcDbEntity
8
F-0
62
4
100
AcDbText
10
518.637
20
1846.984
30
0.0
40
38.400
1
平面図
41
1.000
50
0.000
100
AcDbText
0
TEXT
5
429
100
AcDbEntity
8
F-0
62
4
100
AcDbText
10
1379.432
20
1846.984
30
0.0
40
38.400
1
カウンター開口寸法
41
1.000
50
0.000
100
AcDbText
0
LINE
5
42a
100
AcDbEntity
8
F-0
6
CONTINUOUS
62
4
100
AcDbLine
10
468.637053000000
20
1840.824391000000
30
0.0
11
668.637053000000
21
1840.824391000000
31
0.0
0
LINE
5
42b
100
AcDbEntity
8
F-0
6
CONTINUOUS
62
4
100
AcDbLine
10
668.637053000000
20
1840.824391000000
30
0.0
11
668.637053000000
21
1890.824391000000
31
0.0
0
LINE
5
42c
100
AcDbEntity
8
F-0
6
CONTINUOUS
62
4
100
AcDbLine
10
668.637053000000
20
1890.824391000000
30
0.0
11
468.637053000000
21
1890.824391000000
31
0.0
0
LINE
5
42d
100
AcDbEntity
8
F-0
6
CONTINUOUS
62
4
100
AcDbLine
10
468.637053000000
20
1890.824391000000
30
0.0
11
468.637053000000
21
1840.824391000000
31
0.0
0
LINE
5
42e
100
AcDbEntity
8
F-0
6
CONTINUOUS
62
4
100
AcDbLine
10
1334.432051000000
20
1840.824391000000
30
0.0
11
1734.432051000000
21
1840.824391000000
31
0.0
0
LINE
5
42f
100
AcDbEntity
8
F-0
6
CONTINUOUS
62
4
100
AcDbLine
10
1734.432051000000
20
1840.824391000000
30
0.0
11
1734.432051000000
21
1890.824391000000
31
0.0
0
LINE
5
430
100
AcDbEntity
8
F-0
6
CONTINUOUS
62
4
100
AcDbLine
10
1734.432051000000
20
1890.824391000000
30
0.0
11
1334.432051000000
21
1890.824391000000
31
0.0
0
LINE
5
431
100
AcDbEntity
8
F-0
6
CONTINUOUS
62
4
100
AcDbLine
10
1334.432051000000
20
1890.824391000000
30
0.0
11
1334.432051000000
21
1840.824391000000
31
0.0
0
LINE
5
432
100
AcDbEntity
8
E-0
6
CENTER2
62
16
100
AcDbLine
10
1434.432051000000
20
2535.824391000000
30
0.0
11
1434.432051000000
21
2065.824391000000
31
0.0
0
LINE
5
433
100
AcDbEntity
8
5-0
6
CONTINUOUS
62
5
100
AcDbLine
10
1271.817531000000
20
1349.175609000000
30
0.0
11
1641.817531000000
21
1349.175609000000
31
0.0
0
LINE
5
434
100
AcDbEntity
8
5-0
6
CONTINUOUS
62
5
100
AcDbLine
10
1641.817531000000
20
1349.175609000000
30
0.0
11
1641.817531000000
21
1304.175609000000
31
0.0
0
LINE
5
435
100
AcDbEntity
8
E-0
6
CENTER2
62
16
100
AcDbLine
10
1456.817531000000
20
1729.175609000000
30
0.0
11
1456.817531000000
21
949.175609000000
31
0.0
0
LINE
5
436
100
AcDbEntity
8
5-0
6
CONTINUOUS
62
5
100
AcDbLine
10
1271.817531000000
20
1304.175609000000
30
0.0
11
1641.817531000000
21
1304.175609000000
31
0.0
0
LINE
5
437
100
AcDbEntity
8
5-0
6
CONTINUOUS
62
5
100
AcDbLine
10
1271.817531000000
20
1349.175609000000
30
0.0
11
1271.817531000000
21
1304.175609000000
31
0.0
0
LINE
5
438
100
AcDbEntity
8
5-0
6
CONTINUOUS
62
5
100
AcDbLine
10
1286.817531000000
20
1259.175609000000
30
0.0
11
1626.817531000000
21
1259.175609000000
31
0.0
0
LINE
5
439
100
AcDbEntity
8
5-0
6
CONTINUOUS
62
5
100
AcDbLine
10
1421.817531000000
20
1249.175609000000
30
0.0
11
1491.817531000000
21
1249.175609000000
31
0.0
0
LINE
5
43a
100
AcDbEntity
8
5-0
6
CONTINUOUS
62
5
100
AcDbLine
10
1286.817531000000
20
1304.175609000000
30
0.0
11
1286.817531000000
21
1259.175609000000
31
0.0
0
LINE
5
43b
100
AcDbEntity
8
5-0
6
CONTINUOUS
62
5
100
AcDbLine
10
1626.817531000000
20
1304.175609000000
30
0.0
11
1626.817531000000
21
1259.175609000000
31
0.0
0
LINE
5
43c
100
AcDbEntity
8
5-0
6
CONTINUOUS
62
5
100
AcDbLine
10
1421.817531000000
20
1259.175609000000
30
0.0
11
1421.817531000000
21
1249.175609000000
31
0.0
0
LINE
5
43d
100
AcDbEntity
8
5-0
6
CONTINUOUS
62
5
100
AcDbLine
10
1491.817531000000
20
1259.175609000000
30
0.0
11
1491.817531000000
21
1249.175609000000
31
0.0
0
TEXT
5
43e
100
AcDbEntity
8
F-0
62
4
100
AcDbText
10
520.180
20
798.786
30
0.0
40
38.400
1
立面図
41
1.000
50
0.000
100
AcDbText
0
LINE
5
43f
100
AcDbEntity
8
F-0
6
CONTINUOUS
62
4
100
AcDbLine
10
470.180342000000
20
792.625691000000
30
0.0
11
670.180342000000
21
792.625691000000
31
0.0
0
LINE
5
440
100
AcDbEntity
8
F-0
6
CONTINUOUS
62
4
100
AcDbLine
10
670.180342000000
20
792.625691000000
30
0.0
11
670.180342000000
21
842.625691000000
31
0.0
0
LINE
5
441
100
AcDbEntity
8
F-0
6
CONTINUOUS
62
4
100
AcDbLine
10
670.180342000000
20
842.625691000000
30
0.0
11
470.180342000000
21
842.625691000000
31
0.0
0
LINE
5
442
100
AcDbEntity
8
F-0
6
CONTINUOUS
62
4
100
AcDbLine
10
470.180342000000
20
842.625691000000
30
0.0
11
470.180342000000
21
792.625691000000
31
0.0
0
LINE
5
443
100
AcDbEntity
8
F-0
6
CONTINUOUS
62
4
100
AcDbLine
10
1358.360820000000
20
788.795093000000
30
0.0
11
1558.360820000000
21
788.795093000000
31
0.0
0
LINE
5
444
100
AcDbEntity
8
F-0
6
CONTINUOUS
62
4
100
AcDbLine
10
1558.360820000000
20
788.795093000000
30
0.0
11
1558.360820000000
21
838.795093000000
31
0.0
0
LINE
5
445
100
AcDbEntity
8
F-0
6
CONTINUOUS
62
4
100
AcDbLine
10
1558.360820000000
20
838.795093000000
30
0.0
11
1358.360820000000
21
838.795093000000
31
0.0
0
LINE
5
446
100
AcDbEntity
8
F-0
6
CONTINUOUS
62
4
100
AcDbLine
10
1358.360820000000
20
838.795093000000
30
0.0
11
1358.360820000000
21
788.795093000000
31
0.0
0
TEXT
5
447
100
AcDbEntity
8
F-0
62
4
100
AcDbText
10
1408.361
20
794.955
30
0.0
40
38.400
1
側面図
41
1.000
50
0.000
100
AcDbText
0
LINE
5
448
100
AcDbEntity
8
5-0
6
CONTINUOUS
62
5
100
AcDbLine
10
328.637053000000
20
2485.824391000000
30
0.0
11
1008.637053000000
21
2485.824391000000
31
0.0
0
LINE
5
449
100
AcDbEntity
8
5-0
6
CONTINUOUS
62
5
100
AcDbLine
10
358.637053000000
20
2460.824391000000
30
0.0
11
978.637053000000
21
2460.824391000000
31
0.0
0
LINE
5
44a
100
AcDbEntity
8
E-0
6
CENTER2
62
16
100
AcDbLine
10
1209.432051000000
20
2300.824391000000
30
0.0
11
1859.432051000000
21
2300.824391000000
31
0.0
0
LINE
5
44b
100
AcDbEntity
8
E-0
6
CENTER2
62
16
100
AcDbLine
10
278.637053000000
20
2300.824391000000
30
0.0
11
1058.637053000000
21
2300.824391000000
31
0.0
0
LINE
5
44c
100
AcDbEntity
8
5-0
6
CONTINUOUS
62
5
100
AcDbLine
10
1488.317531000000
20
1249.175609000000
30
0.0
11
1425.317531000000
21
1249.175609000000
31
0.0
0
LINE
5
44d
100
AcDbEntity
8
5-0
6
CONTINUOUS
62
5
100
AcDbLine
10
600.137053000000
20
1249.175609000000
30
0.0
11
537.137053000000
21
1249.175609000000
31
0.0
0
LINE
5
44e
100
AcDbEntity
8
D-0
6
CONTINUOUS
62
0
100
AcDbLine
10
1286.817531000000
20
1239.175609000000
30
0.0
11
1286.817531000000
21
1193.712597000000
31
0.0
0
LINE
5
44f
100
AcDbEntity
8
D-0
6
CONTINUOUS
62
0
100
AcDbLine
10
1271.817531000000
20
1284.175609000000
30
0.0
11
1271.817531000000
21
1193.712597000000
31
0.0
0
TEXT
5
450
100
AcDbEntity
8
D-0
62
0
100
AcDbText
10
1177.365
20
1197.013
30
0.0
40
32.000
1
15
41
1.000
50
0.000
100
AcDbText
0
LINE
5
451
100
AcDbEntity
8
D-0
6
CONTINUOUS
62
0
100
AcDbLine
10
1271.817530627136
20
1193.712596761986
30
0.0
11
1286.817530627136
21
1193.712596761986
31
0.0
0
POINT
5
452
100
AcDbEntity
8
D-0
62
0
100
AcDbPoint
10
1271.817530627136
20
1193.712596761986
30
0.0
0
POINT
5
453
100
AcDbEntity
8
D-0
62
0
100
AcDbPoint
10
1286.817530627136
20
1193.712596761986
30
0.0
0
LINE
5
454
100
AcDbEntity
8
D-0
6
CONTINUOUS
62
0
100
AcDbLine
10
1641.817531000000
20
1284.175609000000
30
0.0
11
1641.817531000000
21
1195.033385000000
31
0.0
0
LINE
5
455
100
AcDbEntity
8
D-0
6
CONTINUOUS
62
0
100
AcDbLine
10
1626.817531000000
20
1239.175609000000
30
0.0
11
1626.817531000000
21
1195.033385000000
31
0.0
0
TEXT
5
456
100
AcDbEntity
8
D-0
62
0
100
AcDbText
10
1532.365
20
1198.333
30
0.0
40
32.000
1
15
41
1.000
50
0.000
100
AcDbText
0
LINE
5
457
100
AcDbEntity
8
D-0
6
CONTINUOUS
62
0
100
AcDbLine
10
1626.817530627136
20
1195.033384622466
30
0.0
11
1641.817530627136
21
1195.033384622466
31
0.0
0
POINT
5
458
100
AcDbEntity
8
D-0
62
0
100
AcDbPoint
10
1626.817530627136
20
1195.033384622466
30
0.0
0
POINT
5
459
100
AcDbEntity
8
D-0
62
0
100
AcDbPoint
10
1641.817530627136
20
1195.033384622466
30
0.0
0
LINE
5
45a
100
AcDbEntity
8
D-0
6
CONTINUOUS
62
0
100
AcDbLine
10
348.637053000000
20
1258.969441000000
30
0.0
11
348.637053000000
21
1172.381664000000
31
0.0
0
LINE
5
45b
100
AcDbEntity
8
D-0
6
CONTINUOUS
62
0
100
AcDbLine
10
328.637053000000
20
1284.175609000000
30
0.0
11
328.637053000000
21
1172.381664000000
31
0.0
0
TEXT
5
45c
100
AcDbEntity
8
D-0
62
0
100
AcDbText
10
232.399
20
1175.682
30
0.0
40
32.000
1
20
41
1.000
50
0.000
100
AcDbText
0
LINE
5
45d
100
AcDbEntity
8
D-0
6
CONTINUOUS
62
0
100
AcDbLine
10
328.637052525015
20
1172.381664394783
30
0.0
11
348.637052524634
21
1172.381664394783
31
0.0
0
POINT
5
45e
100
AcDbEntity
8
D-0
62
0
100
AcDbPoint
10
328.637052525015
20
1172.381664394783
30
0.0
0
POINT
5
45f
100
AcDbEntity
8
D-0
62
0
100
AcDbPoint
10
348.637052524634
20
1172.381664394783
30
0.0
0
LINE
5
460
100
AcDbEntity
8
D-0
6
CONTINUOUS
62
0
100
AcDbLine
10
308.637053000000
20
1349.175609000000
30
0.0
11
261.321217000000
21
1349.175609000000
31
0.0
0
LINE
5
461
100
AcDbEntity
8
D-0
6
CONTINUOUS
62
0
100
AcDbLine
10
308.637053000000
20
1304.175609000000
30
0.0
11
261.321217000000
21
1304.175609000000
31
0.0
0
LINE
5
462
100
AcDbEntity
8
D-0
6
CONTINUOUS
62
0
100
AcDbLine
10
261.321217000000
20
1374.175609000000
30
0.0
11
261.321217000000
21
1399.175609000000
31
0.0
0
LINE
5
463
100
AcDbEntity
8
D-0
6
CONTINUOUS
62
0
100
AcDbLine
10
261.321217000000
20
1279.175609000000
30
0.0
11
261.321217000000
21
1254.175609000000
31
0.0
0
LINE
5
464
100
AcDbEntity
8
D-0
6
CONTINUOUS
62
0
100
AcDbLine
10
261.321217000000
20
1349.175609000000
30
0.0
11
261.321217000000
21
1304.175609000000
31
0.0
0
LINE
5
465
100
AcDbEntity
8
D-0
6
BYLAYER
62
0
100
AcDbLine
10
268.019942284633
20
1374.175608895160
30
0.0
11
261.321217285016
21
1349.175608895057
31
0.0
0
LINE
5
466
100
AcDbEntity
8
D-0
6
BYLAYER
62
0
100
AcDbLine
10
261.321217285016
20
1349.175608895057
30
0.0
11
254.622492284633
21
1374.175608894954
31
0.0
0
LINE
5
467
100
AcDbEntity
8
D-0
6
BYLAYER
62
0
100
AcDbLine
10
261.321217285016
20
1349.175608895057
30
0.0
11
261.321217284633
21
1374.175608895057
31
0.0
0
LINE
5
468
100
AcDbEntity
8
D-0
6
BYLAYER
62
0
100
AcDbLine
10
254.622492285143
20
1279.175608895023
30
0.0
11
261.321217285016
21
1304.175608895057
31
0.0
0
LINE
5
469
100
AcDbEntity
8
D-0
6
BYLAYER
62
0
100
AcDbLine
10
261.321217285016
20
1304.175608895057
30
0.0
11
268.019942285143
21
1279.175608895091
31
0.0
0
LINE
5
46a
100
AcDbEntity
8
D-0
6
BYLAYER
62
0
100
AcDbLine
10
261.321217285016
20
1304.175608895057
30
0.0
11
261.321217285143
21
1279.175608895057
31
0.0
0
TEXT
5
46b
100
AcDbEntity
8
D-0
62
0
100
AcDbText
10
258.021
20
1310.676
30
0.0
40
32.000
1
45
41
1.000
50
90.000
100
AcDbText
0
LINE
5
46c
100
AcDbEntity
8
D-0
6
CONTINUOUS
62
0
100
AcDbLine
10
281.321217000000
20
1304.175609000000
30
0.0
11
261.321217000000
21
1304.175609000000
31
0.0
0
LINE
5
46d
100
AcDbEntity
8
D-0
6
CONTINUOUS
62
0
100
AcDbLine
10
287.064382000000
20
1259.672667000000
30
0.0
11
261.321217000000
21
1259.672667000000
31
0.0
0
LINE
5
46e
100
AcDbEntity
8
D-0
6
CONTINUOUS
62
0
100
AcDbLine
10
261.321217000000
20
1329.175609000000
30
0.0
11
261.321217000000
21
1354.175609000000
31
0.0
0
LINE
5
46f
100
AcDbEntity
8
D-0
6
CONTINUOUS
62
0
100
AcDbLine
10
261.321217000000
20
1234.672667000000
30
0.0
11
261.321217000000
21
1209.672667000000
31
0.0
0
LINE
5
470
100
AcDbEntity
8
D-0
6
CONTINUOUS
62
0
100
AcDbLine
10
261.321217000000
20
1304.175609000000
30
0.0
11
261.321217000000
21
1259.672667000000
31
0.0
0
LINE
5
471
100
AcDbEntity
8
D-0
6
BYLAYER
62
0
100
AcDbLine
10
268.019942284633
20
1329.175608895160
30
0.0
11
261.321217285016
21
1304.175608895057
31
0.0
0
LINE
5
472
100
AcDbEntity
8
D-0
6
BYLAYER
62
0
100
AcDbLine
10
261.321217285016
20
1304.175608895057
30
0.0
11
254.622492284633
21
1329.175608894954
31
0.0
0
LINE
5
473
100
AcDbEntity
8
D-0
6
BYLAYER
62
0
100
AcDbLine
10
261.321217285016
20
1304.175608895057
30
0.0
11
261.321217284633
21
1329.175608895057
31
0.0
0
LINE
5
474
100
AcDbEntity
8
D-0
6
BYLAYER
62
0
100
AcDbLine
10
254.622492285144
20
1234.672666528407
30
0.0
11
261.321217285016
21
1259.672666528441
31
0.0
0
LINE
5
475
100
AcDbEntity
8
D-0
6
BYLAYER
62
0
100
AcDbLine
10
261.321217285016
20
1259.672666528441
30
0.0
11
268.019942285144
21
1234.672666528475
31
0.0
0
LINE
5
476
100
AcDbEntity
8
D-0
6
BYLAYER
62
0
100
AcDbLine
10
261.321217285016
20
1259.672666528441
30
0.0
11
261.321217285144
21
1234.672666528441
31
0.0
0
TEXT
5
477
100
AcDbEntity
8
D-0
62
0
100
AcDbText
10
258.021
20
1265.924
30
0.0
40
32.000
1
45
41
1.000
50
90.000
100
AcDbText
0
LINE
5
478
100
AcDbEntity
8
D-0
6
CONTINUOUS
62
0
100
AcDbLine
10
288.637053000000
20
1349.175609000000
30
0.0
11
209.559196000000
21
1349.175609000000
31
0.0
0
LINE
5
479
100
AcDbEntity
8
D-0
6
CONTINUOUS
62
0
100
AcDbLine
10
293.661644000000
20
1259.672667000000
30
0.0
11
209.559196000000
21
1259.672667000000
31
0.0
0
TEXT
5
47a
100
AcDbEntity
8
D-0
62
0
100
AcDbText
10
206.259
20
1288.424
30
0.0
40
32.000
1
90
41
1.000
50
90.000
100
AcDbText
0
LINE
5
47b
100
AcDbEntity
8
D-0
6
CONTINUOUS
62
0
100
AcDbLine
10
209.559195868006
20
1259.672666528441
30
0.0
11
209.559195868006
21
1349.175608895057
31
0.0
0
POINT
5
47c
100
AcDbEntity
8
D-0
62
0
100
AcDbPoint
10
209.559195868006
20
1259.672666528441
30
0.0
0
POINT
5
47d
100
AcDbEntity
8
D-0
62
0
100
AcDbPoint
10
209.559195868006
20
1349.175608895057
30
0.0
0
LINE
5
47e
100
AcDbEntity
8
D-0
6
CONTINUOUS
62
0
100
AcDbLine
10
328.637053000000
20
2095.824391000000
30
0.0
11
328.637053000000
21
2036.697178000000
31
0.0
0
LINE
5
47f
100
AcDbEntity
8
D-0
6
CONTINUOUS
62
0
100
AcDbLine
10
358.637053000000
20
2120.824391000000
30
0.0
11
358.637053000000
21
2036.697178000000
31
0.0
0
LINE
5
480
100
AcDbEntity
8
D-0
6
CONTINUOUS
62
0
100
AcDbLine
10
303.637053000000
20
2036.697178000000
30
0.0
11
278.637053000000
21
2036.697178000000
31
0.0
0
LINE
5
481
100
AcDbEntity
8
D-0
6
CONTINUOUS
62
0
100
AcDbLine
10
383.637053000000
20
2036.697178000000
30
0.0
11
408.637053000000
21
2036.697178000000
31
0.0
0
LINE
5
482
100
AcDbEntity
8
D-0
6
CONTINUOUS
62
0
100
AcDbLine
10
328.637053000000
20
2036.697178000000
30
0.0
11
358.637053000000
21
2036.697178000000
31
0.0
0
LINE
5
483
100
AcDbEntity
8
D-0
6
BYLAYER
62
0
100
AcDbLine
10
303.637052525015
20
2043.395902862163
30
0.0
11
328.637052525015
21
2036.697177862163
31
0.0
0
LINE
5
484
100
AcDbEntity
8
D-0
6
BYLAYER
62
0
100
AcDbLine
10
328.637052525015
20
2036.697177862163
30
0.0
11
303.637052525015
21
2029.998452862163
31
0.0
0
LINE
5
485
100
AcDbEntity
8
D-0
6
BYLAYER
62
0
100
AcDbLine
10
328.637052525015
20
2036.697177862163
30
0.0
11
303.637052525015
21
2036.697177862163
31
0.0
0
LINE
5
486
100
AcDbEntity
8
D-0
6
BYLAYER
62
0
100
AcDbLine
10
383.637052525083
20
2029.998452862418
30
0.0
11
358.637052525015
21
2036.697177862163
31
0.0
0
LINE
5
487
100
AcDbEntity
8
D-0
6
BYLAYER
62
0
100
AcDbLine
10
358.637052525015
20
2036.697177862163
30
0.0
11
383.637052524947
21
2043.395902862418
31
0.0
0
LINE
5
488
100
AcDbEntity
8
D-0
6
BYLAYER
62
0
100
AcDbLine
10
358.637052525015
20
2036.697177862163
30
0.0
11
383.637052525015
21
2036.697177862418
31
0.0
0
TEXT
5
489
100
AcDbEntity
8
D-0
62
0
100
AcDbText
10
327.637
20
2039.997
30
0.0
40
32.000
1
30
41
1.000
50
0.000
100
AcDbText
0
LINE
5
48a
100
AcDbEntity
8
D-0
6
CONTINUOUS
62
0
100
AcDbLine
10
358.637053000000
20
2066.170784000000
30
0.0
11
358.637053000000
21
2036.697178000000
31
0.0
0
LINE
5
48b
100
AcDbEntity
8
D-0
6
CONTINUOUS
62
0
100
AcDbLine
10
978.637053000000
20
2120.824391000000
30
0.0
11
978.637053000000
21
2036.697178000000
31
0.0
0
TEXT
5
48c
100
AcDbEntity
8
D-0
62
0
100
AcDbText
10
644.637
20
2039.997
30
0.0
40
32.000
1
620
41
1.000
50
0.000
100
AcDbText
0
LINE
5
48d
100
AcDbEntity
8
D-0
6
CONTINUOUS
62
0
100
AcDbLine
10
978.637052525015
20
2036.697177862163
30
0.0
11
358.637052525015
21
2036.697177862163
31
0.0
0
POINT
5
48e
100
AcDbEntity
8
D-0
62
0
100
AcDbPoint
10
978.637052525015
20
2036.697177862163
30
0.0
0
POINT
5
48f
100
AcDbEntity
8
D-0
62
0
100
AcDbPoint
10
358.637052525015
20
2036.697177862163
30
0.0
0
LINE
5
490
100
AcDbEntity
8
D-0
6
CONTINUOUS
62
0
100
AcDbLine
10
978.637053000000
20
2120.824391000000
30
0.0
11
978.637053000000
21
2036.517178000000
31
0.0
0
LINE
5
491
100
AcDbEntity
8
D-0
6
CONTINUOUS
62
0
100
AcDbLine
10
1008.637053000000
20
2095.824391000000
30
0.0
11
1008.637053000000
21
2036.517178000000
31
0.0
0
LINE
5
492
100
AcDbEntity
8
D-0
6
CONTINUOUS
62
0
100
AcDbLine
10
953.637053000000
20
2036.517178000000
30
0.0
11
928.637053000000
21
2036.517178000000
31
0.0
0
LINE
5
493
100
AcDbEntity
8
D-0
6
CONTINUOUS
62
0
100
AcDbLine
10
1033.637053000000
20
2036.517178000000
30
0.0
11
1058.637053000000
21
2036.517178000000
31
0.0
0
LINE
5
494
100
AcDbEntity
8
D-0
6
CONTINUOUS
62
0
100
AcDbLine
10
978.637053000000
20
2036.517178000000
30
0.0
11
1008.637053000000
21
2036.517178000000
31
0.0
0
LINE
5
495
100
AcDbEntity
8
D-0
6
BYLAYER
62
0
100
AcDbLine
10
953.637052525015
20
2043.215902862163
30
0.0
11
978.637052525015
21
2036.517177862163
31
0.0
0
LINE
5
496
100
AcDbEntity
8
D-0
6
BYLAYER
62
0
100
AcDbLine
10
978.637052525015
20
2036.517177862163
30
0.0
11
953.637052525015
21
2029.818452862163
31
0.0
0
LINE
5
497
100
AcDbEntity
8
D-0
6
BYLAYER
62
0
100
AcDbLine
10
978.637052525015
20
2036.517177862163
30
0.0
11
953.637052525015
21
2036.517177862163
31
0.0
0
LINE
5
498
100
AcDbEntity
8
D-0
6
BYLAYER
62
0
100
AcDbLine
10
1033.637052525083
20
2029.818452862418
30
0.0
11
1008.637052525015
21
2036.517177862163
31
0.0
0
LINE
5
499
100
AcDbEntity
8
D-0
6
BYLAYER
62
0
100
AcDbLine
10
1008.637052525015
20
2036.517177862163
30
0.0
11
1033.637052524947
21
2043.215902862418
31
0.0
0
LINE
5
49a
100
AcDbEntity
8
D-0
6
BYLAYER
62
0
100
AcDbLine
10
1008.637052525015
20
2036.517177862163
30
0.0
11
1033.637052525015
21
2036.517177862418
31
0.0
0
TEXT
5
49b
100
AcDbEntity
8
D-0
62
0
100
AcDbText
10
977.637
20
2039.817
30
0.0
40
32.000
1
30
41
1.000
50
0.000
100
AcDbText
0
LINE
5
49c
100
AcDbEntity
8
D-0
6
CONTINUOUS
62
0
100
AcDbLine
10
328.637053000000
20
2053.670784000000
30
0.0
11
328.637053000000
21
1993.500508000000
31
0.0
0
LINE
5
49d
100
AcDbEntity
8
D-0
6
CONTINUOUS
62
0
100
AcDbLine
10
1008.637053000000
20
2053.580784000000
30
0.0
11
1008.637053000000
21
1993.500508000000
31
0.0
0
TEXT
5
49e
100
AcDbEntity
8
D-0
62
0
100
AcDbText
10
644.637
20
1996.801
30
0.0
40
32.000
1
680
41
1.000
50
0.000
100
AcDbText
0
LINE
5
49f
100
AcDbEntity
8
D-0
6
CONTINUOUS
62
0
100
AcDbLine
10
1008.637052525015
20
1993.500508384077
30
0.0
11
328.637052525015
21
1993.500508384077
31
0.0
0
POINT
5
4a0
100
AcDbEntity
8
D-0
62
0
100
AcDbPoint
10
1008.637052525015
20
1993.500508384077
30
0.0
0
POINT
5
4a1
100
AcDbEntity
8
D-0
62
0
100
AcDbPoint
10
328.637052525015
20
1993.500508384077
30
0.0
0
LINE
5
4a2
100
AcDbEntity
8
D-0
6
CONTINUOUS
62
0
100
AcDbLine
10
308.637053000000
20
2460.824391000000
30
0.0
11
265.987280000000
21
2460.824391000000
31
0.0
0
LINE
5
4a3
100
AcDbEntity
8
D-0
6
CONTINUOUS
62
0
100
AcDbLine
10
308.637053000000
20
2485.824391000000
30
0.0
11
265.987280000000
21
2485.824391000000
31
0.0
0
LINE
5
4a4
100
AcDbEntity
8
D-0
6
CONTINUOUS
62
0
100
AcDbLine
10
265.987280000000
20
2435.824391000000
30
0.0
11
265.987280000000
21
2410.824391000000
31
0.0
0
LINE
5
4a5
100
AcDbEntity
8
D-0
6
CONTINUOUS
62
0
100
AcDbLine
10
265.987280000000
20
2510.824391000000
30
0.0
11
265.987280000000
21
2535.824391000000
31
0.0
0
LINE
5
4a6
100
AcDbEntity
8
D-0
6
CONTINUOUS
62
0
100
AcDbLine
10
265.987280000000
20
2460.824391000000
30
0.0
11
265.987280000000
21
2485.824391000000
31
0.0
0
LINE
5
4a7
100
AcDbEntity
8
D-0
6
BYLAYER
62
0
100
AcDbLine
10
259.288555248804
20
2435.824391086908
30
0.0
11
265.987280248676
21
2460.824391086942
31
0.0
0
LINE
5
4a8
100
AcDbEntity
8
D-0
6
BYLAYER
62
0
100
AcDbLine
10
265.987280248676
20
2460.824391086942
30
0.0
11
272.686005248804
21
2435.824391086976
31
0.0
0
LINE
5
4a9
100
AcDbEntity
8
D-0
6
BYLAYER
62
0
100
AcDbLine
10
265.987280248676
20
2460.824391086942
30
0.0
11
265.987280248804
21
2435.824391086942
31
0.0
0
LINE
5
4aa
100
AcDbEntity
8
D-0
6
BYLAYER
62
0
100
AcDbLine
10
272.686005248294
20
2510.824391087045
30
0.0
11
265.987280248676
21
2485.824391086942
31
0.0
0
LINE
5
4ab
100
AcDbEntity
8
D-0
6
BYLAYER
62
0
100
AcDbLine
10
265.987280248676
20
2485.824391086942
30
0.0
11
259.288555248294
21
2510.824391086839
31
0.0
0
LINE
5
4ac
100
AcDbEntity
8
D-0
6
BYLAYER
62
0
100
AcDbLine
10
265.987280248676
20
2485.824391086942
30
0.0
11
265.987280248294
21
2510.824391086942
31
0.0
0
TEXT
5
4ad
100
AcDbEntity
8
D-0
62
0
100
AcDbText
10
262.687
20
2457.324
30
0.0
40
32.000
1
25
41
1.000
50
90.000
100
AcDbText
0
LINE
5
4ae
100
AcDbEntity
8
D-0
6
CONTINUOUS
62
0
100
AcDbLine
10
610.381541000000
20
2328.345250000000
30
0.0
11
631.253785000000
21
2342.105680000000
31
0.0
0
LINE
5
4af
100
AcDbEntity
8
D-0
6
CONTINUOUS
62
0
100
AcDbLine
10
526.892564000000
20
2273.303532000000
30
0.0
11
436.644955000000
21
2213.806056000000
31
0.0
0
LINE
5
4b0
100
AcDbEntity
8
D-0
6
CONTINUOUS
62
0
100
AcDbLine
10
589.509297000000
20
2314.584821000000
30
0.0
11
547.764808000000
21
2287.063962000000
31
0.0
0
LINE
5
4b1
100
AcDbEntity
8
D-0
6
BYLAYER
62
0
100
AcDbLine
10
614.068634374833
20
2322.752553053984
30
0.0
11
589.509296791561
21
2314.584820559802
31
0.0
0
LINE
5
4b2
100
AcDbEntity
8
D-0
6
BYLAYER
62
0
100
AcDbLine
10
589.509296791561
20
2314.584820559802
30
0.0
11
606.694447741050
21
2333.937947011849
31
0.0
0
LINE
5
4b3
100
AcDbEntity
8
D-0
6
BYLAYER
62
0
100
AcDbLine
10
589.509296791561
20
2314.584820559802
30
0.0
11
610.381541057941
21
2328.345250032916
31
0.0
0
LINE
5
4b4
100
AcDbEntity
8
D-0
6
BYLAYER
62
0
100
AcDbLine
10
523.205470675112
20
2278.896229120147
30
0.0
11
547.764808258467
21
2287.063961614079
31
0.0
0
LINE
5
4b5
100
AcDbEntity
8
D-0
6
BYLAYER
62
0
100
AcDbLine
10
547.764808258467
20
2287.063961614079
30
0.0
11
530.579657308781
21
2267.710835162208
31
0.0
0
LINE
5
4b6
100
AcDbEntity
8
D-0
6
BYLAYER
62
0
100
AcDbLine
10
547.764808258467
20
2287.063961614079
30
0.0
11
526.892563991946
21
2273.303532141178
31
0.0
0
TEXT
5
4b7
100
AcDbEntity
8
D-0
62
0
100
AcDbText
10
442.800
20
2221.816
30
0.0
40
32.000
1
φ50
41
1.000
50
33.396
100
AcDbText
0
LINE
5
4b8
100
AcDbEntity
8
D-0
6
CONTINUOUS
62
0
100
AcDbLine
10
328.637053000000
20
2505.824391000000
30
0.0
11
328.637053000000
21
2604.672535000000
31
0.0
0
LINE
5
4b9
100
AcDbEntity
8
D-0
6
CONTINUOUS
62
0
100
AcDbLine
10
568.637053000000
20
2555.824391000000
30
0.0
11
568.637053000000
21
2604.672535000000
31
0.0
0
TEXT
5
4ba
100
AcDbEntity
8
D-0
62
0
100
AcDbText
10
424.637
20
2607.973
30
0.0
40
32.000
1
240
41
1.000
50
0.000
100
AcDbText
0
LINE
5
4bb
100
AcDbEntity
8
D-0
6
CONTINUOUS
62
0
100
AcDbLine
10
568.637052525016
20
2604.672535316701
30
0.0
11
328.637052525015
21
2604.672535316701
31
0.0
0
POINT
5
4bc
100
AcDbEntity
8
D-0
62
0
100
AcDbPoint
10
568.637052525016
20
2604.672535316701
30
0.0
0
POINT
5
4bd
100
AcDbEntity
8
D-0
62
0
100
AcDbPoint
10
328.637052525015
20
2604.672535316701
30
0.0
0
LINE
5
4be
100
AcDbEntity
8
D-0
6
CONTINUOUS
62
0
100
AcDbLine
10
898.637053000000
20
1284.175609000000
30
0.0
11
898.637053000000
21
1182.736531000000
31
0.0
0
LINE
5
4bf
100
AcDbEntity
8
D-0
6
CONTINUOUS
62
0
100
AcDbLine
10
1008.637053000000
20
1284.175609000000
30
0.0
11
1008.637053000000
21
1182.736531000000
31
0.0
0
TEXT
5
4c0
100
AcDbEntity
8
D-0
62
0
100
AcDbText
10
929.637
20
1186.037
30
0.0
40
32.000
1
110
41
1.000
50
0.000
100
AcDbText
0
LINE
5
4c1
100
AcDbEntity
8
D-0
6
CONTINUOUS
62
0
100
AcDbLine
10
1008.637052525015
20
1182.736531218199
30
0.0
11
898.637052525016
21
1182.736531218199
31
0.0
0
POINT
5
4c2
100
AcDbEntity
8
D-0
62
0
100
AcDbPoint
10
1008.637052525015
20
1182.736531218199
30
0.0
0
POINT
5
4c3
100
AcDbEntity
8
D-0
62
0
100
AcDbPoint
10
898.637052525016
20
1182.736531218199
30
0.0
0
LINE
5
4c4
100
AcDbEntity
8
D-0
6
CONTINUOUS
62
0
100
AcDbLine
10
1078.637053000000
20
2485.824391000000
30
0.0
11
1103.456823000000
21
2485.824391000000
31
0.0
0
LINE
5
4c5
100
AcDbEntity
8
D-0
6
CONTINUOUS
62
0
100
AcDbLine
10
1078.637053000000
20
2300.824391000000
30
0.0
11
1103.456823000000
21
2300.824391000000
31
0.0
0
TEXT
5
4c6
100
AcDbEntity
8
D-0
62
0
100
AcDbText
10
1100.157
20
2369.324
30
0.0
40
32.000
1
185
41
1.000
50
90.000
100
AcDbText
0
LINE
5
4c7
100
AcDbEntity
8
D-0
6
CONTINUOUS
62
0
100
AcDbLine
10
1103.456823220432
20
2300.824391086942
30
0.0
11
1103.456823220432
21
2485.824391086942
31
0.0
0
POINT
5
4c8
100
AcDbEntity
8
D-0
62
0
100
AcDbPoint
10
1103.456823220432
20
2300.824391086942
30
0.0
0
POINT
5
4c9
100
AcDbEntity
8
D-0
62
0
100
AcDbPoint
10
1103.456823220432
20
2485.824391086942
30
0.0
0
LINE
5
4ca
100
AcDbEntity
8
D-0
6
CONTINUOUS
62
0
100
AcDbLine
10
1083.637053000000
20
2300.824391000000
30
0.0
11
1103.456823000000
21
2300.824391000000
31
0.0
0
LINE
5
4cb
100
AcDbEntity
8
D-0
6
CONTINUOUS
62
0
100
AcDbLine
10
1078.637053000000
20
2115.824391000000
30
0.0
11
1103.456823000000
21
2115.824391000000
31
0.0
0
TEXT
5
4cc
100
AcDbEntity
8
D-0
62
0
100
AcDbText
10
1100.157
20
2184.324
30
0.0
40
32.000
1
185
41
1.000
50
90.000
100
AcDbText
0
LINE
5
4cd
100
AcDbEntity
8
D-0
6
CONTINUOUS
62
0
100
AcDbLine
10
1103.456823220432
20
2115.824391086942
30
0.0
11
1103.456823220432
21
2300.824391086942
31
0.0
0
POINT
5
4ce
100
AcDbEntity
8
D-0
62
0
100
AcDbPoint
10
1103.456823220432
20
2115.824391086942
30
0.0
0
POINT
5
4cf
100
AcDbEntity
8
D-0
62
0
100
AcDbPoint
10
1103.456823220432
20
2300.824391086942
30
0.0
0
LINE
5
4d0
100
AcDbEntity
8
D-0
6
CONTINUOUS
62
0
100
AcDbLine
10
1028.637053000000
20
2485.824391000000
30
0.0
11
1164.362955000000
21
2485.824391000000
31
0.0
0
LINE
5
4d1
100
AcDbEntity
8
D-0
6
CONTINUOUS
62
0
100
AcDbLine
10
1028.637053000000
20
2115.824391000000
30
0.0
11
1164.362955000000
21
2115.824391000000
31
0.0
0
TEXT
5
4d2
100
AcDbEntity
8
D-0
62
0
100
AcDbText
10
1161.063
20
2276.824
30
0.0
40
32.000
1
370
41
1.000
50
90.000
100
AcDbText
0
LINE
5
4d3
100
AcDbEntity
8
D-0
6
CONTINUOUS
62
0
100
AcDbLine
10
1164.362955228775
20
2115.824391086941
30
0.0
11
1164.362955228775
21
2485.824391086941
31
0.0
0
POINT
5
4d4
100
AcDbEntity
8
D-0
62
0
100
AcDbPoint
10
1164.362955228775
20
2115.824391086941
30
0.0
0
POINT
5
4d5
100
AcDbEntity
8
D-0
62
0
100
AcDbPoint
10
1164.362955228775
20
2485.824391086941
30
0.0
0
LINE
5
4d6
100
AcDbEntity
8
D-0
6
CONTINUOUS
62
0
100
AcDbLine
10
1844.432051000000
20
2450.824391000000
30
0.0
11
1903.384374000000
21
2450.824391000000
31
0.0
0
LINE
5
4d7
100
AcDbEntity
8
D-0
6
CONTINUOUS
62
0
100
AcDbLine
10
1879.432051000000
20
2300.824391000000
30
0.0
11
1903.384374000000
21
2300.824391000000
31
0.0
0
TEXT
5
4d8
100
AcDbEntity
8
D-0
62
0
100
AcDbText
10
1900.084
20
2351.824
30
0.0
40
32.000
1
150
41
1.000
50
90.000
100
AcDbText
0
LINE
5
4d9
100
AcDbEntity
8
D-0
6
CONTINUOUS
62
0
100
AcDbLine
10
1903.384374454756
20
2300.824391086943
30
0.0
11
1903.384374454756
21
2450.824391086941
31
0.0
0
POINT
5
4da
100
AcDbEntity
8
D-0
62
0
100
AcDbPoint
10
1903.384374454756
20
2300.824391086943
30
0.0
0
POINT
5
4db
100
AcDbEntity
8
D-0
62
0
100
AcDbPoint
10
1903.384374454756
20
2450.824391086941
30
0.0
0
LINE
5
4dc
100
AcDbEntity
8
D-0
6
CONTINUOUS
62
0
100
AcDbLine
10
1879.432051000000
20
2300.824391000000
30
0.0
11
1903.384374000000
21
2300.824391000000
31
0.0
0
LINE
5
4dd
100
AcDbEntity
8
D-0
6
CONTINUOUS
62
0
100
AcDbLine
10
1844.432051000000
20
2150.824391000000
30
0.0
11
1903.384374000000
21
2150.824391000000
31
0.0
0
TEXT
5
4de
100
AcDbEntity
8
D-0
62
0
100
AcDbText
10
1900.084
20
2201.824
30
0.0
40
32.000
1
150
41
1.000
50
90.000
100
AcDbText
0
LINE
5
4df
100
AcDbEntity
8
D-0
6
CONTINUOUS
62
0
100
AcDbLine
10
1903.384374454756
20
2150.824391086941
30
0.0
11
1903.384374454756
21
2300.824391086943
31
0.0
0
POINT
5
4e0
100
AcDbEntity
8
D-0
62
0
100
AcDbPoint
10
1903.384374454756
20
2150.824391086941
30
0.0
0
POINT
5
4e1
100
AcDbEntity
8
D-0
62
0
100
AcDbPoint
10
1903.384374454756
20
2300.824391086943
30
0.0
0
LINE
5
4e2
100
AcDbEntity
8
D-0
6
CONTINUOUS
62
0
100
AcDbLine
10
1882.326797000000
20
2450.824391000000
30
0.0
11
1959.802791000000
21
2450.824391000000
31
0.0
0
LINE
5
4e3
100
AcDbEntity
8
D-0
6
CONTINUOUS
62
0
100
AcDbLine
10
1882.326797000000
20
2150.824391000000
30
0.0
11
1959.802791000000
21
2150.824391000000
31
0.0
0
TEXT
5
4e4
100
AcDbEntity
8
D-0
62
0
100
AcDbText
10
1956.503
20
2276.824
30
0.0
40
32.000
1
300
41
1.000
50
90.000
100
AcDbText
0
LINE
5
4e5
100
AcDbEntity
8
D-0
6
CONTINUOUS
62
0
100
AcDbLine
10
1959.802790793936
20
2150.824391086941
30
0.0
11
1959.802790793936
21
2450.824391086941
31
0.0
0
POINT
5
4e6
100
AcDbEntity
8
D-0
62
0
100
AcDbPoint
10
1959.802790793936
20
2150.824391086941
30
0.0
0
POINT
5
4e7
100
AcDbEntity
8
D-0
62
0
100
AcDbPoint
10
1959.802790793936
20
2450.824391086941
30
0.0
0
LINE
5
4e8
100
AcDbEntity
8
D-0
6
CONTINUOUS
62
0
100
AcDbLine
10
1234.432051000000
20
2080.824391000000
30
0.0
11
1234.432051000000
21
2019.284364000000
31
0.0
0
LINE
5
4e9
100
AcDbEntity
8
D-0
6
CONTINUOUS
62
0
100
AcDbLine
10
1434.432051000000
20
2045.824391000000
30
0.0
11
1434.432051000000
21
2019.284364000000
31
0.0
0
TEXT
5
4ea
100
AcDbEntity
8
D-0
62
0
100
AcDbText
10
1310.432
20
2022.584
30
0.0
40
32.000
1
200
41
1.000
50
0.000
100
AcDbText
0
LINE
5
4eb
100
AcDbEntity
8
D-0
6
CONTINUOUS
62
0
100
AcDbLine
10
1434.432051446546
20
2019.284363601974
30
0.0
11
1234.432051446546
21
2019.284363601974
31
0.0
0
POINT
5
4ec
100
AcDbEntity
8
D-0
62
0
100
AcDbPoint
10
1434.432051446546
20
2019.284363601974
30
0.0
0
POINT
5
4ed
100
AcDbEntity
8
D-0
62
0
100
AcDbPoint
10
1234.432051446546
20
2019.284363601974
30
0.0
0
LINE
5
4ee
100
AcDbEntity
8
D-0
6
CONTINUOUS
62
0
100
AcDbLine
10
1434.432051000000
20
2045.824391000000
30
0.0
11
1434.432051000000
21
2019.284364000000
31
0.0
0
LINE
5
4ef
100
AcDbEntity
8
D-0
6
CONTINUOUS
62
0
100
AcDbLine
10
1834.432051000000
20
2080.824391000000
30
0.0
11
1834.432051000000
21
2019.284364000000
31
0.0
0
TEXT
5
4f0
100
AcDbEntity
8
D-0
62
0
100
AcDbText
10
1610.432
20
2022.584
30
0.0
40
32.000
1
400
41
1.000
50
0.000
100
AcDbText
0
LINE
5
4f1
100
AcDbEntity
8
D-0
6
CONTINUOUS
62
0
100
AcDbLine
10
1834.432051446546
20
2019.284363601974
30
0.0
11
1434.432051446546
21
2019.284363601974
31
0.0
0
POINT
5
4f2
100
AcDbEntity
8
D-0
62
0
100
AcDbPoint
10
1834.432051446546
20
2019.284363601974
30
0.0
0
POINT
5
4f3
100
AcDbEntity
8
D-0
62
0
100
AcDbPoint
10
1434.432051446546
20
2019.284363601974
30
0.0
0
LINE
5
4f4
100
AcDbEntity
8
D-0
6
CONTINUOUS
62
0
100
AcDbLine
10
1234.432051000000
20
2140.824391000000
30
0.0
11
1234.432051000000
21
1981.650588000000
31
0.0
0
LINE
5
4f5
100
AcDbEntity
8
D-0
6
CONTINUOUS
62
0
100
AcDbLine
10
1834.432051000000
20
2140.824391000000
30
0.0
11
1834.432051000000
21
1981.650588000000
31
0.0
0
TEXT
5
4f6
100
AcDbEntity
8
D-0
62
0
100
AcDbText
10
1510.432
20
1984.951
30
0.0
40
32.000
1
600
41
1.000
50
0.000
100
AcDbText
0
LINE
5
4f7
100
AcDbEntity
8
D-0
6
CONTINUOUS
62
0
100
AcDbLine
10
1834.432051446546
20
1981.650587852481
30
0.0
11
1234.432051446546
21
1981.650587852481
31
0.0
0
POINT
5
4f8
100
AcDbEntity
8
D-0
62
0
100
AcDbPoint
10
1834.432051446546
20
1981.650587852481
30
0.0
0
POINT
5
4f9
100
AcDbEntity
8
D-0
62
0
100
AcDbPoint
10
1234.432051446546
20
1981.650587852481
30
0.0
0
LINE
5
4fa
100
AcDbEntity
8
C-0
6
CONTINUOUS
62
6
100
AcDbLine
10
2012.232780000000
20
2870.824388000000
30
0.0
11
2012.232780000000
21
99.175606000000
31
0.0
0
LINE
5
4fb
100
AcDbEntity
8
C-0
6
CONTINUOUS
62
6
100
AcDbLine
10
87.767210000000
20
99.175606000000
30
0.0
11
87.767210000000
21
2870.824388000000
31
0.0
0
LINE
5
4fc
100
AcDbEntity
8
C-0
6
CONTINUOUS
62
6
100
AcDbLine
10
87.767210000000
20
2870.824388000000
30
0.0
11
2012.232780000000
21
2870.824388000000
31
0.0
0
LINE
5
4fd
100
AcDbEntity
8
C-0
6
CONTINUOUS
62
6
100
AcDbLine
10
2012.232780000000
20
99.175606000000
30
0.0
11
87.767210000000
21
99.175606000000
31
0.0
0
LINE
5
4fe
100
AcDbEntity
8
C-0
6
CONTINUOUS
62
6
100
AcDbLine
10
1362.232780000000
20
279.175606000000
30
0.0
11
1362.232780000000
21
99.175606000000
31
0.0
0
LINE
5
4ff
100
AcDbEntity
8
C-0
6
CONTINUOUS
62
6
100
AcDbLine
10
2012.232780000000
20
279.175606000000
30
0.0
11
87.767210000000
21
279.175606000000
31
0.0
0
LINE
5
500
100
AcDbEntity
8
B-0
6
CONTINUOUS
62
6
100
AcDbLine
10
204.111622000000
20
133.984894000000
30
0.0
11
246.150120000000
21
133.984894000000
31
0.0
0
LINE
5
501
100
AcDbEntity
8
B-0
6
CONTINUOUS
62
6
100
AcDbLine
10
246.150120000000
20
133.984894000000
30
0.0
11
246.150120000000
21
176.082586000000
31
0.0
0
LINE
5
502
100
AcDbEntity
8
B-0
6
CONTINUOUS
62
6
100
AcDbLine
10
204.111622000000
20
176.082586000000
30
0.0
11
204.111622000000
21
133.984894000000
31
0.0
0
LINE
5
503
100
AcDbEntity
8
B-0
6
CONTINUOUS
62
6
100
AcDbLine
10
246.150120000000
20
176.082586000000
30
0.0
11
204.111622000000
21
176.082586000000
31
0.0
0
LINE
5
504
100
AcDbEntity
8
B-0
6
CONTINUOUS
62
6
100
AcDbLine
10
250.913341000000
20
189.810504000000
30
0.0
11
272.413341000000
21
227.049596000000
31
0.0
0
LINE
5
505
100
AcDbEntity
8
B-0
6
CONTINUOUS
62
6
100
AcDbLine
10
250.913341000000
20
189.810504000000
30
0.0
11
293.913341000000
21
189.810504000000
31
0.0
0
LINE
5
506
100
AcDbEntity
8
B-0
6
CONTINUOUS
62
6
100
AcDbLine
10
272.413341000000
20
227.049596000000
30
0.0
11
293.913341000000
21
189.810504000000
31
0.0
0
CIRCLE
5
507
100
AcDbEntity
8
B-0
6
CONTINUOUS
62
6
100
AcDbCircle
10
306.241036000000
20
235.007296000000
30
0.0
40
14.758716000000
0
LINE
5
508
100
AcDbEntity
8
B-0
6
CONTINUOUS
62
6
100
AcDbLine
10
335.908995000000
20
155.949896000000
30
0.0
11
354.031645000000
21
155.949896000000
31
0.0
0
LINE
5
509
100
AcDbEntity
8
B-0
6
CONTINUOUS
62
6
100
AcDbLine
10
358.694721000000
20
145.949896000000
30
0.0
11
364.756721000000
21
132.949896000000
31
0.0
0
LINE
5
50a
100
AcDbEntity
8
B-0
6
CONTINUOUS
62
6
100
AcDbLine
10
331.245918000000
20
145.949896000000
30
0.0
11
325.183919000000
21
132.949896000000
31
0.0
0
LINE
5
50b
100
AcDbEntity
8
B-0
6
CONTINUOUS
62
6
100
AcDbLine
10
344.970320000000
20
175.381970000000
30
0.0
11
354.031645000000
21
155.949896000000
31
0.0
0
LINE
5
50c
100
AcDbEntity
8
B-0
6
CONTINUOUS
62
6
100
AcDbLine
10
344.970320000000
20
175.381970000000
30
0.0
11
335.908995000000
21
155.949896000000
31
0.0
0
LINE
5
50d
100
AcDbEntity
8
B-0
6
CONTINUOUS
62
6
100
AcDbLine
10
339.020522000000
20
190.501176000000
30
0.0
11
312.183919000000
21
132.949896000000
31
0.0
0
LINE
5
50e
100
AcDbEntity
8
B-0
6
CONTINUOUS
62
6
100
AcDbLine
10
417.449249000000
20
180.501176000000
30
0.0
11
418.197389000000
21
180.090609000000
31
0.0
0
LINE
5
50f
100
AcDbEntity
8
B-0
6
CONTINUOUS
62
6
100
AcDbLine
10
418.197389000000
20
180.090609000000
30
0.0
11
419.473354000000
21
179.373314000000
31
0.0
0
LINE
5
510
100
AcDbEntity
8
B-0
6
CONTINUOUS
62
6
100
AcDbLine
10
419.473354000000
20
179.373314000000
30
0.0
11
420.710618000000
21
178.629850000000
31
0.0
0
LINE
5
511
100
AcDbEntity
8
B-0
6
CONTINUOUS
62
6
100
AcDbLine
10
420.710618000000
20
178.629850000000
30
0.0
11
421.884688000000
21
177.843658000000
31
0.0
0
LINE
5
512
100
AcDbEntity
8
B-0
6
CONTINUOUS
62
6
100
AcDbLine
10
421.884688000000
20
177.843658000000
30
0.0
11
422.971069000000
21
176.998173000000
31
0.0
0
LINE
5
513
100
AcDbEntity
8
B-0
6
CONTINUOUS
62
6
100
AcDbLine
10
422.971069000000
20
176.998173000000
30
0.0
11
423.945268000000
21
176.076835000000
31
0.0
0
LINE
5
514
100
AcDbEntity
8
B-0
6
CONTINUOUS
62
6
100
AcDbLine
10
423.945268000000
20
176.076835000000
30
0.0
11
424.449249000000
21
175.501176000000
31
0.0
0
LINE
5
515
100
AcDbEntity
8
B-0
6
CONTINUOUS
62
6
100
AcDbLine
10
424.449249000000
20
175.501176000000
30
0.0
11
425.168736000000
21
174.485831000000
31
0.0
0
LINE
5
516
100
AcDbEntity
8
B-0
6
CONTINUOUS
62
6
100
AcDbLine
10
425.168736000000
20
174.485831000000
30
0.0
11
426.123291000000
21
172.544052000000
31
0.0
0
LINE
5
517
100
AcDbEntity
8
B-0
6
CONTINUOUS
62
6
100
AcDbLine
10
426.123291000000
20
172.544052000000
30
0.0
11
426.767659000000
21
170.398525000000
31
0.0
0
LINE
5
518
100
AcDbEntity
8
B-0
6
CONTINUOUS
62
6
100
AcDbLine
10
426.767659000000
20
170.398525000000
30
0.0
11
427.162024000000
21
168.093738000000
31
0.0
0
LINE
5
519
100
AcDbEntity
8
B-0
6
CONTINUOUS
62
6
100
AcDbLine
10
427.162024000000
20
168.093738000000
30
0.0
11
427.366570000000
21
165.674176000000
31
0.0
0
LINE
5
51a
100
AcDbEntity
8
B-0
6
CONTINUOUS
62
6
100
AcDbLine
10
427.366570000000
20
165.674176000000
30
0.0
11
427.441482000000
21
163.184326000000
31
0.0
0
LINE
5
51b
100
AcDbEntity
8
B-0
6
CONTINUOUS
62
6
100
AcDbLine
10
427.441482000000
20
163.184326000000
30
0.0
11
427.449249000000
21
161.725536000000
31
0.0
0
LINE
5
51c
100
AcDbEntity
8
B-0
6
CONTINUOUS
62
6
100
AcDbLine
10
427.449249000000
20
161.725536000000
30
0.0
11
427.441482000000
21
160.266747000000
31
0.0
0
LINE
5
51d
100
AcDbEntity
8
B-0
6
CONTINUOUS
62
6
100
AcDbLine
10
427.441482000000
20
160.266747000000
30
0.0
11
427.366570000000
21
157.776897000000
31
0.0
0
LINE
5
51e
100
AcDbEntity
8
B-0
6
CONTINUOUS
62
6
100
AcDbLine
10
427.366570000000
20
157.776897000000
30
0.0
11
427.162024000000
21
155.357335000000
31
0.0
0
LINE
5
51f
100
AcDbEntity
8
B-0
6
CONTINUOUS
62
6
100
AcDbLine
10
427.162024000000
20
155.357335000000
30
0.0
11
426.767659000000
21
153.052547000000
31
0.0
0
LINE
5
520
100
AcDbEntity
8
B-0
6
CONTINUOUS
62
6
100
AcDbLine
10
426.767659000000
20
153.052547000000
30
0.0
11
426.123291000000
21
150.907021000000
31
0.0
0
LINE
5
521
100
AcDbEntity
8
B-0
6
CONTINUOUS
62
6
100
AcDbLine
10
426.123291000000
20
150.907021000000
30
0.0
11
425.168736000000
21
148.965241000000
31
0.0
0
LINE
5
522
100
AcDbEntity
8
B-0
6
CONTINUOUS
62
6
100
AcDbLine
10
425.168736000000
20
148.965241000000
30
0.0
11
424.449249000000
21
147.949896000000
31
0.0
0
LINE
5
523
100
AcDbEntity
8
B-0
6
CONTINUOUS
62
6
100
AcDbLine
10
424.449249000000
20
147.949896000000
30
0.0
11
423.945268000000
21
147.374237000000
31
0.0
0
LINE
5
524
100
AcDbEntity
8
B-0
6
CONTINUOUS
62
6
100
AcDbLine
10
423.945268000000
20
147.374237000000
30
0.0
11
422.971069000000
21
146.452899000000
31
0.0
0
LINE
5
525
100
AcDbEntity
8
B-0
6
CONTINUOUS
62
6
100
AcDbLine
10
422.971069000000
20
146.452899000000
30
0.0
11
421.884688000000
21
145.607415000000
31
0.0
0
LINE
5
526
100
AcDbEntity
8
B-0
6
CONTINUOUS
62
6
100
AcDbLine
10
421.884688000000
20
145.607415000000
30
0.0
11
420.710618000000
21
144.821222000000
31
0.0
0
LINE
5
527
100
AcDbEntity
8
B-0
6
CONTINUOUS
62
6
100
AcDbLine
10
420.710618000000
20
144.821222000000
30
0.0
11
419.473354000000
21
144.077759000000
31
0.0
0
LINE
5
528
100
AcDbEntity
8
B-0
6
CONTINUOUS
62
6
100
AcDbLine
10
419.473354000000
20
144.077759000000
30
0.0
11
418.197389000000
21
143.360463000000
31
0.0
0
LINE
5
529
100
AcDbEntity
8
B-0
6
CONTINUOUS
62
6
100
AcDbLine
10
418.197389000000
20
143.360463000000
30
0.0
11
417.449249000000
21
142.949896000000
31
0.0
0
LINE
5
52a
100
AcDbEntity
8
B-0
6
CONTINUOUS
62
6
100
AcDbLine
10
417.449249000000
20
132.949896000000
30
0.0
11
418.104137000000
21
133.119434000000
31
0.0
0
LINE
5
52b
100
AcDbEntity
8
B-0
6
CONTINUOUS
62
6
100
AcDbLine
10
418.104137000000
20
133.119434000000
30
0.0
11
419.233910000000
21
133.414678000000
31
0.0
0
LINE
5
52c
100
AcDbEntity
8
B-0
6
CONTINUOUS
62
6
100
AcDbLine
10
419.233910000000
20
133.414678000000
30
0.0
11
420.365511000000
21
133.718081000000
31
0.0
0
LINE
5
52d
100
AcDbEntity
8
B-0
6
CONTINUOUS
62
6
100
AcDbLine
10
420.365511000000
20
133.718081000000
30
0.0
11
421.500095000000
21
134.034807000000
31
0.0
0
LINE
5
52e
100
AcDbEntity
8
B-0
6
CONTINUOUS
62
6
100
AcDbLine
10
421.500095000000
20
134.034807000000
30
0.0
11
422.638818000000
21
134.370020000000
31
0.0
0
LINE
5
52f
100
AcDbEntity
8
B-0
6
CONTINUOUS
62
6
100
AcDbLine
10
422.638818000000
20
134.370020000000
30
0.0
11
423.782836000000
21
134.728884000000
31
0.0
0
LINE
5
530
100
AcDbEntity
8
B-0
6
CONTINUOUS
62
6
100
AcDbLine
10
423.782836000000
20
134.728884000000
30
0.0
11
424.449249000000
21
134.949896000000
31
0.0
0
LINE
5
531
100
AcDbEntity
8
B-0
6
CONTINUOUS
62
6
100
AcDbLine
10
424.449249000000
20
134.949896000000
30
0.0
11
425.774292000000
21
135.419723000000
31
0.0
0
LINE
5
532
100
AcDbEntity
8
B-0
6
CONTINUOUS
62
6
100
AcDbLine
10
425.774292000000
20
135.419723000000
30
0.0
11
428.043318000000
21
136.341129000000
31
0.0
0
LINE
5
533
100
AcDbEntity
8
B-0
6
CONTINUOUS
62
6
100
AcDbLine
10
428.043318000000
20
136.341129000000
30
0.0
11
430.235817000000
21
137.422751000000
31
0.0
0
LINE
5
534
100
AcDbEntity
8
B-0
6
CONTINUOUS
62
6
100
AcDbLine
10
430.235817000000
20
137.422751000000
30
0.0
11
432.285664000000
21
138.686982000000
31
0.0
0
LINE
5
535
100
AcDbEntity
8
B-0
6
CONTINUOUS
62
6
100
AcDbLine
10
432.285664000000
20
138.686982000000
30
0.0
11
434.126731000000
21
140.156214000000
31
0.0
0
LINE
5
536
100
AcDbEntity
8
B-0
6
CONTINUOUS
62
6
100
AcDbLine
10
434.126731000000
20
140.156214000000
30
0.0
11
435.692894000000
21
141.852839000000
31
0.0
0
LINE
5
537
100
AcDbEntity
8
B-0
6
CONTINUOUS
62
6
100
AcDbLine
10
435.692894000000
20
141.852839000000
30
0.0
11
436.449249000000
21
142.949896000000
31
0.0
0
LINE
5
538
100
AcDbEntity
8
B-0
6
CONTINUOUS
62
6
100
AcDbLine
10
436.449249000000
20
142.949896000000
30
0.0
11
436.699954000000
21
143.381742000000
31
0.0
0
LINE
5
539
100
AcDbEntity
8
B-0
6
CONTINUOUS
62
6
100
AcDbLine
10
436.699954000000
20
143.381742000000
30
0.0
11
437.094047000000
21
144.152063000000
31
0.0
0
LINE
5
53a
100
AcDbEntity
8
B-0
6
CONTINUOUS
62
6
100
AcDbLine
10
437.094047000000
20
144.152063000000
30
0.0
11
437.445329000000
21
144.950176000000
31
0.0
0
LINE
5
53b
100
AcDbEntity
8
B-0
6
CONTINUOUS
62
6
100
AcDbLine
10
437.445329000000
20
144.950176000000
30
0.0
11
437.760180000000
21
145.770482000000
31
0.0
0
LINE
5
53c
100
AcDbEntity
8
B-0
6
CONTINUOUS
62
6
100
AcDbLine
10
437.760180000000
20
145.770482000000
30
0.0
11
438.044983000000
21
146.607383000000
31
0.0
0
LINE
5
53d
100
AcDbEntity
8
B-0
6
CONTINUOUS
62
6
100
AcDbLine
10
438.044983000000
20
146.607383000000
30
0.0
11
438.306119000000
21
147.455282000000
31
0.0
0
LINE
5
53e
100
AcDbEntity
8
B-0
6
CONTINUOUS
62
6
100
AcDbLine
10
438.306119000000
20
147.455282000000
30
0.0
11
438.449249000000
21
147.949896000000
31
0.0
0
LINE
5
53f
100
AcDbEntity
8
B-0
6
CONTINUOUS
62
6
100
AcDbLine
10
438.449249000000
20
147.949896000000
30
0.0
11
438.797401000000
21
149.232169000000
31
0.0
0
LINE
5
540
100
AcDbEntity
8
B-0
6
CONTINUOUS
62
6
100
AcDbLine
10
438.797401000000
20
149.232169000000
30
0.0
11
439.323933000000
21
151.453018000000
31
0.0
0
LINE
5
541
100
AcDbEntity
8
B-0
6
CONTINUOUS
62
6
100
AcDbLine
10
439.323933000000
20
151.453018000000
30
0.0
11
439.754068000000
21
153.684560000000
31
0.0
0
LINE
5
542
100
AcDbEntity
8
B-0
6
CONTINUOUS
62
6
100
AcDbLine
10
439.754068000000
20
153.684560000000
30
0.0
11
440.084237000000
21
155.924459000000
31
0.0
0
LINE
5
543
100
AcDbEntity
8
B-0
6
CONTINUOUS
62
6
100
AcDbLine
10
440.084237000000
20
155.924459000000
30
0.0
11
440.310871000000
21
158.170381000000
31
0.0
0
LINE
5
544
100
AcDbEntity
8
B-0
6
CONTINUOUS
62
6
100
AcDbLine
10
440.310871000000
20
158.170381000000
30
0.0
11
440.430402000000
21
160.419992000000
31
0.0
0
LINE
5
545
100
AcDbEntity
8
B-0
6
CONTINUOUS
62
6
100
AcDbLine
10
440.430402000000
20
160.419992000000
30
0.0
11
440.449249000000
21
161.725536000000
31
0.0
0
LINE
5
546
100
AcDbEntity
8
B-0
6
CONTINUOUS
62
6
100
AcDbLine
10
440.449249000000
20
161.725536000000
30
0.0
11
440.430402000000
21
163.031081000000
31
0.0
0
LINE
5
547
100
AcDbEntity
8
B-0
6
CONTINUOUS
62
6
100
AcDbLine
10
440.430402000000
20
163.031081000000
30
0.0
11
440.310871000000
21
165.280691000000
31
0.0
0
LINE
5
548
100
AcDbEntity
8
B-0
6
CONTINUOUS
62
6
100
AcDbLine
10
440.310871000000
20
165.280691000000
30
0.0
11
440.084237000000
21
167.526614000000
31
0.0
0
LINE
5
549
100
AcDbEntity
8
B-0
6
CONTINUOUS
62
6
100
AcDbLine
10
440.084237000000
20
167.526614000000
30
0.0
11
439.754068000000
21
169.766513000000
31
0.0
0
LINE
5
54a
100
AcDbEntity
8
B-0
6
CONTINUOUS
62
6
100
AcDbLine
10
439.754068000000
20
169.766513000000
30
0.0
11
439.323933000000
21
171.998054000000
31
0.0
0
LINE
5
54b
100
AcDbEntity
8
B-0
6
CONTINUOUS
62
6
100
AcDbLine
10
439.323933000000
20
171.998054000000
30
0.0
11
438.797401000000
21
174.218903000000
31
0.0
0
LINE
5
54c
100
AcDbEntity
8
B-0
6
CONTINUOUS
62
6
100
AcDbLine
10
438.797401000000
20
174.218903000000
30
0.0
11
438.449249000000
21
175.501176000000
31
0.0
0
LINE
5
54d
100
AcDbEntity
8
B-0
6
CONTINUOUS
62
6
100
AcDbLine
10
438.449249000000
20
175.501176000000
30
0.0
11
438.306119000000
21
175.995791000000
31
0.0
0
LINE
5
54e
100
AcDbEntity
8
B-0
6
CONTINUOUS
62
6
100
AcDbLine
10
438.306119000000
20
175.995791000000
30
0.0
11
438.044983000000
21
176.843689000000
31
0.0
0
LINE
5
54f
100
AcDbEntity
8
B-0
6
CONTINUOUS
62
6
100
AcDbLine
10
438.044983000000
20
176.843689000000
30
0.0
11
437.760180000000
21
177.680591000000
31
0.0
0
LINE
5
550
100
AcDbEntity
8
B-0
6
CONTINUOUS
62
6
100
AcDbLine
10
437.760180000000
20
177.680591000000
30
0.0
11
437.445329000000
21
178.500897000000
31
0.0
0
LINE
5
551
100
AcDbEntity
8
B-0
6
CONTINUOUS
62
6
100
AcDbLine
10
437.445329000000
20
178.500897000000
30
0.0
11
437.094047000000
21
179.299009000000
31
0.0
0
LINE
5
552
100
AcDbEntity
8
B-0
6
CONTINUOUS
62
6
100
AcDbLine
10
437.094047000000
20
179.299009000000
30
0.0
11
436.699954000000
21
180.069330000000
31
0.0
0
LINE
5
553
100
AcDbEntity
8
B-0
6
CONTINUOUS
62
6
100
AcDbLine
10
436.699954000000
20
180.069330000000
30
0.0
11
436.449249000000
21
180.501176000000
31
0.0
0
LINE
5
554
100
AcDbEntity
8
B-0
6
CONTINUOUS
62
6
100
AcDbLine
10
436.449249000000
20
180.501176000000
30
0.0
11
435.692894000000
21
181.598234000000
31
0.0
0
LINE
5
555
100
AcDbEntity
8
B-0
6
CONTINUOUS
62
6
100
AcDbLine
10
435.692894000000
20
181.598234000000
30
0.0
11
434.126731000000
21
183.294858000000
31
0.0
0
LINE
5
556
100
AcDbEntity
8
B-0
6
CONTINUOUS
62
6
100
AcDbLine
10
434.126731000000
20
183.294858000000
30
0.0
11
432.285664000000
21
184.764090000000
31
0.0
0
LINE
5
557
100
AcDbEntity
8
B-0
6
CONTINUOUS
62
6
100
AcDbLine
10
432.285664000000
20
184.764090000000
30
0.0
11
430.235817000000
21
186.028321000000
31
0.0
0
LINE
5
558
100
AcDbEntity
8
B-0
6
CONTINUOUS
62
6
100
AcDbLine
10
430.235817000000
20
186.028321000000
30
0.0
11
428.043318000000
21
187.109944000000
31
0.0
0
LINE
5
559
100
AcDbEntity
8
B-0
6
CONTINUOUS
62
6
100
AcDbLine
10
428.043318000000
20
187.109944000000
30
0.0
11
425.774292000000
21
188.031349000000
31
0.0
0
LINE
5
55a
100
AcDbEntity
8
B-0
6
CONTINUOUS
62
6
100
AcDbLine
10
425.774292000000
20
188.031349000000
30
0.0
11
424.449249000000
21
188.501176000000
31
0.0
0
LINE
5
55b
100
AcDbEntity
8
B-0
6
CONTINUOUS
62
6
100
AcDbLine
10
424.449249000000
20
188.501176000000
30
0.0
11
423.782836000000
21
188.722189000000
31
0.0
0
LINE
5
55c
100
AcDbEntity
8
B-0
6
CONTINUOUS
62
6
100
AcDbLine
10
423.782836000000
20
188.722189000000
30
0.0
11
422.638818000000
21
189.081052000000
31
0.0
0
LINE
5
55d
100
AcDbEntity
8
B-0
6
CONTINUOUS
62
6
100
AcDbLine
10
422.638818000000
20
189.081052000000
30
0.0
11
421.500095000000
21
189.416265000000
31
0.0
0
LINE
5
55e
100
AcDbEntity
8
B-0
6
CONTINUOUS
62
6
100
AcDbLine
10
421.500095000000
20
189.416265000000
30
0.0
11
420.365511000000
21
189.732991000000
31
0.0
0
LINE
5
55f
100
AcDbEntity
8
B-0
6
CONTINUOUS
62
6
100
AcDbLine
10
420.365511000000
20
189.732991000000
30
0.0
11
419.233910000000
21
190.036394000000
31
0.0
0
LINE
5
560
100
AcDbEntity
8
B-0
6
CONTINUOUS
62
6
100
AcDbLine
10
419.233910000000
20
190.036394000000
30
0.0
11
418.104137000000
21
190.331638000000
31
0.0
0
LINE
5
561
100
AcDbEntity
8
B-0
6
CONTINUOUS
62
6
100
AcDbLine
10
418.104137000000
20
190.331638000000
30
0.0
11
417.449249000000
21
190.501176000000
31
0.0
0
LINE
5
562
100
AcDbEntity
8
B-0
6
CONTINUOUS
62
6
100
AcDbLine
10
453.449249000000
20
190.501176000000
30
0.0
11
473.785852000000
21
146.889191000000
31
0.0
0
LINE
5
563
100
AcDbEntity
8
B-0
6
CONTINUOUS
62
6
100
AcDbLine
10
494.122455000000
20
190.501176000000
30
0.0
11
473.785852000000
21
146.889191000000
31
0.0
0
LINE
5
564
100
AcDbEntity
8
B-0
6
CONTINUOUS
62
6
100
AcDbLine
10
440.449249000000
20
190.501176000000
30
0.0
11
467.285852000000
21
132.949896000000
31
0.0
0
LINE
5
565
100
AcDbEntity
8
B-0
6
CONTINUOUS
62
6
100
AcDbLine
10
480.285852000000
20
132.949896000000
30
0.0
11
507.122455000000
21
190.501176000000
31
0.0
0
LINE
5
566
100
AcDbEntity
8
B-0
6
CONTINUOUS
62
6
100
AcDbLine
10
517.122455000000
20
190.501176000000
30
0.0
11
490.285852000000
21
132.949896000000
31
0.0
0
LINE
5
567
100
AcDbEntity
8
B-0
6
CONTINUOUS
62
6
100
AcDbLine
10
530.476795000000
20
190.501176000000
30
0.0
11
557.313397000000
21
132.949896000000
31
0.0
0
LINE
5
568
100
AcDbEntity
8
B-0
6
CONTINUOUS
62
6
100
AcDbLine
10
331.245918000000
20
145.949896000000
30
0.0
11
358.694721000000
21
145.949896000000
31
0.0
0
LINE
5
569
100
AcDbEntity
8
B-0
6
CONTINUOUS
62
6
100
AcDbLine
10
509.347852000000
20
145.949896000000
30
0.0
11
538.251398000000
21
145.949896000000
31
0.0
0
LINE
5
56a
100
AcDbEntity
8
B-0
6
CONTINUOUS
62
6
100
AcDbLine
10
514.010928000000
20
155.949896000000
30
0.0
11
533.588321000000
21
155.949896000000
31
0.0
0
LINE
5
56b
100
AcDbEntity
8
B-0
6
CONTINUOUS
62
6
100
AcDbLine
10
576.078882000000
20
180.501176000000
30
0.0
11
605.792220000000
21
132.949896000000
31
0.0
0
LINE
5
56c
100
AcDbEntity
8
B-0
6
CONTINUOUS
62
6
100
AcDbLine
10
611.866476000000
20
143.986933000000
30
0.0
11
611.866476000000
21
190.501176000000
31
0.0
0
LINE
5
56d
100
AcDbEntity
8
B-0
6
CONTINUOUS
62
6
100
AcDbLine
10
622.866476000000
20
132.949896000000
30
0.0
11
622.866476000000
21
190.501176000000
31
0.0
0
LINE
5
56e
100
AcDbEntity
8
B-0
6
CONTINUOUS
62
6
100
AcDbLine
10
582.801151000000
20
190.501176000000
30
0.0
11
611.866476000000
21
143.986933000000
31
0.0
0
LINE
5
56f
100
AcDbEntity
8
B-0
6
CONTINUOUS
62
6
100
AcDbLine
10
563.078882000000
20
190.501176000000
30
0.0
11
563.078882000000
21
132.949896000000
31
0.0
0
LINE
5
570
100
AcDbEntity
8
B-0
6
CONTINUOUS
62
6
100
AcDbLine
10
417.449249000000
20
180.501176000000
30
0.0
11
397.449249000000
21
180.501176000000
31
0.0
0
LINE
5
571
100
AcDbEntity
8
B-0
6
CONTINUOUS
62
6
100
AcDbLine
10
397.449249000000
20
142.949896000000
30
0.0
11
417.449249000000
21
142.949896000000
31
0.0
0
LINE
5
572
100
AcDbEntity
8
B-0
6
CONTINUOUS
62
6
100
AcDbLine
10
533.588321000000
20
155.949896000000
30
0.0
11
523.799625000000
21
176.941823000000
31
0.0
0
LINE
5
573
100
AcDbEntity
8
B-0
6
CONTINUOUS
62
6
100
AcDbLine
10
514.010928000000
20
155.949896000000
30
0.0
11
523.799625000000
21
176.941823000000
31
0.0
0
LINE
5
574
100
AcDbEntity
8
B-0
6
CONTINUOUS
62
6
100
AcDbLine
10
503.285852000000
20
132.949896000000
30
0.0
11
509.347852000000
21
145.949896000000
31
0.0
0
LINE
5
575
100
AcDbEntity
8
B-0
6
CONTINUOUS
62
6
100
AcDbLine
10
544.313397000000
20
132.949896000000
30
0.0
11
538.251398000000
21
145.949896000000
31
0.0
0
LINE
5
576
100
AcDbEntity
8
B-0
6
CONTINUOUS
62
6
100
AcDbLine
10
576.078882000000
20
180.501176000000
30
0.0
11
576.078882000000
21
132.949896000000
31
0.0
0
LINE
5
577
100
AcDbEntity
8
B-0
6
CONTINUOUS
62
6
100
AcDbLine
10
312.183919000000
20
132.949896000000
30
0.0
11
325.183919000000
21
132.949896000000
31
0.0
0
LINE
5
578
100
AcDbEntity
8
B-0
6
CONTINUOUS
62
6
100
AcDbLine
10
364.756721000000
20
132.949896000000
30
0.0
11
377.756721000000
21
132.949896000000
31
0.0
0
LINE
5
579
100
AcDbEntity
8
B-0
6
CONTINUOUS
62
6
100
AcDbLine
10
350.920118000000
20
190.501176000000
30
0.0
11
377.756721000000
21
132.949896000000
31
0.0
0
LINE
5
57a
100
AcDbEntity
8
B-0
6
CONTINUOUS
62
6
100
AcDbLine
10
350.920118000000
20
190.501176000000
30
0.0
11
339.020522000000
21
190.501176000000
31
0.0
0
LINE
5
57b
100
AcDbEntity
8
B-0
6
CONTINUOUS
62
6
100
AcDbLine
10
384.449249000000
20
190.501176000000
30
0.0
11
384.449249000000
21
132.949896000000
31
0.0
0
LINE
5
57c
100
AcDbEntity
8
B-0
6
CONTINUOUS
62
6
100
AcDbLine
10
397.449249000000
20
180.501176000000
30
0.0
11
397.449249000000
21
142.949896000000
31
0.0
0
LINE
5
57d
100
AcDbEntity
8
B-0
6
CONTINUOUS
62
6
100
AcDbLine
10
384.449249000000
20
132.949896000000
30
0.0
11
417.449249000000
21
132.949896000000
31
0.0
0
LINE
5
57e
100
AcDbEntity
8
B-0
6
CONTINUOUS
62
6
100
AcDbLine
10
417.449249000000
20
190.501176000000
30
0.0
11
384.449249000000
21
190.501176000000
31
0.0
0
LINE
5
57f
100
AcDbEntity
8
B-0
6
CONTINUOUS
62
6
100
AcDbLine
10
453.449249000000
20
190.501176000000
30
0.0
11
440.449249000000
21
190.501176000000
31
0.0
0
LINE
5
580
100
AcDbEntity
8
B-0
6
CONTINUOUS
62
6
100
AcDbLine
10
467.285852000000
20
132.949896000000
30
0.0
11
480.285852000000
21
132.949896000000
31
0.0
0
LINE
5
581
100
AcDbEntity
8
B-0
6
CONTINUOUS
62
6
100
AcDbLine
10
507.122455000000
20
190.501176000000
30
0.0
11
494.122455000000
21
190.501176000000
31
0.0
0
LINE
5
582
100
AcDbEntity
8
B-0
6
CONTINUOUS
62
6
100
AcDbLine
10
490.285852000000
20
132.949896000000
30
0.0
11
503.285852000000
21
132.949896000000
31
0.0
0
LINE
5
583
100
AcDbEntity
8
B-0
6
CONTINUOUS
62
6
100
AcDbLine
10
544.313397000000
20
132.949896000000
30
0.0
11
557.313397000000
21
132.949896000000
31
0.0
0
LINE
5
584
100
AcDbEntity
8
B-0
6
CONTINUOUS
62
6
100
AcDbLine
10
563.078882000000
20
132.949896000000
30
0.0
11
576.078882000000
21
132.949896000000
31
0.0
0
LINE
5
585
100
AcDbEntity
8
B-0
6
CONTINUOUS
62
6
100
AcDbLine
10
605.792220000000
20
132.949896000000
30
0.0
11
622.866476000000
21
132.949896000000
31
0.0
0
LINE
5
586
100
AcDbEntity
8
B-0
6
CONTINUOUS
62
6
100
AcDbLine
10
622.866476000000
20
190.501176000000
30
0.0
11
611.866476000000
21
190.501176000000
31
0.0
0
LINE
5
587
100
AcDbEntity
8
B-0
6
CONTINUOUS
62
6
100
AcDbLine
10
582.801151000000
20
190.501176000000
30
0.0
11
563.078882000000
21
190.501176000000
31
0.0
0
LINE
5
588
100
AcDbEntity
8
B-0
6
CONTINUOUS
62
6
100
AcDbLine
10
530.476795000000
20
190.501176000000
30
0.0
11
517.122455000000
21
190.501176000000
31
0.0
0
LINE
5
589
100
AcDbEntity
8
B-0
6
CONTINUOUS
62
6
100
AcDbLine
10
312.907293000000
20
134.501176000000
30
0.0
11
325.907293000000
21
134.501176000000
31
0.0
0
LINE
5
58a
100
AcDbEntity
8
B-0
6
CONTINUOUS
62
6
100
AcDbLine
10
364.033347000000
20
134.501176000000
30
0.0
11
377.033347000000
21
134.501176000000
31
0.0
0
LINE
5
58b
100
AcDbEntity
8
B-0
6
CONTINUOUS
62
6
100
AcDbLine
10
384.449249000000
20
134.501176000000
30
0.0
11
423.056930000000
21
134.501176000000
31
0.0
0
LINE
5
58c
100
AcDbEntity
8
B-0
6
CONTINUOUS
62
6
100
AcDbLine
10
466.562478000000
20
134.501176000000
30
0.0
11
481.009226000000
21
134.501176000000
31
0.0
0
LINE
5
58d
100
AcDbEntity
8
B-0
6
CONTINUOUS
62
6
100
AcDbLine
10
491.009226000000
20
134.501176000000
30
0.0
11
504.009226000000
21
134.501176000000
31
0.0
0
LINE
5
58e
100
AcDbEntity
8
B-0
6
CONTINUOUS
62
6
100
AcDbLine
10
543.590023000000
20
134.501176000000
30
0.0
11
556.590023000000
21
134.501176000000
31
0.0
0
LINE
5
58f
100
AcDbEntity
8
B-0
6
CONTINUOUS
62
6
100
AcDbLine
10
563.078882000000
20
134.501176000000
30
0.0
11
576.078882000000
21
134.501176000000
31
0.0
0
LINE
5
590
100
AcDbEntity
8
B-0
6
CONTINUOUS
62
6
100
AcDbLine
10
604.822872000000
20
134.501176000000
30
0.0
11
622.866476000000
21
134.501176000000
31
0.0
0
LINE
5
591
100
AcDbEntity
8
B-0
6
CONTINUOUS
62
6
100
AcDbLine
10
313.839908000000
20
136.501176000000
30
0.0
11
326.839908000000
21
136.501176000000
31
0.0
0
LINE
5
592
100
AcDbEntity
8
B-0
6
CONTINUOUS
62
6
100
AcDbLine
10
363.100731000000
20
136.501176000000
30
0.0
11
376.100731000000
21
136.501176000000
31
0.0
0
LINE
5
593
100
AcDbEntity
8
B-0
6
CONTINUOUS
62
6
100
AcDbLine
10
384.449249000000
20
136.501176000000
30
0.0
11
428.367742000000
21
136.501176000000
31
0.0
0
LINE
5
594
100
AcDbEntity
8
B-0
6
CONTINUOUS
62
6
100
AcDbLine
10
465.629863000000
20
136.501176000000
30
0.0
11
481.941841000000
21
136.501176000000
31
0.0
0
LINE
5
595
100
AcDbEntity
8
B-0
6
CONTINUOUS
62
6
100
AcDbLine
10
491.941841000000
20
136.501176000000
30
0.0
11
504.941841000000
21
136.501176000000
31
0.0
0
LINE
5
596
100
AcDbEntity
8
B-0
6
CONTINUOUS
62
6
100
AcDbLine
10
542.657408000000
20
136.501176000000
30
0.0
11
555.657408000000
21
136.501176000000
31
0.0
0
LINE
5
597
100
AcDbEntity
8
B-0
6
CONTINUOUS
62
6
100
AcDbLine
10
563.078882000000
20
136.501176000000
30
0.0
11
576.078882000000
21
136.501176000000
31
0.0
0
LINE
5
598
100
AcDbEntity
8
B-0
6
CONTINUOUS
62
6
100
AcDbLine
10
603.573134000000
20
136.501176000000
30
0.0
11
622.866476000000
21
136.501176000000
31
0.0
0
LINE
5
599
100
AcDbEntity
8
B-0
6
CONTINUOUS
62
6
100
AcDbLine
10
314.772523000000
20
138.501176000000
30
0.0
11
327.772523000000
21
138.501176000000
31
0.0
0
LINE
5
59a
100
AcDbEntity
8
B-0
6
CONTINUOUS
62
6
100
AcDbLine
10
362.168116000000
20
138.501176000000
30
0.0
11
375.168116000000
21
138.501176000000
31
0.0
0
LINE
5
59b
100
AcDbEntity
8
B-0
6
CONTINUOUS
62
6
100
AcDbLine
10
384.449249000000
20
138.501176000000
30
0.0
11
431.984395000000
21
138.501176000000
31
0.0
0
LINE
5
59c
100
AcDbEntity
8
B-0
6
CONTINUOUS
62
6
100
AcDbLine
10
464.697248000000
20
138.501176000000
30
0.0
11
482.874457000000
21
138.501176000000
31
0.0
0
LINE
5
59d
100
AcDbEntity
8
B-0
6
CONTINUOUS
62
6
100
AcDbLine
10
492.874457000000
20
138.501176000000
30
0.0
11
505.874457000000
21
138.501176000000
31
0.0
0
LINE
5
59e
100
AcDbEntity
8
B-0
6
CONTINUOUS
62
6
100
AcDbLine
10
541.724793000000
20
138.501176000000
30
0.0
11
554.724793000000
21
138.501176000000
31
0.0
0
LINE
5
59f
100
AcDbEntity
8
B-0
6
CONTINUOUS
62
6
100
AcDbLine
10
563.078882000000
20
138.501176000000
30
0.0
11
576.078882000000
21
138.501176000000
31
0.0
0
LINE
5
5a0
100
AcDbEntity
8
B-0
6
CONTINUOUS
62
6
100
AcDbLine
10
602.323395000000
20
138.501176000000
30
0.0
11
622.866476000000
21
138.501176000000
31
0.0
0
LINE
5
5a1
100
AcDbEntity
8
B-0
6
CONTINUOUS
62
6
100
AcDbLine
10
315.705139000000
20
140.501176000000
30
0.0
11
328.705139000000
21
140.501176000000
31
0.0
0
LINE
5
5a2
100
AcDbEntity
8
B-0
6
CONTINUOUS
62
6
100
AcDbLine
10
361.235501000000
20
140.501176000000
30
0.0
11
374.235501000000
21
140.501176000000
31
0.0
0
LINE
5
5a3
100
AcDbEntity
8
B-0
6
CONTINUOUS
62
6
100
AcDbLine
10
384.449249000000
20
140.501176000000
30
0.0
11
434.445167000000
21
140.501176000000
31
0.0
0
LINE
5
5a4
100
AcDbEntity
8
B-0
6
CONTINUOUS
62
6
100
AcDbLine
10
463.764632000000
20
140.501176000000
30
0.0
11
483.807072000000
21
140.501176000000
31
0.0
0
LINE
5
5a5
100
AcDbEntity
8
B-0
6
CONTINUOUS
62
6
100
AcDbLine
10
493.807072000000
20
140.501176000000
30
0.0
11
506.807072000000
21
140.501176000000
31
0.0
0
LINE
5
5a6
100
AcDbEntity
8
B-0
6
CONTINUOUS
62
6
100
AcDbLine
10
540.792178000000
20
140.501176000000
30
0.0
11
553.792178000000
21
140.501176000000
31
0.0
0
LINE
5
5a7
100
AcDbEntity
8
B-0
6
CONTINUOUS
62
6
100
AcDbLine
10
563.078882000000
20
140.501176000000
30
0.0
11
576.078882000000
21
140.501176000000
31
0.0
0
LINE
5
5a8
100
AcDbEntity
8
B-0
6
CONTINUOUS
62
6
100
AcDbLine
10
601.073656000000
20
140.501176000000
30
0.0
11
622.866476000000
21
140.501176000000
31
0.0
0
LINE
5
5a9
100
AcDbEntity
8
B-0
6
CONTINUOUS
62
6
100
AcDbLine
10
316.637754000000
20
142.501176000000
30
0.0
11
329.637754000000
21
142.501176000000
31
0.0
0
LINE
5
5aa
100
AcDbEntity
8
B-0
6
CONTINUOUS
62
6
100
AcDbLine
10
360.302885000000
20
142.501176000000
30
0.0
11
373.302885000000
21
142.501176000000
31
0.0
0
LINE
5
5ab
100
AcDbEntity
8
B-0
6
CONTINUOUS
62
6
100
AcDbLine
10
384.449249000000
20
142.501176000000
30
0.0
11
436.139884000000
21
142.501176000000
31
0.0
0
LINE
5
5ac
100
AcDbEntity
8
B-0
6
CONTINUOUS
62
6
100
AcDbLine
10
462.832017000000
20
142.501176000000
30
0.0
11
484.739687000000
21
142.501176000000
31
0.0
0
LINE
5
5ad
100
AcDbEntity
8
B-0
6
CONTINUOUS
62
6
100
AcDbLine
10
494.739687000000
20
142.501176000000
30
0.0
11
507.739687000000
21
142.501176000000
31
0.0
0
LINE
5
5ae
100
AcDbEntity
8
B-0
6
CONTINUOUS
62
6
100
AcDbLine
10
539.859562000000
20
142.501176000000
30
0.0
11
552.859562000000
21
142.501176000000
31
0.0
0
LINE
5
5af
100
AcDbEntity
8
B-0
6
CONTINUOUS
62
6
100
AcDbLine
10
563.078882000000
20
142.501176000000
30
0.0
11
576.078882000000
21
142.501176000000
31
0.0
0
LINE
5
5b0
100
AcDbEntity
8
B-0
6
CONTINUOUS
62
6
100
AcDbLine
10
599.823917000000
20
142.501176000000
30
0.0
11
622.866476000000
21
142.501176000000
31
0.0
0
LINE
5
5b1
100
AcDbEntity
8
B-0
6
CONTINUOUS
62
6
100
AcDbLine
10
317.570369000000
20
144.501176000000
30
0.0
11
330.570369000000
21
144.501176000000
31
0.0
0
LINE
5
5b2
100
AcDbEntity
8
B-0
6
CONTINUOUS
62
6
100
AcDbLine
10
359.370270000000
20
144.501176000000
30
0.0
11
372.370270000000
21
144.501176000000
31
0.0
0
LINE
5
5b3
100
AcDbEntity
8
B-0
6
CONTINUOUS
62
6
100
AcDbLine
10
384.449249000000
20
144.501176000000
30
0.0
11
397.449249000000
21
144.501176000000
31
0.0
0
LINE
5
5b4
100
AcDbEntity
8
B-0
6
CONTINUOUS
62
6
100
AcDbLine
10
420.178002000000
20
144.501176000000
30
0.0
11
437.247706000000
21
144.501176000000
31
0.0
0
LINE
5
5b5
100
AcDbEntity
8
B-0
6
CONTINUOUS
62
6
100
AcDbLine
10
461.899402000000
20
144.501176000000
30
0.0
11
485.672303000000
21
144.501176000000
31
0.0
0
LINE
5
5b6
100
AcDbEntity
8
B-0
6
CONTINUOUS
62
6
100
AcDbLine
10
495.672303000000
20
144.501176000000
30
0.0
11
508.672303000000
21
144.501176000000
31
0.0
0
LINE
5
5b7
100
AcDbEntity
8
B-0
6
CONTINUOUS
62
6
100
AcDbLine
10
538.926947000000
20
144.501176000000
30
0.0
11
551.926947000000
21
144.501176000000
31
0.0
0
LINE
5
5b8
100
AcDbEntity
8
B-0
6
CONTINUOUS
62
6
100
AcDbLine
10
563.078882000000
20
144.501176000000
30
0.0
11
576.078882000000
21
144.501176000000
31
0.0
0
LINE
5
5b9
100
AcDbEntity
8
B-0
6
CONTINUOUS
62
6
100
AcDbLine
10
598.574179000000
20
144.501176000000
30
0.0
11
611.545141000000
21
144.501176000000
31
0.0
0
LINE
5
5ba
100
AcDbEntity
8
B-0
6
CONTINUOUS
62
6
100
AcDbLine
10
611.866476000000
20
144.501176000000
30
0.0
11
622.866476000000
21
144.501176000000
31
0.0
0
LINE
5
5bb
100
AcDbEntity
8
B-0
6
CONTINUOUS
62
6
100
AcDbLine
10
318.502985000000
20
146.501176000000
30
0.0
11
371.437655000000
21
146.501176000000
31
0.0
0
LINE
5
5bc
100
AcDbEntity
8
B-0
6
CONTINUOUS
62
6
100
AcDbLine
10
384.449249000000
20
146.501176000000
30
0.0
11
397.449249000000
21
146.501176000000
31
0.0
0
LINE
5
5bd
100
AcDbEntity
8
B-0
6
CONTINUOUS
62
6
100
AcDbLine
10
423.022116000000
20
146.501176000000
30
0.0
11
438.008840000000
21
146.501176000000
31
0.0
0
LINE
5
5be
100
AcDbEntity
8
B-0
6
CONTINUOUS
62
6
100
AcDbLine
10
460.966786000000
20
146.501176000000
30
0.0
11
486.604918000000
21
146.501176000000
31
0.0
0
LINE
5
5bf
100
AcDbEntity
8
B-0
6
CONTINUOUS
62
6
100
AcDbLine
10
496.604918000000
20
146.501176000000
30
0.0
11
550.994332000000
21
146.501176000000
31
0.0
0
LINE
5
5c0
100
AcDbEntity
8
B-0
6
CONTINUOUS
62
6
100
AcDbLine
10
563.078882000000
20
146.501176000000
30
0.0
11
576.078882000000
21
146.501176000000
31
0.0
0
LINE
5
5c1
100
AcDbEntity
8
B-0
6
CONTINUOUS
62
6
100
AcDbLine
10
597.324440000000
20
146.501176000000
30
0.0
11
610.295402000000
21
146.501176000000
31
0.0
0
LINE
5
5c2
100
AcDbEntity
8
B-0
6
CONTINUOUS
62
6
100
AcDbLine
10
611.866476000000
20
146.501176000000
30
0.0
11
622.866476000000
21
146.501176000000
31
0.0
0
LINE
5
5c3
100
AcDbEntity
8
B-0
6
CONTINUOUS
62
6
100
AcDbLine
10
319.435600000000
20
148.501176000000
30
0.0
11
370.505039000000
21
148.501176000000
31
0.0
0
LINE
5
5c4
100
AcDbEntity
8
B-0
6
CONTINUOUS
62
6
100
AcDbLine
10
384.449249000000
20
148.501176000000
30
0.0
11
397.449249000000
21
148.501176000000
31
0.0
0
LINE
5
5c5
100
AcDbEntity
8
B-0
6
CONTINUOUS
62
6
100
AcDbLine
10
424.839894000000
20
148.501176000000
30
0.0
11
438.598928000000
21
148.501176000000
31
0.0
0
LINE
5
5c6
100
AcDbEntity
8
B-0
6
CONTINUOUS
62
6
100
AcDbLine
10
460.034171000000
20
148.501176000000
30
0.0
11
473.034171000000
21
148.501176000000
31
0.0
0
LINE
5
5c7
100
AcDbEntity
8
B-0
6
CONTINUOUS
62
6
100
AcDbLine
10
474.537533000000
20
148.501176000000
30
0.0
11
487.537533000000
21
148.501176000000
31
0.0
0
LINE
5
5c8
100
AcDbEntity
8
B-0
6
CONTINUOUS
62
6
100
AcDbLine
10
497.537533000000
20
148.501176000000
30
0.0
11
550.061716000000
21
148.501176000000
31
0.0
0
LINE
5
5c9
100
AcDbEntity
8
B-0
6
CONTINUOUS
62
6
100
AcDbLine
10
563.078882000000
20
148.501176000000
30
0.0
11
576.078882000000
21
148.501176000000
31
0.0
0
LINE
5
5ca
100
AcDbEntity
8
B-0
6
CONTINUOUS
62
6
100
AcDbLine
10
596.074701000000
20
148.501176000000
30
0.0
11
609.045664000000
21
148.501176000000
31
0.0
0
LINE
5
5cb
100
AcDbEntity
8
B-0
6
CONTINUOUS
62
6
100
AcDbLine
10
611.866476000000
20
148.501176000000
30
0.0
11
622.866476000000
21
148.501176000000
31
0.0
0
LINE
5
5cc
100
AcDbEntity
8
B-0
6
CONTINUOUS
62
6
100
AcDbLine
10
320.368215000000
20
150.501176000000
30
0.0
11
369.572424000000
21
150.501176000000
31
0.0
0
LINE
5
5cd
100
AcDbEntity
8
B-0
6
CONTINUOUS
62
6
100
AcDbLine
10
384.449249000000
20
150.501176000000
30
0.0
11
397.449249000000
21
150.501176000000
31
0.0
0
LINE
5
5ce
100
AcDbEntity
8
B-0
6
CONTINUOUS
62
6
100
AcDbLine
10
425.923783000000
20
150.501176000000
30
0.0
11
439.098265000000
21
150.501176000000
31
0.0
0
LINE
5
5cf
100
AcDbEntity
8
B-0
6
CONTINUOUS
62
6
100
AcDbLine
10
459.101556000000
20
150.501176000000
30
0.0
11
472.101556000000
21
150.501176000000
31
0.0
0
LINE
5
5d0
100
AcDbEntity
8
B-0
6
CONTINUOUS
62
6
100
AcDbLine
10
475.470149000000
20
150.501176000000
30
0.0
11
488.470149000000
21
150.501176000000
31
0.0
0
LINE
5
5d1
100
AcDbEntity
8
B-0
6
CONTINUOUS
62
6
100
AcDbLine
10
498.470149000000
20
150.501176000000
30
0.0
11
549.129101000000
21
150.501176000000
31
0.0
0
LINE
5
5d2
100
AcDbEntity
8
B-0
6
CONTINUOUS
62
6
100
AcDbLine
10
563.078882000000
20
150.501176000000
30
0.0
11
576.078882000000
21
150.501176000000
31
0.0
0
LINE
5
5d3
100
AcDbEntity
8
B-0
6
CONTINUOUS
62
6
100
AcDbLine
10
594.824963000000
20
150.501176000000
30
0.0
11
607.795925000000
21
150.501176000000
31
0.0
0
LINE
5
5d4
100
AcDbEntity
8
B-0
6
CONTINUOUS
62
6
100
AcDbLine
10
611.866476000000
20
150.501176000000
30
0.0
11
622.866476000000
21
150.501176000000
31
0.0
0
LINE
5
5d5
100
AcDbEntity
8
B-0
6
CONTINUOUS
62
6
100
AcDbLine
10
321.300830000000
20
152.501176000000
30
0.0
11
368.639809000000
21
152.501176000000
31
0.0
0
LINE
5
5d6
100
AcDbEntity
8
B-0
6
CONTINUOUS
62
6
100
AcDbLine
10
384.449249000000
20
152.501176000000
30
0.0
11
397.449249000000
21
152.501176000000
31
0.0
0
LINE
5
5d7
100
AcDbEntity
8
B-0
6
CONTINUOUS
62
6
100
AcDbLine
10
426.602066000000
20
152.501176000000
30
0.0
11
439.525968000000
21
152.501176000000
31
0.0
0
LINE
5
5d8
100
AcDbEntity
8
B-0
6
CONTINUOUS
62
6
100
AcDbLine
10
458.168940000000
20
152.501176000000
30
0.0
11
471.168940000000
21
152.501176000000
31
0.0
0
LINE
5
5d9
100
AcDbEntity
8
B-0
6
CONTINUOUS
62
6
100
AcDbLine
10
476.402764000000
20
152.501176000000
30
0.0
11
489.402764000000
21
152.501176000000
31
0.0
0
LINE
5
5da
100
AcDbEntity
8
B-0
6
CONTINUOUS
62
6
100
AcDbLine
10
499.402764000000
20
152.501176000000
30
0.0
11
548.196486000000
21
152.501176000000
31
0.0
0
LINE
5
5db
100
AcDbEntity
8
B-0
6
CONTINUOUS
62
6
100
AcDbLine
10
563.078882000000
20
152.501176000000
30
0.0
11
576.078882000000
21
152.501176000000
31
0.0
0
LINE
5
5dc
100
AcDbEntity
8
B-0
6
CONTINUOUS
62
6
100
AcDbLine
10
593.575224000000
20
152.501176000000
30
0.0
11
606.546186000000
21
152.501176000000
31
0.0
0
LINE
5
5dd
100
AcDbEntity
8
B-0
6
CONTINUOUS
62
6
100
AcDbLine
10
611.866476000000
20
152.501176000000
30
0.0
11
622.866476000000
21
152.501176000000
31
0.0
0
LINE
5
5de
100
AcDbEntity
8
B-0
6
CONTINUOUS
62
6
100
AcDbLine
10
322.233446000000
20
154.501176000000
30
0.0
11
367.707194000000
21
154.501176000000
31
0.0
0
LINE
5
5df
100
AcDbEntity
8
B-0
6
CONTINUOUS
62
6
100
AcDbLine
10
384.449249000000
20
154.501176000000
30
0.0
11
397.449249000000
21
154.501176000000
31
0.0
0
LINE
5
5e0
100
AcDbEntity
8
B-0
6
CONTINUOUS
62
6
100
AcDbLine
10
427.015529000000
20
154.501176000000
30
0.0
11
439.874440000000
21
154.501176000000
31
0.0
0
LINE
5
5e1
100
AcDbEntity
8
B-0
6
CONTINUOUS
62
6
100
AcDbLine
10
457.236325000000
20
154.501176000000
30
0.0
11
470.236325000000
21
154.501176000000
31
0.0
0
LINE
5
5e2
100
AcDbEntity
8
B-0
6
CONTINUOUS
62
6
100
AcDbLine
10
477.335379000000
20
154.501176000000
30
0.0
11
490.335379000000
21
154.501176000000
31
0.0
0
LINE
5
5e3
100
AcDbEntity
8
B-0
6
CONTINUOUS
62
6
100
AcDbLine
10
500.335379000000
20
154.501176000000
30
0.0
11
547.263870000000
21
154.501176000000
31
0.0
0
LINE
5
5e4
100
AcDbEntity
8
B-0
6
CONTINUOUS
62
6
100
AcDbLine
10
563.078882000000
20
154.501176000000
30
0.0
11
576.078882000000
21
154.501176000000
31
0.0
0
LINE
5
5e5
100
AcDbEntity
8
B-0
6
CONTINUOUS
62
6
100
AcDbLine
10
592.325485000000
20
154.501176000000
30
0.0
11
605.296448000000
21
154.501176000000
31
0.0
0
LINE
5
5e6
100
AcDbEntity
8
B-0
6
CONTINUOUS
62
6
100
AcDbLine
10
611.866476000000
20
154.501176000000
30
0.0
11
622.866476000000
21
154.501176000000
31
0.0
0
LINE
5
5e7
100
AcDbEntity
8
B-0
6
CONTINUOUS
62
6
100
AcDbLine
10
323.166061000000
20
156.501176000000
30
0.0
11
336.166061000000
21
156.501176000000
31
0.0
0
LINE
5
5e8
100
AcDbEntity
8
B-0
6
CONTINUOUS
62
6
100
AcDbLine
10
353.774578000000
20
156.501176000000
30
0.0
11
366.774578000000
21
156.501176000000
31
0.0
0
LINE
5
5e9
100
AcDbEntity
8
B-0
6
CONTINUOUS
62
6
100
AcDbLine
10
384.449249000000
20
156.501176000000
30
0.0
11
397.449249000000
21
156.501176000000
31
0.0
0
LINE
5
5ea
100
AcDbEntity
8
B-0
6
CONTINUOUS
62
6
100
AcDbLine
10
427.258722000000
20
156.501176000000
30
0.0
11
440.142433000000
21
156.501176000000
31
0.0
0
LINE
5
5eb
100
AcDbEntity
8
B-0
6
CONTINUOUS
62
6
100
AcDbLine
10
456.303710000000
20
156.501176000000
30
0.0
11
469.303710000000
21
156.501176000000
31
0.0
0
LINE
5
5ec
100
AcDbEntity
8
B-0
6
CONTINUOUS
62
6
100
AcDbLine
10
478.267995000000
20
156.501176000000
30
0.0
11
491.267995000000
21
156.501176000000
31
0.0
0
LINE
5
5ed
100
AcDbEntity
8
B-0
6
CONTINUOUS
62
6
100
AcDbLine
10
501.267995000000
20
156.501176000000
30
0.0
11
514.267995000000
21
156.501176000000
31
0.0
0
LINE
5
5ee
100
AcDbEntity
8
B-0
6
CONTINUOUS
62
6
100
AcDbLine
10
533.331255000000
20
156.501176000000
30
0.0
11
546.331255000000
21
156.501176000000
31
0.0
0
LINE
5
5ef
100
AcDbEntity
8
B-0
6
CONTINUOUS
62
6
100
AcDbLine
10
563.078882000000
20
156.501176000000
30
0.0
11
576.078882000000
21
156.501176000000
31
0.0
0
LINE
5
5f0
100
AcDbEntity
8
B-0
6
CONTINUOUS
62
6
100
AcDbLine
10
591.075747000000
20
156.501176000000
30
0.0
11
604.046709000000
21
156.501176000000
31
0.0
0
LINE
5
5f1
100
AcDbEntity
8
B-0
6
CONTINUOUS
62
6
100
AcDbLine
10
611.866476000000
20
156.501176000000
30
0.0
11
622.866476000000
21
156.501176000000
31
0.0
0
LINE
5
5f2
100
AcDbEntity
8
B-0
6
CONTINUOUS
62
6
100
AcDbLine
10
324.098676000000
20
158.501176000000
30
0.0
11
337.098676000000
21
158.501176000000
31
0.0
0
LINE
5
5f3
100
AcDbEntity
8
B-0
6
CONTINUOUS
62
6
100
AcDbLine
10
352.841963000000
20
158.501176000000
30
0.0
11
365.841963000000
21
158.501176000000
31
0.0
0
LINE
5
5f4
100
AcDbEntity
8
B-0
6
CONTINUOUS
62
6
100
AcDbLine
10
384.449249000000
20
158.501176000000
30
0.0
11
397.449249000000
21
158.501176000000
31
0.0
0
LINE
5
5f5
100
AcDbEntity
8
B-0
6
CONTINUOUS
62
6
100
AcDbLine
10
427.388361000000
20
158.501176000000
30
0.0
11
440.328448000000
21
158.501176000000
31
0.0
0
LINE
5
5f6
100
AcDbEntity
8
B-0
6
CONTINUOUS
62
6
100
AcDbLine
10
455.371094000000
20
158.501176000000
30
0.0
11
468.371094000000
21
158.501176000000
31
0.0
0
LINE
5
5f7
100
AcDbEntity
8
B-0
6
CONTINUOUS
62
6
100
AcDbLine
10
479.200610000000
20
158.501176000000
30
0.0
11
492.200610000000
21
158.501176000000
31
0.0
0
LINE
5
5f8
100
AcDbEntity
8
B-0
6
CONTINUOUS
62
6
100
AcDbLine
10
502.200610000000
20
158.501176000000
30
0.0
11
515.200610000000
21
158.501176000000
31
0.0
0
LINE
5
5f9
100
AcDbEntity
8
B-0
6
CONTINUOUS
62
6
100
AcDbLine
10
532.398640000000
20
158.501176000000
30
0.0
11
545.398640000000
21
158.501176000000
31
0.0
0
LINE
5
5fa
100
AcDbEntity
8
B-0
6
CONTINUOUS
62
6
100
AcDbLine
10
563.078882000000
20
158.501176000000
30
0.0
11
576.078882000000
21
158.501176000000
31
0.0
0
LINE
5
5fb
100
AcDbEntity
8
B-0
6
CONTINUOUS
62
6
100
AcDbLine
10
589.826008000000
20
158.501176000000
30
0.0
11
602.796970000000
21
158.501176000000
31
0.0
0
LINE
5
5fc
100
AcDbEntity
8
B-0
6
CONTINUOUS
62
6
100
AcDbLine
10
611.866476000000
20
158.501176000000
30
0.0
11
622.866476000000
21
158.501176000000
31
0.0
0
LINE
5
5fd
100
AcDbEntity
8
B-0
6
CONTINUOUS
62
6
100
AcDbLine
10
325.031292000000
20
160.501176000000
30
0.0
11
338.031292000000
21
160.501176000000
31
0.0
0
LINE
5
5fe
100
AcDbEntity
8
B-0
6
CONTINUOUS
62
6
100
AcDbLine
10
351.909348000000
20
160.501176000000
30
0.0
11
364.909348000000
21
160.501176000000
31
0.0
0
LINE
5
5ff
100
AcDbEntity
8
B-0
6
CONTINUOUS
62
6
100
AcDbLine
10
384.449249000000
20
160.501176000000
30
0.0
11
397.449249000000
21
160.501176000000
31
0.0
0
LINE
5
600
100
AcDbEntity
8
B-0
6
CONTINUOUS
62
6
100
AcDbLine
10
427.442731000000
20
160.501176000000
30
0.0
11
440.431574000000
21
160.501176000000
31
0.0
0
LINE
5
601
100
AcDbEntity
8
B-0
6
CONTINUOUS
62
6
100
AcDbLine
10
454.438479000000
20
160.501176000000
30
0.0
11
467.438479000000
21
160.501176000000
31
0.0
0
LINE
5
602
100
AcDbEntity
8
B-0
6
CONTINUOUS
62
6
100
AcDbLine
10
480.133225000000
20
160.501176000000
30
0.0
11
493.133225000000
21
160.501176000000
31
0.0
0
LINE
5
603
100
AcDbEntity
8
B-0
6
CONTINUOUS
62
6
100
AcDbLine
10
503.133225000000
20
160.501176000000
30
0.0
11
516.133225000000
21
160.501176000000
31
0.0
0
LINE
5
604
100
AcDbEntity
8
B-0
6
CONTINUOUS
62
6
100
AcDbLine
10
531.466024000000
20
160.501176000000
30
0.0
11
544.466024000000
21
160.501176000000
31
0.0
0
LINE
5
605
100
AcDbEntity
8
B-0
6
CONTINUOUS
62
6
100
AcDbLine
10
563.078882000000
20
160.501176000000
30
0.0
11
576.078882000000
21
160.501176000000
31
0.0
0
LINE
5
606
100
AcDbEntity
8
B-0
6
CONTINUOUS
62
6
100
AcDbLine
10
588.576269000000
20
160.501176000000
30
0.0
11
601.547232000000
21
160.501176000000
31
0.0
0
LINE
5
607
100
AcDbEntity
8
B-0
6
CONTINUOUS
62
6
100
AcDbLine
10
611.866476000000
20
160.501176000000
30
0.0
11
622.866476000000
21
160.501176000000
31
0.0
0
LINE
5
608
100
AcDbEntity
8
B-0
6
CONTINUOUS
62
6
100
AcDbLine
10
325.963907000000
20
162.501176000000
30
0.0
11
338.963907000000
21
162.501176000000
31
0.0
0
LINE
5
609
100
AcDbEntity
8
B-0
6
CONTINUOUS
62
6
100
AcDbLine
10
350.976732000000
20
162.501176000000
30
0.0
11
363.976732000000
21
162.501176000000
31
0.0
0
LINE
5
60a
100
AcDbEntity
8
B-0
6
CONTINUOUS
62
6
100
AcDbLine
10
384.449249000000
20
162.501176000000
30
0.0
11
397.449249000000
21
162.501176000000
31
0.0
0
LINE
5
60b
100
AcDbEntity
8
B-0
6
CONTINUOUS
62
6
100
AcDbLine
10
427.445120000000
20
162.501176000000
30
0.0
11
440.438052000000
21
162.501176000000
31
0.0
0
LINE
5
60c
100
AcDbEntity
8
B-0
6
CONTINUOUS
62
6
100
AcDbLine
10
453.505864000000
20
162.501176000000
30
0.0
11
466.505864000000
21
162.501176000000
31
0.0
0
LINE
5
60d
100
AcDbEntity
8
B-0
6
CONTINUOUS
62
6
100
AcDbLine
10
481.065841000000
20
162.501176000000
30
0.0
11
494.065841000000
21
162.501176000000
31
0.0
0
LINE
5
60e
100
AcDbEntity
8
B-0
6
CONTINUOUS
62
6
100
AcDbLine
10
504.065841000000
20
162.501176000000
30
0.0
11
517.065841000000
21
162.501176000000
31
0.0
0
LINE
5
60f
100
AcDbEntity
8
B-0
6
CONTINUOUS
62
6
100
AcDbLine
10
530.533409000000
20
162.501176000000
30
0.0
11
543.533409000000
21
162.501176000000
31
0.0
0
LINE
5
610
100
AcDbEntity
8
B-0
6
CONTINUOUS
62
6
100
AcDbLine
10
563.078882000000
20
162.501176000000
30
0.0
11
576.078882000000
21
162.501176000000
31
0.0
0
LINE
5
611
100
AcDbEntity
8
B-0
6
CONTINUOUS
62
6
100
AcDbLine
10
587.326530000000
20
162.501176000000
30
0.0
11
600.297493000000
21
162.501176000000
31
0.0
0
LINE
5
612
100
AcDbEntity
8
B-0
6
CONTINUOUS
62
6
100
AcDbLine
10
611.866476000000
20
162.501176000000
30
0.0
11
622.866476000000
21
162.501176000000
31
0.0
0
LINE
5
613
100
AcDbEntity
8
B-0
6
CONTINUOUS
62
6
100
AcDbLine
10
326.896522000000
20
164.501176000000
30
0.0
11
339.896522000000
21
164.501176000000
31
0.0
0
LINE
5
614
100
AcDbEntity
8
B-0
6
CONTINUOUS
62
6
100
AcDbLine
10
350.044117000000
20
164.501176000000
30
0.0
11
363.044117000000
21
164.501176000000
31
0.0
0
LINE
5
615
100
AcDbEntity
8
B-0
6
CONTINUOUS
62
6
100
AcDbLine
10
384.449249000000
20
164.501176000000
30
0.0
11
397.449249000000
21
164.501176000000
31
0.0
0
LINE
5
616
100
AcDbEntity
8
B-0
6
CONTINUOUS
62
6
100
AcDbLine
10
427.401862000000
20
164.501176000000
30
0.0
11
440.352290000000
21
164.501176000000
31
0.0
0
LINE
5
617
100
AcDbEntity
8
B-0
6
CONTINUOUS
62
6
100
AcDbLine
10
452.573249000000
20
164.501176000000
30
0.0
11
465.573249000000
21
164.501176000000
31
0.0
0
LINE
5
618
100
AcDbEntity
8
B-0
6
CONTINUOUS
62
6
100
AcDbLine
10
481.998456000000
20
164.501176000000
30
0.0
11
494.998456000000
21
164.501176000000
31
0.0
0
LINE
5
619
100
AcDbEntity
8
B-0
6
CONTINUOUS
62
6
100
AcDbLine
10
504.998456000000
20
164.501176000000
30
0.0
11
517.998456000000
21
164.501176000000
31
0.0
0
LINE
5
61a
100
AcDbEntity
8
B-0
6
CONTINUOUS
62
6
100
AcDbLine
10
529.600794000000
20
164.501176000000
30
0.0
11
542.600794000000
21
164.501176000000
31
0.0
0
LINE
5
61b
100
AcDbEntity
8
B-0
6
CONTINUOUS
62
6
100
AcDbLine
10
563.078882000000
20
164.501176000000
30
0.0
11
576.078882000000
21
164.501176000000
31
0.0
0
LINE
5
61c
100
AcDbEntity
8
B-0
6
CONTINUOUS
62
6
100
AcDbLine
10
586.076792000000
20
164.501176000000
30
0.0
11
599.047754000000
21
164.501176000000
31
0.0
0
LINE
5
61d
100
AcDbEntity
8
B-0
6
CONTINUOUS
62
6
100
AcDbLine
10
611.866476000000
20
164.501176000000
30
0.0
11
622.866476000000
21
164.501176000000
31
0.0
0
LINE
5
61e
100
AcDbEntity
8
B-0
6
CONTINUOUS
62
6
100
AcDbLine
10
327.829138000000
20
166.501176000000
30
0.0
11
340.829138000000
21
166.501176000000
31
0.0
0
LINE
5
61f
100
AcDbEntity
8
B-0
6
CONTINUOUS
62
6
100
AcDbLine
10
349.111502000000
20
166.501176000000
30
0.0
11
362.111502000000
21
166.501176000000
31
0.0
0
LINE
5
620
100
AcDbEntity
8
B-0
6
CONTINUOUS
62
6
100
AcDbLine
10
384.449249000000
20
166.501176000000
30
0.0
11
397.449249000000
21
166.501176000000
31
0.0
0
LINE
5
621
100
AcDbEntity
8
B-0
6
CONTINUOUS
62
6
100
AcDbLine
10
427.296656000000
20
166.501176000000
30
0.0
11
440.187713000000
21
166.501176000000
31
0.0
0
LINE
5
622
100
AcDbEntity
8
B-0
6
CONTINUOUS
62
6
100
AcDbLine
10
451.640633000000
20
166.501176000000
30
0.0
11
464.640633000000
21
166.501176000000
31
0.0
0
LINE
5
623
100
AcDbEntity
8
B-0
6
CONTINUOUS
62
6
100
AcDbLine
10
482.931071000000
20
166.501176000000
30
0.0
11
495.931071000000
21
166.501176000000
31
0.0
0
LINE
5
624
100
AcDbEntity
8
B-0
6
CONTINUOUS
62
6
100
AcDbLine
10
505.931071000000
20
166.501176000000
30
0.0
11
518.931071000000
21
166.501176000000
31
0.0
0
LINE
5
625
100
AcDbEntity
8
B-0
6
CONTINUOUS
62
6
100
AcDbLine
10
528.668178000000
20
166.501176000000
30
0.0
11
541.668178000000
21
166.501176000000
31
0.0
0
LINE
5
626
100
AcDbEntity
8
B-0
6
CONTINUOUS
62
6
100
AcDbLine
10
563.078882000000
20
166.501176000000
30
0.0
11
576.078882000000
21
166.501176000000
31
0.0
0
LINE
5
627
100
AcDbEntity
8
B-0
6
CONTINUOUS
62
6
100
AcDbLine
10
584.827053000000
20
166.501176000000
30
0.0
11
597.798015000000
21
166.501176000000
31
0.0
0
LINE
5
628
100
AcDbEntity
8
B-0
6
CONTINUOUS
62
6
100
AcDbLine
10
611.866476000000
20
166.501176000000
30
0.0
11
622.866476000000
21
166.501176000000
31
0.0
0
LINE
5
629
100
AcDbEntity
8
B-0
6
CONTINUOUS
62
6
100
AcDbLine
10
328.761753000000
20
168.501176000000
30
0.0
11
341.761753000000
21
168.501176000000
31
0.0
0
LINE
5
62a
100
AcDbEntity
8
B-0
6
CONTINUOUS
62
6
100
AcDbLine
10
348.178886000000
20
168.501176000000
30
0.0
11
361.178886000000
21
168.501176000000
31
0.0
0
LINE
5
62b
100
AcDbEntity
8
B-0
6
CONTINUOUS
62
6
100
AcDbLine
10
384.449249000000
20
168.501176000000
30
0.0
11
397.449249000000
21
168.501176000000
31
0.0
0
LINE
5
62c
100
AcDbEntity
8
B-0
6
CONTINUOUS
62
6
100
AcDbLine
10
427.092308000000
20
168.501176000000
30
0.0
11
439.940583000000
21
168.501176000000
31
0.0
0
LINE
5
62d
100
AcDbEntity
8
B-0
6
CONTINUOUS
62
6
100
AcDbLine
10
450.708018000000
20
168.501176000000
30
0.0
11
463.708018000000
21
168.501176000000
31
0.0
0
LINE
5
62e
100
AcDbEntity
8
B-0
6
CONTINUOUS
62
6
100
AcDbLine
10
483.863687000000
20
168.501176000000
30
0.0
11
496.863687000000
21
168.501176000000
31
0.0
0
LINE
5
62f
100
AcDbEntity
8
B-0
6
CONTINUOUS
62
6
100
AcDbLine
10
506.863687000000
20
168.501176000000
30
0.0
11
519.863687000000
21
168.501176000000
31
0.0
0
LINE
5
630
100
AcDbEntity
8
B-0
6
CONTINUOUS
62
6
100
AcDbLine
10
527.735563000000
20
168.501176000000
30
0.0
11
540.735563000000
21
168.501176000000
31
0.0
0
LINE
5
631
100
AcDbEntity
8
B-0
6
CONTINUOUS
62
6
100
AcDbLine
10
563.078882000000
20
168.501176000000
30
0.0
11
576.078882000000
21
168.501176000000
31
0.0
0
LINE
5
632
100
AcDbEntity
8
B-0
6
CONTINUOUS
62
6
100
AcDbLine
10
583.577314000000
20
168.501176000000
30
0.0
11
596.548277000000
21
168.501176000000
31
0.0
0
LINE
5
633
100
AcDbEntity
8
B-0
6
CONTINUOUS
62
6
100
AcDbLine
10
611.866476000000
20
168.501176000000
30
0.0
11
622.866476000000
21
168.501176000000
31
0.0
0
LINE
5
634
100
AcDbEntity
8
B-0
6
CONTINUOUS
62
6
100
AcDbLine
10
329.694368000000
20
170.501176000000
30
0.0
11
342.694368000000
21
170.501176000000
31
0.0
0
LINE
5
635
100
AcDbEntity
8
B-0
6
CONTINUOUS
62
6
100
AcDbLine
10
347.246271000000
20
170.501176000000
30
0.0
11
360.246271000000
21
170.501176000000
31
0.0
0
LINE
5
636
100
AcDbEntity
8
B-0
6
CONTINUOUS
62
6
100
AcDbLine
10
384.449249000000
20
170.501176000000
30
0.0
11
397.449249000000
21
170.501176000000
31
0.0
0
LINE
5
637
100
AcDbEntity
8
B-0
6
CONTINUOUS
62
6
100
AcDbLine
10
426.736830000000
20
170.501176000000
30
0.0
11
439.612460000000
21
170.501176000000
31
0.0
0
LINE
5
638
100
AcDbEntity
8
B-0
6
CONTINUOUS
62
6
100
AcDbLine
10
449.775403000000
20
170.501176000000
30
0.0
11
462.775403000000
21
170.501176000000
31
0.0
0
LINE
5
639
100
AcDbEntity
8
B-0
6
CONTINUOUS
62
6
100
AcDbLine
10
484.796302000000
20
170.501176000000
30
0.0
11
497.796302000000
21
170.501176000000
31
0.0
0
LINE
5
63a
100
AcDbEntity
8
B-0
6
CONTINUOUS
62
6
100
AcDbLine
10
507.796302000000
20
170.501176000000
30
0.0
11
520.796302000000
21
170.501176000000
31
0.0
0
LINE
5
63b
100
AcDbEntity
8
B-0
6
CONTINUOUS
62
6
100
AcDbLine
10
526.802948000000
20
170.501176000000
30
0.0
11
539.802948000000
21
170.501176000000
31
0.0
0
LINE
5
63c
100
AcDbEntity
8
B-0
6
CONTINUOUS
62
6
100
AcDbLine
10
563.078882000000
20
170.501176000000
30
0.0
11
576.078882000000
21
170.501176000000
31
0.0
0
LINE
5
63d
100
AcDbEntity
8
B-0
6
CONTINUOUS
62
6
100
AcDbLine
10
582.327576000000
20
170.501176000000
30
0.0
11
595.298538000000
21
170.501176000000
31
0.0
0
LINE
5
63e
100
AcDbEntity
8
B-0
6
CONTINUOUS
62
6
100
AcDbLine
10
611.866476000000
20
170.501176000000
30
0.0
11
622.866476000000
21
170.501176000000
31
0.0
0
LINE
5
63f
100
AcDbEntity
8
B-0
6
CONTINUOUS
62
6
100
AcDbLine
10
330.626984000000
20
172.501176000000
30
0.0
11
343.626984000000
21
172.501176000000
31
0.0
0
LINE
5
640
100
AcDbEntity
8
B-0
6
CONTINUOUS
62
6
100
AcDbLine
10
346.313656000000
20
172.501176000000
30
0.0
11
359.313656000000
21
172.501176000000
31
0.0
0
LINE
5
641
100
AcDbEntity
8
B-0
6
CONTINUOUS
62
6
100
AcDbLine
10
384.449249000000
20
172.501176000000
30
0.0
11
397.449249000000
21
172.501176000000
31
0.0
0
LINE
5
642
100
AcDbEntity
8
B-0
6
CONTINUOUS
62
6
100
AcDbLine
10
426.136168000000
20
172.501176000000
30
0.0
11
439.204650000000
21
172.501176000000
31
0.0
0
LINE
5
643
100
AcDbEntity
8
B-0
6
CONTINUOUS
62
6
100
AcDbLine
10
448.842787000000
20
172.501176000000
30
0.0
11
461.842787000000
21
172.501176000000
31
0.0
0
LINE
5
644
100
AcDbEntity
8
B-0
6
CONTINUOUS
62
6
100
AcDbLine
10
485.728917000000
20
172.501176000000
30
0.0
11
498.728917000000
21
172.501176000000
31
0.0
0
LINE
5
645
100
AcDbEntity
8
B-0
6
CONTINUOUS
62
6
100
AcDbLine
10
508.728917000000
20
172.501176000000
30
0.0
11
521.728917000000
21
172.501176000000
31
0.0
0
LINE
5
646
100
AcDbEntity
8
B-0
6
CONTINUOUS
62
6
100
AcDbLine
10
525.870332000000
20
172.501176000000
30
0.0
11
538.870332000000
21
172.501176000000
31
0.0
0
LINE
5
647
100
AcDbEntity
8
B-0
6
CONTINUOUS
62
6
100
AcDbLine
10
563.078882000000
20
172.501176000000
30
0.0
11
576.078882000000
21
172.501176000000
31
0.0
0
LINE
5
648
100
AcDbEntity
8
B-0
6
CONTINUOUS
62
6
100
AcDbLine
10
581.077837000000
20
172.501176000000
30
0.0
11
594.048799000000
21
172.501176000000
31
0.0
0
LINE
5
649
100
AcDbEntity
8
B-0
6
CONTINUOUS
62
6
100
AcDbLine
10
611.866476000000
20
172.501176000000
30
0.0
11
622.866476000000
21
172.501176000000
31
0.0
0
LINE
5
64a
100
AcDbEntity
8
B-0
6
CONTINUOUS
62
6
100
AcDbLine
10
331.559599000000
20
174.501176000000
30
0.0
11
344.559599000000
21
174.501176000000
31
0.0
0
LINE
5
64b
100
AcDbEntity
8
B-0
6
CONTINUOUS
62
6
100
AcDbLine
10
345.381040000000
20
174.501176000000
30
0.0
11
358.381040000000
21
174.501176000000
31
0.0
0
LINE
5
64c
100
AcDbEntity
8
B-0
6
CONTINUOUS
62
6
100
AcDbLine
10
384.449249000000
20
174.501176000000
30
0.0
11
397.449249000000
21
174.501176000000
31
0.0
0
LINE
5
64d
100
AcDbEntity
8
B-0
6
CONTINUOUS
62
6
100
AcDbLine
10
425.157862000000
20
174.501176000000
30
0.0
11
438.720761000000
21
174.501176000000
31
0.0
0
LINE
5
64e
100
AcDbEntity
8
B-0
6
CONTINUOUS
62
6
100
AcDbLine
10
447.910172000000
20
174.501176000000
30
0.0
11
460.910172000000
21
174.501176000000
31
0.0
0
LINE
5
64f
100
AcDbEntity
8
B-0
6
CONTINUOUS
62
6
100
AcDbLine
10
486.661533000000
20
174.501176000000
30
0.0
11
499.661533000000
21
174.501176000000
31
0.0
0
LINE
5
650
100
AcDbEntity
8
B-0
6
CONTINUOUS
62
6
100
AcDbLine
10
509.661533000000
20
174.501176000000
30
0.0
11
522.661533000000
21
174.501176000000
31
0.0
0
LINE
5
651
100
AcDbEntity
8
B-0
6
CONTINUOUS
62
6
100
AcDbLine
10
524.937717000000
20
174.501176000000
30
0.0
11
537.937717000000
21
174.501176000000
31
0.0
0
LINE
5
652
100
AcDbEntity
8
B-0
6
CONTINUOUS
62
6
100
AcDbLine
10
563.078882000000
20
174.501176000000
30
0.0
11
576.078882000000
21
174.501176000000
31
0.0
0
LINE
5
653
100
AcDbEntity
8
B-0
6
CONTINUOUS
62
6
100
AcDbLine
10
579.828098000000
20
174.501176000000
30
0.0
11
592.799061000000
21
174.501176000000
31
0.0
0
LINE
5
654
100
AcDbEntity
8
B-0
6
CONTINUOUS
62
6
100
AcDbLine
10
611.866476000000
20
174.501176000000
30
0.0
11
622.866476000000
21
174.501176000000
31
0.0
0
LINE
5
655
100
AcDbEntity
8
B-0
6
CONTINUOUS
62
6
100
AcDbLine
10
332.492214000000
20
176.501176000000
30
0.0
11
357.448425000000
21
176.501176000000
31
0.0
0
LINE
5
656
100
AcDbEntity
8
B-0
6
CONTINUOUS
62
6
100
AcDbLine
10
384.449249000000
20
176.501176000000
30
0.0
11
397.449249000000
21
176.501176000000
31
0.0
0
LINE
5
657
100
AcDbEntity
8
B-0
6
CONTINUOUS
62
6
100
AcDbLine
10
423.496580000000
20
176.501176000000
30
0.0
11
438.150470000000
21
176.501176000000
31
0.0
0
LINE
5
658
100
AcDbEntity
8
B-0
6
CONTINUOUS
62
6
100
AcDbLine
10
446.977557000000
20
176.501176000000
30
0.0
11
459.977557000000
21
176.501176000000
31
0.0
0
LINE
5
659
100
AcDbEntity
8
B-0
6
CONTINUOUS
62
6
100
AcDbLine
10
487.594148000000
20
176.501176000000
30
0.0
11
500.594148000000
21
176.501176000000
31
0.0
0
LINE
5
65a
100
AcDbEntity
8
B-0
6
CONTINUOUS
62
6
100
AcDbLine
10
510.594148000000
20
176.501176000000
30
0.0
11
523.594148000000
21
176.501176000000
31
0.0
0
LINE
5
65b
100
AcDbEntity
8
B-0
6
CONTINUOUS
62
6
100
AcDbLine
10
524.005102000000
20
176.501176000000
30
0.0
11
537.005102000000
21
176.501176000000
31
0.0
0
LINE
5
65c
100
AcDbEntity
8
B-0
6
CONTINUOUS
62
6
100
AcDbLine
10
563.078882000000
20
176.501176000000
30
0.0
11
576.078882000000
21
176.501176000000
31
0.0
0
LINE
5
65d
100
AcDbEntity
8
B-0
6
CONTINUOUS
62
6
100
AcDbLine
10
578.578359000000
20
176.501176000000
30
0.0
11
591.549322000000
21
176.501176000000
31
0.0
0
LINE
5
65e
100
AcDbEntity
8
B-0
6
CONTINUOUS
62
6
100
AcDbLine
10
611.866476000000
20
176.501176000000
30
0.0
11
622.866476000000
21
176.501176000000
31
0.0
0
LINE
5
65f
100
AcDbEntity
8
B-0
6
CONTINUOUS
62
6
100
AcDbLine
10
333.424830000000
20
178.501176000000
30
0.0
11
356.515810000000
21
178.501176000000
31
0.0
0
LINE
5
660
100
AcDbEntity
8
B-0
6
CONTINUOUS
62
6
100
AcDbLine
10
384.449249000000
20
178.501176000000
30
0.0
11
397.449249000000
21
178.501176000000
31
0.0
0
LINE
5
661
100
AcDbEntity
8
B-0
6
CONTINUOUS
62
6
100
AcDbLine
10
420.902775000000
20
178.501176000000
30
0.0
11
437.445205000000
21
178.501176000000
31
0.0
0
LINE
5
662
100
AcDbEntity
8
B-0
6
CONTINUOUS
62
6
100
AcDbLine
10
446.044941000000
20
178.501176000000
30
0.0
11
459.044941000000
21
178.501176000000
31
0.0
0
LINE
5
663
100
AcDbEntity
8
B-0
6
CONTINUOUS
62
6
100
AcDbLine
10
488.526763000000
20
178.501176000000
30
0.0
11
501.526763000000
21
178.501176000000
31
0.0
0
LINE
5
664
100
AcDbEntity
8
B-0
6
CONTINUOUS
62
6
100
AcDbLine
10
511.526763000000
20
178.501176000000
30
0.0
11
536.072487000000
21
178.501176000000
31
0.0
0
LINE
5
665
100
AcDbEntity
8
B-0
6
CONTINUOUS
62
6
100
AcDbLine
10
563.078882000000
20
178.501176000000
30
0.0
11
576.078882000000
21
178.501176000000
31
0.0
0
LINE
5
666
100
AcDbEntity
8
B-0
6
CONTINUOUS
62
6
100
AcDbLine
10
577.328621000000
20
178.501176000000
30
0.0
11
590.299583000000
21
178.501176000000
31
0.0
0
LINE
5
667
100
AcDbEntity
8
B-0
6
CONTINUOUS
62
6
100
AcDbLine
10
611.866476000000
20
178.501176000000
30
0.0
11
622.866476000000
21
178.501176000000
31
0.0
0
LINE
5
668
100
AcDbEntity
8
B-0
6
CONTINUOUS
62
6
100
AcDbLine
10
334.357445000000
20
180.501176000000
30
0.0
11
355.583194000000
21
180.501176000000
31
0.0
0
LINE
5
669
100
AcDbEntity
8
B-0
6
CONTINUOUS
62
6
100
AcDbLine
10
384.449249000000
20
180.501176000000
30
0.0
11
397.449249000000
21
180.501176000000
31
0.0
0
LINE
5
66a
100
AcDbEntity
8
B-0
6
CONTINUOUS
62
6
100
AcDbLine
10
417.449249000000
20
180.501176000000
30
0.0
11
436.449249000000
21
180.501176000000
31
0.0
0
LINE
5
66b
100
AcDbEntity
8
B-0
6
CONTINUOUS
62
6
100
AcDbLine
10
445.112326000000
20
180.501176000000
30
0.0
11
458.112326000000
21
180.501176000000
31
0.0
0
LINE
5
66c
100
AcDbEntity
8
B-0
6
CONTINUOUS
62
6
100
AcDbLine
10
489.459378000000
20
180.501176000000
30
0.0
11
502.459378000000
21
180.501176000000
31
0.0
0
LINE
5
66d
100
AcDbEntity
8
B-0
6
CONTINUOUS
62
6
100
AcDbLine
10
512.459378000000
20
180.501176000000
30
0.0
11
535.139871000000
21
180.501176000000
31
0.0
0
LINE
5
66e
100
AcDbEntity
8
B-0
6
CONTINUOUS
62
6
100
AcDbLine
10
563.078882000000
20
180.501176000000
30
0.0
11
576.078882000000
21
180.501176000000
31
0.0
0
LINE
5
66f
100
AcDbEntity
8
B-0
6
CONTINUOUS
62
6
100
AcDbLine
10
576.078882000000
20
180.501176000000
30
0.0
11
589.049845000000
21
180.501176000000
31
0.0
0
LINE
5
670
100
AcDbEntity
8
B-0
6
CONTINUOUS
62
6
100
AcDbLine
10
611.866476000000
20
180.501176000000
30
0.0
11
622.866476000000
21
180.501176000000
31
0.0
0
LINE
5
671
100
AcDbEntity
8
B-0
6
CONTINUOUS
62
6
100
AcDbLine
10
335.290060000000
20
182.501176000000
30
0.0
11
354.650579000000
21
182.501176000000
31
0.0
0
LINE
5
672
100
AcDbEntity
8
B-0
6
CONTINUOUS
62
6
100
AcDbLine
10
384.449249000000
20
182.501176000000
30
0.0
11
434.859383000000
21
182.501176000000
31
0.0
0
LINE
5
673
100
AcDbEntity
8
B-0
6
CONTINUOUS
62
6
100
AcDbLine
10
444.179711000000
20
182.501176000000
30
0.0
11
457.179711000000
21
182.501176000000
31
0.0
0
LINE
5
674
100
AcDbEntity
8
B-0
6
CONTINUOUS
62
6
100
AcDbLine
10
490.391994000000
20
182.501176000000
30
0.0
11
503.391994000000
21
182.501176000000
31
0.0
0
LINE
5
675
100
AcDbEntity
8
B-0
6
CONTINUOUS
62
6
100
AcDbLine
10
513.391994000000
20
182.501176000000
30
0.0
11
534.207256000000
21
182.501176000000
31
0.0
0
LINE
5
676
100
AcDbEntity
8
B-0
6
CONTINUOUS
62
6
100
AcDbLine
10
563.078882000000
20
182.501176000000
30
0.0
11
587.800106000000
21
182.501176000000
31
0.0
0
LINE
5
677
100
AcDbEntity
8
B-0
6
CONTINUOUS
62
6
100
AcDbLine
10
611.866476000000
20
182.501176000000
30
0.0
11
622.866476000000
21
182.501176000000
31
0.0
0
LINE
5
678
100
AcDbEntity
8
B-0
6
CONTINUOUS
62
6
100
AcDbLine
10
336.222676000000
20
184.501176000000
30
0.0
11
353.717964000000
21
184.501176000000
31
0.0
0
LINE
5
679
100
AcDbEntity
8
B-0
6
CONTINUOUS
62
6
100
AcDbLine
10
384.449249000000
20
184.501176000000
30
0.0
11
432.615116000000
21
184.501176000000
31
0.0
0
LINE
5
67a
100
AcDbEntity
8
B-0
6
CONTINUOUS
62
6
100
AcDbLine
10
443.247095000000
20
184.501176000000
30
0.0
11
456.247095000000
21
184.501176000000
31
0.0
0
LINE
5
67b
100
AcDbEntity
8
B-0
6
CONTINUOUS
62
6
100
AcDbLine
10
491.324609000000
20
184.501176000000
30
0.0
11
504.324609000000
21
184.501176000000
31
0.0
0
LINE
5
67c
100
AcDbEntity
8
B-0
6
CONTINUOUS
62
6
100
AcDbLine
10
514.324609000000
20
184.501176000000
30
0.0
11
533.274641000000
21
184.501176000000
31
0.0
0
LINE
5
67d
100
AcDbEntity
8
B-0
6
CONTINUOUS
62
6
100
AcDbLine
10
563.078882000000
20
184.501176000000
30
0.0
11
586.550367000000
21
184.501176000000
31
0.0
0
LINE
5
67e
100
AcDbEntity
8
B-0
6
CONTINUOUS
62
6
100
AcDbLine
10
611.866476000000
20
184.501176000000
30
0.0
11
622.866476000000
21
184.501176000000
31
0.0
0
LINE
5
67f
100
AcDbEntity
8
B-0
6
CONTINUOUS
62
6
100
AcDbLine
10
337.155291000000
20
186.501176000000
30
0.0
11
352.785348000000
21
186.501176000000
31
0.0
0
LINE
5
680
100
AcDbEntity
8
B-0
6
CONTINUOUS
62
6
100
AcDbLine
10
384.449249000000
20
186.501176000000
30
0.0
11
429.277317000000
21
186.501176000000
31
0.0
0
LINE
5
681
100
AcDbEntity
8
B-0
6
CONTINUOUS
62
6
100
AcDbLine
10
442.314480000000
20
186.501176000000
30
0.0
11
455.314480000000
21
186.501176000000
31
0.0
0
LINE
5
682
100
AcDbEntity
8
B-0
6
CONTINUOUS
62
6
100
AcDbLine
10
492.257224000000
20
186.501176000000
30
0.0
11
505.257224000000
21
186.501176000000
31
0.0
0
LINE
5
683
100
AcDbEntity
8
B-0
6
CONTINUOUS
62
6
100
AcDbLine
10
515.257224000000
20
186.501176000000
30
0.0
11
532.342025000000
21
186.501176000000
31
0.0
0
LINE
5
684
100
AcDbEntity
8
B-0
6
CONTINUOUS
62
6
100
AcDbLine
10
563.078882000000
20
186.501176000000
30
0.0
11
585.300628000000
21
186.501176000000
31
0.0
0
LINE
5
685
100
AcDbEntity
8
B-0
6
CONTINUOUS
62
6
100
AcDbLine
10
611.866476000000
20
186.501176000000
30
0.0
11
622.866476000000
21
186.501176000000
31
0.0
0
LINE
5
686
100
AcDbEntity
8
B-0
6
CONTINUOUS
62
6
100
AcDbLine
10
338.087906000000
20
188.501176000000
30
0.0
11
351.852733000000
21
188.501176000000
31
0.0
0
LINE
5
687
100
AcDbEntity
8
B-0
6
CONTINUOUS
62
6
100
AcDbLine
10
384.449249000000
20
188.501176000000
30
0.0
11
424.449249000000
21
188.501176000000
31
0.0
0
LINE
5
688
100
AcDbEntity
8
B-0
6
CONTINUOUS
62
6
100
AcDbLine
10
441.381865000000
20
188.501176000000
30
0.0
11
454.381865000000
21
188.501176000000
31
0.0
0
LINE
5
689
100
AcDbEntity
8
B-0
6
CONTINUOUS
62
6
100
AcDbLine
10
493.189840000000
20
188.501176000000
30
0.0
11
506.189840000000
21
188.501176000000
31
0.0
0
LINE
5
68a
100
AcDbEntity
8
B-0
6
CONTINUOUS
62
6
100
AcDbLine
10
516.189840000000
20
188.501176000000
30
0.0
11
531.409410000000
21
188.501176000000
31
0.0
0
LINE
5
68b
100
AcDbEntity
8
B-0
6
CONTINUOUS
62
6
100
AcDbLine
10
563.078882000000
20
188.501176000000
30
0.0
11
584.050890000000
21
188.501176000000
31
0.0
0
LINE
5
68c
100
AcDbEntity
8
B-0
6
CONTINUOUS
62
6
100
AcDbLine
10
611.866476000000
20
188.501176000000
30
0.0
11
622.866476000000
21
188.501176000000
31
0.0
0
LINE
5
68d
100
AcDbEntity
8
B-0
6
CONTINUOUS
62
6
100
AcDbLine
10
339.020522000000
20
190.501176000000
30
0.0
11
350.920118000000
21
190.501176000000
31
0.0
0
LINE
5
68e
100
AcDbEntity
8
B-0
6
CONTINUOUS
62
6
100
AcDbLine
10
384.449249000000
20
190.501176000000
30
0.0
11
417.449249000000
21
190.501176000000
31
0.0
0
LINE
5
68f
100
AcDbEntity
8
B-0
6
CONTINUOUS
62
6
100
AcDbLine
10
440.449249000000
20
190.501176000000
30
0.0
11
453.449249000000
21
190.501176000000
31
0.0
0
LINE
5
690
100
AcDbEntity
8
B-0
6
CONTINUOUS
62
6
100
AcDbLine
10
494.122455000000
20
190.501176000000
30
0.0
11
507.122455000000
21
190.501176000000
31
0.0
0
LINE
5
691
100
AcDbEntity
8
B-0
6
CONTINUOUS
62
6
100
AcDbLine
10
517.122455000000
20
190.501176000000
30
0.0
11
530.476795000000
21
190.501176000000
31
0.0
0
LINE
5
692
100
AcDbEntity
8
B-0
6
CONTINUOUS
62
6
100
AcDbLine
10
563.078882000000
20
190.501176000000
30
0.0
11
582.801151000000
21
190.501176000000
31
0.0
0
LINE
5
693
100
AcDbEntity
8
B-0
6
CONTINUOUS
62
6
100
AcDbLine
10
611.866476000000
20
190.501176000000
30
0.0
11
622.866476000000
21
190.501176000000
31
0.0
0
LINE
5
694
100
AcDbEntity
8
B-0
6
CONTINUOUS
62
6
100
AcDbLine
10
312.440985000000
20
133.501176000000
30
0.0
11
325.440985000000
21
133.501176000000
31
0.0
0
LINE
5
695
100
AcDbEntity
8
B-0
6
CONTINUOUS
62
6
100
AcDbLine
10
364.499654000000
20
133.501176000000
30
0.0
11
377.499654000000
21
133.501176000000
31
0.0
0
LINE
5
696
100
AcDbEntity
8
B-0
6
CONTINUOUS
62
6
100
AcDbLine
10
384.449249000000
20
133.501176000000
30
0.0
11
419.556522000000
21
133.501176000000
31
0.0
0
LINE
5
697
100
AcDbEntity
8
B-0
6
CONTINUOUS
62
6
100
AcDbLine
10
467.028786000000
20
133.501176000000
30
0.0
11
480.542919000000
21
133.501176000000
31
0.0
0
LINE
5
698
100
AcDbEntity
8
B-0
6
CONTINUOUS
62
6
100
AcDbLine
10
490.542919000000
20
133.501176000000
30
0.0
11
503.542919000000
21
133.501176000000
31
0.0
0
LINE
5
699
100
AcDbEntity
8
B-0
6
CONTINUOUS
62
6
100
AcDbLine
10
544.056331000000
20
133.501176000000
30
0.0
11
557.056331000000
21
133.501176000000
31
0.0
0
LINE
5
69a
100
AcDbEntity
8
B-0
6
CONTINUOUS
62
6
100
AcDbLine
10
563.078882000000
20
133.501176000000
30
0.0
11
576.078882000000
21
133.501176000000
31
0.0
0
LINE
5
69b
100
AcDbEntity
8
B-0
6
CONTINUOUS
62
6
100
AcDbLine
10
605.447742000000
20
133.501176000000
30
0.0
11
622.866476000000
21
133.501176000000
31
0.0
0
LINE
5
69c
100
AcDbEntity
8
B-0
6
CONTINUOUS
62
6
100
AcDbLine
10
313.373600000000
20
135.501176000000
30
0.0
11
326.373600000000
21
135.501176000000
31
0.0
0
LINE
5
69d
100
AcDbEntity
8
B-0
6
CONTINUOUS
62
6
100
AcDbLine
10
363.567039000000
20
135.501176000000
30
0.0
11
376.567039000000
21
135.501176000000
31
0.0
0
LINE
5
69e
100
AcDbEntity
8
B-0
6
CONTINUOUS
62
6
100
AcDbLine
10
384.449249000000
20
135.501176000000
30
0.0
11
425.974876000000
21
135.501176000000
31
0.0
0
LINE
5
69f
100
AcDbEntity
8
B-0
6
CONTINUOUS
62
6
100
AcDbLine
10
466.096171000000
20
135.501176000000
30
0.0
11
481.475534000000
21
135.501176000000
31
0.0
0
LINE
5
6a0
100
AcDbEntity
8
B-0
6
CONTINUOUS
62
6
100
AcDbLine
10
491.475534000000
20
135.501176000000
30
0.0
11
504.475534000000
21
135.501176000000
31
0.0
0
LINE
5
6a1
100
AcDbEntity
8
B-0
6
CONTINUOUS
62
6
100
AcDbLine
10
543.123716000000
20
135.501176000000
30
0.0
11
556.123716000000
21
135.501176000000
31
0.0
0
LINE
5
6a2
100
AcDbEntity
8
B-0
6
CONTINUOUS
62
6
100
AcDbLine
10
563.078882000000
20
135.501176000000
30
0.0
11
576.078882000000
21
135.501176000000
31
0.0
0
LINE
5
6a3
100
AcDbEntity
8
B-0
6
CONTINUOUS
62
6
100
AcDbLine
10
604.198003000000
20
135.501176000000
30
0.0
11
622.866476000000
21
135.501176000000
31
0.0
0
LINE
5
6a4
100
AcDbEntity
8
B-0
6
CONTINUOUS
62
6
100
AcDbLine
10
314.306216000000
20
137.501176000000
30
0.0
11
327.306216000000
21
137.501176000000
31
0.0
0
LINE
5
6a5
100
AcDbEntity
8
B-0
6
CONTINUOUS
62
6
100
AcDbLine
10
362.634424000000
20
137.501176000000
30
0.0
11
375.634424000000
21
137.501176000000
31
0.0
0
LINE
5
6a6
100
AcDbEntity
8
B-0
6
CONTINUOUS
62
6
100
AcDbLine
10
384.449249000000
20
137.501176000000
30
0.0
11
430.362977000000
21
137.501176000000
31
0.0
0
LINE
5
6a7
100
AcDbEntity
8
B-0
6
CONTINUOUS
62
6
100
AcDbLine
10
465.163555000000
20
137.501176000000
30
0.0
11
482.408149000000
21
137.501176000000
31
0.0
0
LINE
5
6a8
100
AcDbEntity
8
B-0
6
CONTINUOUS
62
6
100
AcDbLine
10
492.408149000000
20
137.501176000000
30
0.0
11
505.408149000000
21
137.501176000000
31
0.0
0
LINE
5
6a9
100
AcDbEntity
8
B-0
6
CONTINUOUS
62
6
100
AcDbLine
10
542.191101000000
20
137.501176000000
30
0.0
11
555.191101000000
21
137.501176000000
31
0.0
0
LINE
5
6aa
100
AcDbEntity
8
B-0
6
CONTINUOUS
62
6
100
AcDbLine
10
563.078882000000
20
137.501176000000
30
0.0
11
576.078882000000
21
137.501176000000
31
0.0
0
LINE
5
6ab
100
AcDbEntity
8
B-0
6
CONTINUOUS
62
6
100
AcDbLine
10
602.948264000000
20
137.501176000000
30
0.0
11
622.866476000000
21
137.501176000000
31
0.0
0
LINE
5
6ac
100
AcDbEntity
8
B-0
6
CONTINUOUS
62
6
100
AcDbLine
10
315.238831000000
20
139.501176000000
30
0.0
11
328.238831000000
21
139.501176000000
31
0.0
0
LINE
5
6ad
100
AcDbEntity
8
B-0
6
CONTINUOUS
62
6
100
AcDbLine
10
361.701808000000
20
139.501176000000
30
0.0
11
374.701808000000
21
139.501176000000
31
0.0
0
LINE
5
6ae
100
AcDbEntity
8
B-0
6
CONTINUOUS
62
6
100
AcDbLine
10
384.449249000000
20
139.501176000000
30
0.0
11
433.305915000000
21
139.501176000000
31
0.0
0
LINE
5
6af
100
AcDbEntity
8
B-0
6
CONTINUOUS
62
6
100
AcDbLine
10
464.230940000000
20
139.501176000000
30
0.0
11
483.340764000000
21
139.501176000000
31
0.0
0
LINE
5
6b0
100
AcDbEntity
8
B-0
6
CONTINUOUS
62
6
100
AcDbLine
10
493.340764000000
20
139.501176000000
30
0.0
11
506.340764000000
21
139.501176000000
31
0.0
0
LINE
5
6b1
100
AcDbEntity
8
B-0
6
CONTINUOUS
62
6
100
AcDbLine
10
541.258485000000
20
139.501176000000
30
0.0
11
554.258485000000
21
139.501176000000
31
0.0
0
LINE
5
6b2
100
AcDbEntity
8
B-0
6
CONTINUOUS
62
6
100
AcDbLine
10
563.078882000000
20
139.501176000000
30
0.0
11
576.078882000000
21
139.501176000000
31
0.0
0
LINE
5
6b3
100
AcDbEntity
8
B-0
6
CONTINUOUS
62
6
100
AcDbLine
10
601.698526000000
20
139.501176000000
30
0.0
11
622.866476000000
21
139.501176000000
31
0.0
0
LINE
5
6b4
100
AcDbEntity
8
B-0
6
CONTINUOUS
62
6
100
AcDbLine
10
316.171446000000
20
141.501176000000
30
0.0
11
329.171446000000
21
141.501176000000
31
0.0
0
LINE
5
6b5
100
AcDbEntity
8
B-0
6
CONTINUOUS
62
6
100
AcDbLine
10
360.769193000000
20
141.501176000000
30
0.0
11
373.769193000000
21
141.501176000000
31
0.0
0
LINE
5
6b6
100
AcDbEntity
8
B-0
6
CONTINUOUS
62
6
100
AcDbLine
10
384.449249000000
20
141.501176000000
30
0.0
11
435.368272000000
21
141.501176000000
31
0.0
0
LINE
5
6b7
100
AcDbEntity
8
B-0
6
CONTINUOUS
62
6
100
AcDbLine
10
463.298325000000
20
141.501176000000
30
0.0
11
484.273380000000
21
141.501176000000
31
0.0
0
LINE
5
6b8
100
AcDbEntity
8
B-0
6
CONTINUOUS
62
6
100
AcDbLine
10
494.273380000000
20
141.501176000000
30
0.0
11
507.273380000000
21
141.501176000000
31
0.0
0
LINE
5
6b9
100
AcDbEntity
8
B-0
6
CONTINUOUS
62
6
100
AcDbLine
10
540.325870000000
20
141.501176000000
30
0.0
11
553.325870000000
21
141.501176000000
31
0.0
0
LINE
5
6ba
100
AcDbEntity
8
B-0
6
CONTINUOUS
62
6
100
AcDbLine
10
563.078882000000
20
141.501176000000
30
0.0
11
576.078882000000
21
141.501176000000
31
0.0
0
LINE
5
6bb
100
AcDbEntity
8
B-0
6
CONTINUOUS
62
6
100
AcDbLine
10
600.448787000000
20
141.501176000000
30
0.0
11
622.866476000000
21
141.501176000000
31
0.0
0
LINE
5
6bc
100
AcDbEntity
8
B-0
6
CONTINUOUS
62
6
100
AcDbLine
10
317.104062000000
20
143.501176000000
30
0.0
11
330.104062000000
21
143.501176000000
31
0.0
0
LINE
5
6bd
100
AcDbEntity
8
B-0
6
CONTINUOUS
62
6
100
AcDbLine
10
359.836578000000
20
143.501176000000
30
0.0
11
372.836578000000
21
143.501176000000
31
0.0
0
LINE
5
6be
100
AcDbEntity
8
B-0
6
CONTINUOUS
62
6
100
AcDbLine
10
384.449249000000
20
143.501176000000
30
0.0
11
397.449249000000
21
143.501176000000
31
0.0
0
LINE
5
6bf
100
AcDbEntity
8
B-0
6
CONTINUOUS
62
6
100
AcDbLine
10
418.447698000000
20
143.501176000000
30
0.0
11
436.761056000000
21
143.501176000000
31
0.0
0
LINE
5
6c0
100
AcDbEntity
8
B-0
6
CONTINUOUS
62
6
100
AcDbLine
10
462.365709000000
20
143.501176000000
30
0.0
11
485.205995000000
21
143.501176000000
31
0.0
0
LINE
5
6c1
100
AcDbEntity
8
B-0
6
CONTINUOUS
62
6
100
AcDbLine
10
495.205995000000
20
143.501176000000
30
0.0
11
508.205995000000
21
143.501176000000
31
0.0
0
LINE
5
6c2
100
AcDbEntity
8
B-0
6
CONTINUOUS
62
6
100
AcDbLine
10
539.393255000000
20
143.501176000000
30
0.0
11
552.393255000000
21
143.501176000000
31
0.0
0
LINE
5
6c3
100
AcDbEntity
8
B-0
6
CONTINUOUS
62
6
100
AcDbLine
10
563.078882000000
20
143.501176000000
30
0.0
11
576.078882000000
21
143.501176000000
31
0.0
0
LINE
5
6c4
100
AcDbEntity
8
B-0
6
CONTINUOUS
62
6
100
AcDbLine
10
599.199048000000
20
143.501176000000
30
0.0
11
622.866476000000
21
143.501176000000
31
0.0
0
LINE
5
6c5
100
AcDbEntity
8
B-0
6
CONTINUOUS
62
6
100
AcDbLine
10
318.036677000000
20
145.501176000000
30
0.0
11
331.036677000000
21
145.501176000000
31
0.0
0
LINE
5
6c6
100
AcDbEntity
8
B-0
6
CONTINUOUS
62
6
100
AcDbLine
10
358.903962000000
20
145.501176000000
30
0.0
11
371.903962000000
21
145.501176000000
31
0.0
0
LINE
5
6c7
100
AcDbEntity
8
B-0
6
CONTINUOUS
62
6
100
AcDbLine
10
384.449249000000
20
145.501176000000
30
0.0
11
397.449249000000
21
145.501176000000
31
0.0
0
LINE
5
6c8
100
AcDbEntity
8
B-0
6
CONTINUOUS
62
6
100
AcDbLine
10
421.726036000000
20
145.501176000000
30
0.0
11
437.656815000000
21
145.501176000000
31
0.0
0
LINE
5
6c9
100
AcDbEntity
8
B-0
6
CONTINUOUS
62
6
100
AcDbLine
10
461.433094000000
20
145.501176000000
30
0.0
11
486.138610000000
21
145.501176000000
31
0.0
0
LINE
5
6ca
100
AcDbEntity
8
B-0
6
CONTINUOUS
62
6
100
AcDbLine
10
496.138610000000
20
145.501176000000
30
0.0
11
509.138610000000
21
145.501176000000
31
0.0
0
LINE
5
6cb
100
AcDbEntity
8
B-0
6
CONTINUOUS
62
6
100
AcDbLine
10
538.460639000000
20
145.501176000000
30
0.0
11
551.460639000000
21
145.501176000000
31
0.0
0
LINE
5
6cc
100
AcDbEntity
8
B-0
6
CONTINUOUS
62
6
100
AcDbLine
10
563.078882000000
20
145.501176000000
30
0.0
11
576.078882000000
21
145.501176000000
31
0.0
0
LINE
5
6cd
100
AcDbEntity
8
B-0
6
CONTINUOUS
62
6
100
AcDbLine
10
597.949309000000
20
145.501176000000
30
0.0
11
610.920272000000
21
145.501176000000
31
0.0
0
LINE
5
6ce
100
AcDbEntity
8
B-0
6
CONTINUOUS
62
6
100
AcDbLine
10
611.866476000000
20
145.501176000000
30
0.0
11
622.866476000000
21
145.501176000000
31
0.0
0
LINE
5
6cf
100
AcDbEntity
8
B-0
6
CONTINUOUS
62
6
100
AcDbLine
10
318.969292000000
20
147.501176000000
30
0.0
11
370.971347000000
21
147.501176000000
31
0.0
0
LINE
5
6d0
100
AcDbEntity
8
B-0
6
CONTINUOUS
62
6
100
AcDbLine
10
384.449249000000
20
147.501176000000
30
0.0
11
397.449249000000
21
147.501176000000
31
0.0
0
LINE
5
6d1
100
AcDbEntity
8
B-0
6
CONTINUOUS
62
6
100
AcDbLine
10
424.056401000000
20
147.501176000000
30
0.0
11
438.319400000000
21
147.501176000000
31
0.0
0
LINE
5
6d2
100
AcDbEntity
8
B-0
6
CONTINUOUS
62
6
100
AcDbLine
10
460.500479000000
20
147.501176000000
30
0.0
11
473.500479000000
21
147.501176000000
31
0.0
0
LINE
5
6d3
100
AcDbEntity
8
B-0
6
CONTINUOUS
62
6
100
AcDbLine
10
474.071226000000
20
147.501176000000
30
0.0
11
487.071226000000
21
147.501176000000
31
0.0
0
LINE
5
6d4
100
AcDbEntity
8
B-0
6
CONTINUOUS
62
6
100
AcDbLine
10
497.071226000000
20
147.501176000000
30
0.0
11
550.528024000000
21
147.501176000000
31
0.0
0
LINE
5
6d5
100
AcDbEntity
8
B-0
6
CONTINUOUS
62
6
100
AcDbLine
10
563.078882000000
20
147.501176000000
30
0.0
11
576.078882000000
21
147.501176000000
31
0.0
0
LINE
5
6d6
100
AcDbEntity
8
B-0
6
CONTINUOUS
62
6
100
AcDbLine
10
596.699571000000
20
147.501176000000
30
0.0
11
609.670533000000
21
147.501176000000
31
0.0
0
LINE
5
6d7
100
AcDbEntity
8
B-0
6
CONTINUOUS
62
6
100
AcDbLine
10
611.866476000000
20
147.501176000000
30
0.0
11
622.866476000000
21
147.501176000000
31
0.0
0
LINE
5
6d8
100
AcDbEntity
8
B-0
6
CONTINUOUS
62
6
100
AcDbLine
10
319.901908000000
20
149.501176000000
30
0.0
11
370.038732000000
21
149.501176000000
31
0.0
0
LINE
5
6d9
100
AcDbEntity
8
B-0
6
CONTINUOUS
62
6
100
AcDbLine
10
384.449249000000
20
149.501176000000
30
0.0
11
397.449249000000
21
149.501176000000
31
0.0
0
LINE
5
6da
100
AcDbEntity
8
B-0
6
CONTINUOUS
62
6
100
AcDbLine
10
425.432195000000
20
149.501176000000
30
0.0
11
438.861179000000
21
149.501176000000
31
0.0
0
LINE
5
6db
100
AcDbEntity
8
B-0
6
CONTINUOUS
62
6
100
AcDbLine
10
459.567863000000
20
149.501176000000
30
0.0
11
472.567863000000
21
149.501176000000
31
0.0
0
LINE
5
6dc
100
AcDbEntity
8
B-0
6
CONTINUOUS
62
6
100
AcDbLine
10
475.003841000000
20
149.501176000000
30
0.0
11
488.003841000000
21
149.501176000000
31
0.0
0
LINE
5
6dd
100
AcDbEntity
8
B-0
6
CONTINUOUS
62
6
100
AcDbLine
10
498.003841000000
20
149.501176000000
30
0.0
11
549.595409000000
21
149.501176000000
31
0.0
0
LINE
5
6de
100
AcDbEntity
8
B-0
6
CONTINUOUS
62
6
100
AcDbLine
10
563.078882000000
20
149.501176000000
30
0.0
11
576.078882000000
21
149.501176000000
31
0.0
0
LINE
5
6df
100
AcDbEntity
8
B-0
6
CONTINUOUS
62
6
100
AcDbLine
10
595.449832000000
20
149.501176000000
30
0.0
11
608.420794000000
21
149.501176000000
31
0.0
0
LINE
5
6e0
100
AcDbEntity
8
B-0
6
CONTINUOUS
62
6
100
AcDbLine
10
611.866476000000
20
149.501176000000
30
0.0
11
622.866476000000
21
149.501176000000
31
0.0
0
LINE
5
6e1
100
AcDbEntity
8
B-0
6
CONTINUOUS
62
6
100
AcDbLine
10
320.834523000000
20
151.501176000000
30
0.0
11
369.106116000000
21
151.501176000000
31
0.0
0
LINE
5
6e2
100
AcDbEntity
8
B-0
6
CONTINUOUS
62
6
100
AcDbLine
10
384.449249000000
20
151.501176000000
30
0.0
11
397.449249000000
21
151.501176000000
31
0.0
0
LINE
5
6e3
100
AcDbEntity
8
B-0
6
CONTINUOUS
62
6
100
AcDbLine
10
426.301735000000
20
151.501176000000
30
0.0
11
439.333216000000
21
151.501176000000
31
0.0
0
LINE
5
6e4
100
AcDbEntity
8
B-0
6
CONTINUOUS
62
6
100
AcDbLine
10
458.635248000000
20
151.501176000000
30
0.0
11
471.635248000000
21
151.501176000000
31
0.0
0
LINE
5
6e5
100
AcDbEntity
8
B-0
6
CONTINUOUS
62
6
100
AcDbLine
10
475.936456000000
20
151.501176000000
30
0.0
11
488.936456000000
21
151.501176000000
31
0.0
0
LINE
5
6e6
100
AcDbEntity
8
B-0
6
CONTINUOUS
62
6
100
AcDbLine
10
498.936456000000
20
151.501176000000
30
0.0
11
548.662793000000
21
151.501176000000
31
0.0
0
LINE
5
6e7
100
AcDbEntity
8
B-0
6
CONTINUOUS
62
6
100
AcDbLine
10
563.078882000000
20
151.501176000000
30
0.0
11
576.078882000000
21
151.501176000000
31
0.0
0
LINE
5
6e8
100
AcDbEntity
8
B-0
6
CONTINUOUS
62
6
100
AcDbLine
10
594.200093000000
20
151.501176000000
30
0.0
11
607.171056000000
21
151.501176000000
31
0.0
0
LINE
5
6e9
100
AcDbEntity
8
B-0
6
CONTINUOUS
62
6
100
AcDbLine
10
611.866476000000
20
151.501176000000
30
0.0
11
622.866476000000
21
151.501176000000
31
0.0
0
LINE
5
6ea
100
AcDbEntity
8
B-0
6
CONTINUOUS
62
6
100
AcDbLine
10
321.767138000000
20
153.501176000000
30
0.0
11
368.173501000000
21
153.501176000000
31
0.0
0
LINE
5
6eb
100
AcDbEntity
8
B-0
6
CONTINUOUS
62
6
100
AcDbLine
10
384.449249000000
20
153.501176000000
30
0.0
11
397.449249000000
21
153.501176000000
31
0.0
0
LINE
5
6ec
100
AcDbEntity
8
B-0
6
CONTINUOUS
62
6
100
AcDbLine
10
426.844423000000
20
153.501176000000
30
0.0
11
439.718720000000
21
153.501176000000
31
0.0
0
LINE
5
6ed
100
AcDbEntity
8
B-0
6
CONTINUOUS
62
6
100
AcDbLine
10
457.702633000000
20
153.501176000000
30
0.0
11
470.702633000000
21
153.501176000000
31
0.0
0
LINE
5
6ee
100
AcDbEntity
8
B-0
6
CONTINUOUS
62
6
100
AcDbLine
10
476.869072000000
20
153.501176000000
30
0.0
11
489.869072000000
21
153.501176000000
31
0.0
0
LINE
5
6ef
100
AcDbEntity
8
B-0
6
CONTINUOUS
62
6
100
AcDbLine
10
499.869072000000
20
153.501176000000
30
0.0
11
547.730178000000
21
153.501176000000
31
0.0
0
LINE
5
6f0
100
AcDbEntity
8
B-0
6
CONTINUOUS
62
6
100
AcDbLine
10
563.078882000000
20
153.501176000000
30
0.0
11
576.078882000000
21
153.501176000000
31
0.0
0
LINE
5
6f1
100
AcDbEntity
8
B-0
6
CONTINUOUS
62
6
100
AcDbLine
10
592.950355000000
20
153.501176000000
30
0.0
11
605.921317000000
21
153.501176000000
31
0.0
0
LINE
5
6f2
100
AcDbEntity
8
B-0
6
CONTINUOUS
62
6
100
AcDbLine
10
611.866476000000
20
153.501176000000
30
0.0
11
622.866476000000
21
153.501176000000
31
0.0
0
LINE
5
6f3
100
AcDbEntity
8
B-0
6
CONTINUOUS
62
6
100
AcDbLine
10
322.699753000000
20
155.501176000000
30
0.0
11
367.240886000000
21
155.501176000000
31
0.0
0
LINE
5
6f4
100
AcDbEntity
8
B-0
6
CONTINUOUS
62
6
100
AcDbLine
10
384.449249000000
20
155.501176000000
30
0.0
11
397.449249000000
21
155.501176000000
31
0.0
0
LINE
5
6f5
100
AcDbEntity
8
B-0
6
CONTINUOUS
62
6
100
AcDbLine
10
427.174184000000
20
155.501176000000
30
0.0
11
440.021844000000
21
155.501176000000
31
0.0
0
LINE
5
6f6
100
AcDbEntity
8
B-0
6
CONTINUOUS
62
6
100
AcDbLine
10
456.770017000000
20
155.501176000000
30
0.0
11
469.770017000000
21
155.501176000000
31
0.0
0
LINE
5
6f7
100
AcDbEntity
8
B-0
6
CONTINUOUS
62
6
100
AcDbLine
10
477.801687000000
20
155.501176000000
30
0.0
11
490.801687000000
21
155.501176000000
31
0.0
0
LINE
5
6f8
100
AcDbEntity
8
B-0
6
CONTINUOUS
62
6
100
AcDbLine
10
500.801687000000
20
155.501176000000
30
0.0
11
546.797563000000
21
155.501176000000
31
0.0
0
LINE
5
6f9
100
AcDbEntity
8
B-0
6
CONTINUOUS
62
6
100
AcDbLine
10
563.078882000000
20
155.501176000000
30
0.0
11
576.078882000000
21
155.501176000000
31
0.0
0
LINE
5
6fa
100
AcDbEntity
8
B-0
6
CONTINUOUS
62
6
100
AcDbLine
10
591.700616000000
20
155.501176000000
30
0.0
11
604.671578000000
21
155.501176000000
31
0.0
0
LINE
5
6fb
100
AcDbEntity
8
B-0
6
CONTINUOUS
62
6
100
AcDbLine
10
611.866476000000
20
155.501176000000
30
0.0
11
622.866476000000
21
155.501176000000
31
0.0
0
LINE
5
6fc
100
AcDbEntity
8
B-0
6
CONTINUOUS
62
6
100
AcDbLine
10
323.632369000000
20
157.501176000000
30
0.0
11
336.632369000000
21
157.501176000000
31
0.0
0
LINE
5
6fd
100
AcDbEntity
8
B-0
6
CONTINUOUS
62
6
100
AcDbLine
10
353.308271000000
20
157.501176000000
30
0.0
11
366.308271000000
21
157.501176000000
31
0.0
0
LINE
5
6fe
100
AcDbEntity
8
B-0
6
CONTINUOUS
62
6
100
AcDbLine
10
384.449249000000
20
157.501176000000
30
0.0
11
397.449249000000
21
157.501176000000
31
0.0
0
LINE
5
6ff
100
AcDbEntity
8
B-0
6
CONTINUOUS
62
6
100
AcDbLine
10
427.343261000000
20
157.501176000000
30
0.0
11
440.243342000000
21
157.501176000000
31
0.0
0
LINE
5
700
100
AcDbEntity
8
B-0
6
CONTINUOUS
62
6
100
AcDbLine
10
455.837402000000
20
157.501176000000
30
0.0
11
468.837402000000
21
157.501176000000
31
0.0
0
LINE
5
701
100
AcDbEntity
8
B-0
6
CONTINUOUS
62
6
100
AcDbLine
10
478.734302000000
20
157.501176000000
30
0.0
11
491.734302000000
21
157.501176000000
31
0.0
0
LINE
5
702
100
AcDbEntity
8
B-0
6
CONTINUOUS
62
6
100
AcDbLine
10
501.734302000000
20
157.501176000000
30
0.0
11
514.734302000000
21
157.501176000000
31
0.0
0
LINE
5
703
100
AcDbEntity
8
B-0
6
CONTINUOUS
62
6
100
AcDbLine
10
532.864947000000
20
157.501176000000
30
0.0
11
545.864947000000
21
157.501176000000
31
0.0
0
LINE
5
704
100
AcDbEntity
8
B-0
6
CONTINUOUS
62
6
100
AcDbLine
10
563.078882000000
20
157.501176000000
30
0.0
11
576.078882000000
21
157.501176000000
31
0.0
0
LINE
5
705
100
AcDbEntity
8
B-0
6
CONTINUOUS
62
6
100
AcDbLine
10
590.450877000000
20
157.501176000000
30
0.0
11
603.421840000000
21
157.501176000000
31
0.0
0
LINE
5
706
100
AcDbEntity
8
B-0
6
CONTINUOUS
62
6
100
AcDbLine
10
611.866476000000
20
157.501176000000
30
0.0
11
622.866476000000
21
157.501176000000
31
0.0
0
LINE
5
707
100
AcDbEntity
8
B-0
6
CONTINUOUS
62
6
100
AcDbLine
10
324.564984000000
20
159.501176000000
30
0.0
11
337.564984000000
21
159.501176000000
31
0.0
0
LINE
5
708
100
AcDbEntity
8
B-0
6
CONTINUOUS
62
6
100
AcDbLine
10
352.375655000000
20
159.501176000000
30
0.0
11
365.375655000000
21
159.501176000000
31
0.0
0
LINE
5
709
100
AcDbEntity
8
B-0
6
CONTINUOUS
62
6
100
AcDbLine
10
384.449249000000
20
159.501176000000
30
0.0
11
397.449249000000
21
159.501176000000
31
0.0
0
LINE
5
70a
100
AcDbEntity
8
B-0
6
CONTINUOUS
62
6
100
AcDbLine
10
427.418449000000
20
159.501176000000
30
0.0
11
440.381582000000
21
159.501176000000
31
0.0
0
LINE
5
70b
100
AcDbEntity
8
B-0
6
CONTINUOUS
62
6
100
AcDbLine
10
454.904787000000
20
159.501176000000
30
0.0
11
467.904787000000
21
159.501176000000
31
0.0
0
LINE
5
70c
100
AcDbEntity
8
B-0
6
CONTINUOUS
62
6
100
AcDbLine
10
479.666918000000
20
159.501176000000
30
0.0
11
492.666918000000
21
159.501176000000
31
0.0
0
LINE
5
70d
100
AcDbEntity
8
B-0
6
CONTINUOUS
62
6
100
AcDbLine
10
502.666918000000
20
159.501176000000
30
0.0
11
515.666918000000
21
159.501176000000
31
0.0
0
LINE
5
70e
100
AcDbEntity
8
B-0
6
CONTINUOUS
62
6
100
AcDbLine
10
531.932332000000
20
159.501176000000
30
0.0
11
544.932332000000
21
159.501176000000
31
0.0
0
LINE
5
70f
100
AcDbEntity
8
B-0
6
CONTINUOUS
62
6
100
AcDbLine
10
563.078882000000
20
159.501176000000
30
0.0
11
576.078882000000
21
159.501176000000
31
0.0
0
LINE
5
710
100
AcDbEntity
8
B-0
6
CONTINUOUS
62
6
100
AcDbLine
10
589.201138000000
20
159.501176000000
30
0.0
11
602.172101000000
21
159.501176000000
31
0.0
0
LINE
5
711
100
AcDbEntity
8
B-0
6
CONTINUOUS
62
6
100
AcDbLine
10
611.866476000000
20
159.501176000000
30
0.0
11
622.866476000000
21
159.501176000000
31
0.0
0
LINE
5
712
100
AcDbEntity
8
B-0
6
CONTINUOUS
62
6
100
AcDbLine
10
325.497599000000
20
161.501176000000
30
0.0
11
338.497599000000
21
161.501176000000
31
0.0
0
LINE
5
713
100
AcDbEntity
8
B-0
6
CONTINUOUS
62
6
100
AcDbLine
10
351.443040000000
20
161.501176000000
30
0.0
11
364.443040000000
21
161.501176000000
31
0.0
0
LINE
5
714
100
AcDbEntity
8
B-0
6
CONTINUOUS
62
6
100
AcDbLine
10
384.449249000000
20
161.501176000000
30
0.0
11
397.449249000000
21
161.501176000000
31
0.0
0
LINE
5
715
100
AcDbEntity
8
B-0
6
CONTINUOUS
62
6
100
AcDbLine
10
427.448055000000
20
161.501176000000
30
0.0
11
440.446010000000
21
161.501176000000
31
0.0
0
LINE
5
716
100
AcDbEntity
8
B-0
6
CONTINUOUS
62
6
100
AcDbLine
10
453.972171000000
20
161.501176000000
30
0.0
11
466.972171000000
21
161.501176000000
31
0.0
0
LINE
5
717
100
AcDbEntity
8
B-0
6
CONTINUOUS
62
6
100
AcDbLine
10
480.599533000000
20
161.501176000000
30
0.0
11
493.599533000000
21
161.501176000000
31
0.0
0
LINE
5
718
100
AcDbEntity
8
B-0
6
CONTINUOUS
62
6
100
AcDbLine
10
503.599533000000
20
161.501176000000
30
0.0
11
516.599533000000
21
161.501176000000
31
0.0
0
LINE
5
719
100
AcDbEntity
8
B-0
6
CONTINUOUS
62
6
100
AcDbLine
10
530.999717000000
20
161.501176000000
30
0.0
11
543.999717000000
21
161.501176000000
31
0.0
0
LINE
5
71a
100
AcDbEntity
8
B-0
6
CONTINUOUS
62
6
100
AcDbLine
10
563.078882000000
20
161.501176000000
30
0.0
11
576.078882000000
21
161.501176000000
31
0.0
0
LINE
5
71b
100
AcDbEntity
8
B-0
6
CONTINUOUS
62
6
100
AcDbLine
10
587.951400000000
20
161.501176000000
30
0.0
11
600.922362000000
21
161.501176000000
31
0.0
0
LINE
5
71c
100
AcDbEntity
8
B-0
6
CONTINUOUS
62
6
100
AcDbLine
10
611.866476000000
20
161.501176000000
30
0.0
11
622.866476000000
21
161.501176000000
31
0.0
0
LINE
5
71d
100
AcDbEntity
8
B-0
6
CONTINUOUS
62
6
100
AcDbLine
10
326.430215000000
20
163.501176000000
30
0.0
11
339.430215000000
21
163.501176000000
31
0.0
0
LINE
5
71e
100
AcDbEntity
8
B-0
6
CONTINUOUS
62
6
100
AcDbLine
10
350.510425000000
20
163.501176000000
30
0.0
11
363.510425000000
21
163.501176000000
31
0.0
0
LINE
5
71f
100
AcDbEntity
8
B-0
6
CONTINUOUS
62
6
100
AcDbLine
10
384.449249000000
20
163.501176000000
30
0.0
11
397.449249000000
21
163.501176000000
31
0.0
0
LINE
5
720
100
AcDbEntity
8
B-0
6
CONTINUOUS
62
6
100
AcDbLine
10
427.431949000000
20
163.501176000000
30
0.0
11
440.405424000000
21
163.501176000000
31
0.0
0
LINE
5
721
100
AcDbEntity
8
B-0
6
CONTINUOUS
62
6
100
AcDbLine
10
453.039556000000
20
163.501176000000
30
0.0
11
466.039556000000
21
163.501176000000
31
0.0
0
LINE
5
722
100
AcDbEntity
8
B-0
6
CONTINUOUS
62
6
100
AcDbLine
10
481.532148000000
20
163.501176000000
30
0.0
11
494.532148000000
21
163.501176000000
31
0.0
0
LINE
5
723
100
AcDbEntity
8
B-0
6
CONTINUOUS
62
6
100
AcDbLine
10
504.532148000000
20
163.501176000000
30
0.0
11
517.532148000000
21
163.501176000000
31
0.0
0
LINE
5
724
100
AcDbEntity
8
B-0
6
CONTINUOUS
62
6
100
AcDbLine
10
530.067101000000
20
163.501176000000
30
0.0
11
543.067101000000
21
163.501176000000
31
0.0
0
LINE
5
725
100
AcDbEntity
8
B-0
6
CONTINUOUS
62
6
100
AcDbLine
10
563.078882000000
20
163.501176000000
30
0.0
11
576.078882000000
21
163.501176000000
31
0.0
0
LINE
5
726
100
AcDbEntity
8
B-0
6
CONTINUOUS
62
6
100
AcDbLine
10
586.701661000000
20
163.501176000000
30
0.0
11
599.672623000000
21
163.501176000000
31
0.0
0
LINE
5
727
100
AcDbEntity
8
B-0
6
CONTINUOUS
62
6
100
AcDbLine
10
611.866476000000
20
163.501176000000
30
0.0
11
622.866476000000
21
163.501176000000
31
0.0
0
LINE
5
728
100
AcDbEntity
8
B-0
6
CONTINUOUS
62
6
100
AcDbLine
10
327.362830000000
20
165.501176000000
30
0.0
11
340.362830000000
21
165.501176000000
31
0.0
0
LINE
5
729
100
AcDbEntity
8
B-0
6
CONTINUOUS
62
6
100
AcDbLine
10
349.577809000000
20
165.501176000000
30
0.0
11
362.577809000000
21
165.501176000000
31
0.0
0
LINE
5
72a
100
AcDbEntity
8
B-0
6
CONTINUOUS
62
6
100
AcDbLine
10
384.449249000000
20
165.501176000000
30
0.0
11
397.449249000000
21
165.501176000000
31
0.0
0
LINE
5
72b
100
AcDbEntity
8
B-0
6
CONTINUOUS
62
6
100
AcDbLine
10
427.371775000000
20
165.501176000000
30
0.0
11
440.288622000000
21
165.501176000000
31
0.0
0
LINE
5
72c
100
AcDbEntity
8
B-0
6
CONTINUOUS
62
6
100
AcDbLine
10
452.106941000000
20
165.501176000000
30
0.0
11
465.106941000000
21
165.501176000000
31
0.0
0
LINE
5
72d
100
AcDbEntity
8
B-0
6
CONTINUOUS
62
6
100
AcDbLine
10
482.464764000000
20
165.501176000000
30
0.0
11
495.464764000000
21
165.501176000000
31
0.0
0
LINE
5
72e
100
AcDbEntity
8
B-0
6
CONTINUOUS
62
6
100
AcDbLine
10
505.464764000000
20
165.501176000000
30
0.0
11
518.464764000000
21
165.501176000000
31
0.0
0
LINE
5
72f
100
AcDbEntity
8
B-0
6
CONTINUOUS
62
6
100
AcDbLine
10
529.134486000000
20
165.501176000000
30
0.0
11
542.134486000000
21
165.501176000000
31
0.0
0
LINE
5
730
100
AcDbEntity
8
B-0
6
CONTINUOUS
62
6
100
AcDbLine
10
563.078882000000
20
165.501176000000
30
0.0
11
576.078882000000
21
165.501176000000
31
0.0
0
LINE
5
731
100
AcDbEntity
8
B-0
6
CONTINUOUS
62
6
100
AcDbLine
10
585.451922000000
20
165.501176000000
30
0.0
11
598.422885000000
21
165.501176000000
31
0.0
0
LINE
5
732
100
AcDbEntity
8
B-0
6
CONTINUOUS
62
6
100
AcDbLine
10
611.866476000000
20
165.501176000000
30
0.0
11
622.866476000000
21
165.501176000000
31
0.0
0
LINE
5
733
100
AcDbEntity
8
B-0
6
CONTINUOUS
62
6
100
AcDbLine
10
328.295445000000
20
167.501176000000
30
0.0
11
341.295445000000
21
167.501176000000
31
0.0
0
LINE
5
734
100
AcDbEntity
8
B-0
6
CONTINUOUS
62
6
100
AcDbLine
10
348.645194000000
20
167.501176000000
30
0.0
11
361.645194000000
21
167.501176000000
31
0.0
0
LINE
5
735
100
AcDbEntity
8
B-0
6
CONTINUOUS
62
6
100
AcDbLine
10
384.449249000000
20
167.501176000000
30
0.0
11
397.449249000000
21
167.501176000000
31
0.0
0
LINE
5
736
100
AcDbEntity
8
B-0
6
CONTINUOUS
62
6
100
AcDbLine
10
427.212118000000
20
167.501176000000
30
0.0
11
440.086804000000
21
167.501176000000
31
0.0
0
LINE
5
737
100
AcDbEntity
8
B-0
6
CONTINUOUS
62
6
100
AcDbLine
10
451.174326000000
20
167.501176000000
30
0.0
11
464.174326000000
21
167.501176000000
31
0.0
0
LINE
5
738
100
AcDbEntity
8
B-0
6
CONTINUOUS
62
6
100
AcDbLine
10
483.397379000000
20
167.501176000000
30
0.0
11
496.397379000000
21
167.501176000000
31
0.0
0
LINE
5
739
100
AcDbEntity
8
B-0
6
CONTINUOUS
62
6
100
AcDbLine
10
506.397379000000
20
167.501176000000
30
0.0
11
519.397379000000
21
167.501176000000
31
0.0
0
LINE
5
73a
100
AcDbEntity
8
B-0
6
CONTINUOUS
62
6
100
AcDbLine
10
528.201871000000
20
167.501176000000
30
0.0
11
541.201871000000
21
167.501176000000
31
0.0
0
LINE
5
73b
100
AcDbEntity
8
B-0
6
CONTINUOUS
62
6
100
AcDbLine
10
563.078882000000
20
167.501176000000
30
0.0
11
576.078882000000
21
167.501176000000
31
0.0
0
LINE
5
73c
100
AcDbEntity
8
B-0
6
CONTINUOUS
62
6
100
AcDbLine
10
584.202184000000
20
167.501176000000
30
0.0
11
597.173146000000
21
167.501176000000
31
0.0
0
LINE
5
73d
100
AcDbEntity
8
B-0
6
CONTINUOUS
62
6
100
AcDbLine
10
611.866476000000
20
167.501176000000
30
0.0
11
622.866476000000
21
167.501176000000
31
0.0
0
LINE
5
73e
100
AcDbEntity
8
B-0
6
CONTINUOUS
62
6
100
AcDbLine
10
329.228061000000
20
169.501176000000
30
0.0
11
342.228061000000
21
169.501176000000
31
0.0
0
LINE
5
73f
100
AcDbEntity
8
B-0
6
CONTINUOUS
62
6
100
AcDbLine
10
347.712579000000
20
169.501176000000
30
0.0
11
360.712579000000
21
169.501176000000
31
0.0
0
LINE
5
740
100
AcDbEntity
8
B-0
6
CONTINUOUS
62
6
100
AcDbLine
10
384.449249000000
20
169.501176000000
30
0.0
11
397.449249000000
21
169.501176000000
31
0.0
0
LINE
5
741
100
AcDbEntity
8
B-0
6
CONTINUOUS
62
6
100
AcDbLine
10
426.921202000000
20
169.501176000000
30
0.0
11
439.793180000000
21
169.501176000000
31
0.0
0
LINE
5
742
100
AcDbEntity
8
B-0
6
CONTINUOUS
62
6
100
AcDbLine
10
450.241710000000
20
169.501176000000
30
0.0
11
463.241710000000
21
169.501176000000
31
0.0
0
LINE
5
743
100
AcDbEntity
8
B-0
6
CONTINUOUS
62
6
100
AcDbLine
10
484.329994000000
20
169.501176000000
30
0.0
11
497.329994000000
21
169.501176000000
31
0.0
0
LINE
5
744
100
AcDbEntity
8
B-0
6
CONTINUOUS
62
6
100
AcDbLine
10
507.329994000000
20
169.501176000000
30
0.0
11
520.329994000000
21
169.501176000000
31
0.0
0
LINE
5
745
100
AcDbEntity
8
B-0
6
CONTINUOUS
62
6
100
AcDbLine
10
527.269255000000
20
169.501176000000
30
0.0
11
540.269255000000
21
169.501176000000
31
0.0
0
LINE
5
746
100
AcDbEntity
8
B-0
6
CONTINUOUS
62
6
100
AcDbLine
10
563.078882000000
20
169.501176000000
30
0.0
11
576.078882000000
21
169.501176000000
31
0.0
0
LINE
5
747
100
AcDbEntity
8
B-0
6
CONTINUOUS
62
6
100
AcDbLine
10
582.952445000000
20
169.501176000000
30
0.0
11
595.923407000000
21
169.501176000000
31
0.0
0
LINE
5
748
100
AcDbEntity
8
B-0
6
CONTINUOUS
62
6
100
AcDbLine
10
611.866476000000
20
169.501176000000
30
0.0
11
622.866476000000
21
169.501176000000
31
0.0
0
LINE
5
749
100
AcDbEntity
8
B-0
6
CONTINUOUS
62
6
100
AcDbLine
10
330.160676000000
20
171.501176000000
30
0.0
11
343.160676000000
21
171.501176000000
31
0.0
0
LINE
5
74a
100
AcDbEntity
8
B-0
6
CONTINUOUS
62
6
100
AcDbLine
10
346.779963000000
20
171.501176000000
30
0.0
11
359.779963000000
21
171.501176000000
31
0.0
0
LINE
5
74b
100
AcDbEntity
8
B-0
6
CONTINUOUS
62
6
100
AcDbLine
10
384.449249000000
20
171.501176000000
30
0.0
11
397.449249000000
21
171.501176000000
31
0.0
0
LINE
5
74c
100
AcDbEntity
8
B-0
6
CONTINUOUS
62
6
100
AcDbLine
10
426.436499000000
20
171.501176000000
30
0.0
11
439.419708000000
21
171.501176000000
31
0.0
0
LINE
5
74d
100
AcDbEntity
8
B-0
6
CONTINUOUS
62
6
100
AcDbLine
10
449.309095000000
20
171.501176000000
30
0.0
11
462.309095000000
21
171.501176000000
31
0.0
0
LINE
5
74e
100
AcDbEntity
8
B-0
6
CONTINUOUS
62
6
100
AcDbLine
10
485.262610000000
20
171.501176000000
30
0.0
11
498.262610000000
21
171.501176000000
31
0.0
0
LINE
5
74f
100
AcDbEntity
8
B-0
6
CONTINUOUS
62
6
100
AcDbLine
10
508.262610000000
20
171.501176000000
30
0.0
11
521.262610000000
21
171.501176000000
31
0.0
0
LINE
5
750
100
AcDbEntity
8
B-0
6
CONTINUOUS
62
6
100
AcDbLine
10
526.336640000000
20
171.501176000000
30
0.0
11
539.336640000000
21
171.501176000000
31
0.0
0
LINE
5
751
100
AcDbEntity
8
B-0
6
CONTINUOUS
62
6
100
AcDbLine
10
563.078882000000
20
171.501176000000
30
0.0
11
576.078882000000
21
171.501176000000
31
0.0
0
LINE
5
752
100
AcDbEntity
8
B-0
6
CONTINUOUS
62
6
100
AcDbLine
10
581.702706000000
20
171.501176000000
30
0.0
11
594.673669000000
21
171.501176000000
31
0.0
0
LINE
5
753
100
AcDbEntity
8
B-0
6
CONTINUOUS
62
6
100
AcDbLine
10
611.866476000000
20
171.501176000000
30
0.0
11
622.866476000000
21
171.501176000000
31
0.0
0
LINE
5
754
100
AcDbEntity
8
B-0
6
CONTINUOUS
62
6
100
AcDbLine
10
331.093291000000
20
173.501176000000
30
0.0
11
344.093291000000
21
173.501176000000
31
0.0
0
LINE
5
755
100
AcDbEntity
8
B-0
6
CONTINUOUS
62
6
100
AcDbLine
10
345.847348000000
20
173.501176000000
30
0.0
11
358.847348000000
21
173.501176000000
31
0.0
0
LINE
5
756
100
AcDbEntity
8
B-0
6
CONTINUOUS
62
6
100
AcDbLine
10
384.449249000000
20
173.501176000000
30
0.0
11
397.449249000000
21
173.501176000000
31
0.0
0
LINE
5
757
100
AcDbEntity
8
B-0
6
CONTINUOUS
62
6
100
AcDbLine
10
425.652780000000
20
173.501176000000
30
0.0
11
438.967564000000
21
173.501176000000
31
0.0
0
LINE
5
758
100
AcDbEntity
8
B-0
6
CONTINUOUS
62
6
100
AcDbLine
10
448.376480000000
20
173.501176000000
30
0.0
11
461.376480000000
21
173.501176000000
31
0.0
0
LINE
5
759
100
AcDbEntity
8
B-0
6
CONTINUOUS
62
6
100
AcDbLine
10
486.195225000000
20
173.501176000000
30
0.0
11
499.195225000000
21
173.501176000000
31
0.0
0
LINE
5
75a
100
AcDbEntity
8
B-0
6
CONTINUOUS
62
6
100
AcDbLine
10
509.195225000000
20
173.501176000000
30
0.0
11
522.195225000000
21
173.501176000000
31
0.0
0
LINE
5
75b
100
AcDbEntity
8
B-0
6
CONTINUOUS
62
6
100
AcDbLine
10
525.404025000000
20
173.501176000000
30
0.0
11
538.404025000000
21
173.501176000000
31
0.0
0
LINE
5
75c
100
AcDbEntity
8
B-0
6
CONTINUOUS
62
6
100
AcDbLine
10
563.078882000000
20
173.501176000000
30
0.0
11
576.078882000000
21
173.501176000000
31
0.0
0
LINE
5
75d
100
AcDbEntity
8
B-0
6
CONTINUOUS
62
6
100
AcDbLine
10
580.452968000000
20
173.501176000000
30
0.0
11
593.423930000000
21
173.501176000000
31
0.0
0
LINE
5
75e
100
AcDbEntity
8
B-0
6
CONTINUOUS
62
6
100
AcDbLine
10
611.866476000000
20
173.501176000000
30
0.0
11
622.866476000000
21
173.501176000000
31
0.0
0
LINE
5
75f
100
AcDbEntity
8
B-0
6
CONTINUOUS
62
6
100
AcDbLine
10
332.025907000000
20
175.501176000000
30
0.0
11
357.914733000000
21
175.501176000000
31
0.0
0
LINE
5
760
100
AcDbEntity
8
B-0
6
CONTINUOUS
62
6
100
AcDbLine
10
384.449249000000
20
175.501176000000
30
0.0
11
397.449249000000
21
175.501176000000
31
0.0
0
LINE
5
761
100
AcDbEntity
8
B-0
6
CONTINUOUS
62
6
100
AcDbLine
10
424.449249000000
20
175.501176000000
30
0.0
11
438.449249000000
21
175.501176000000
31
0.0
0
LINE
5
762
100
AcDbEntity
8
B-0
6
CONTINUOUS
62
6
100
AcDbLine
10
447.443864000000
20
175.501176000000
30
0.0
11
460.443864000000
21
175.501176000000
31
0.0
0
LINE
5
763
100
AcDbEntity
8
B-0
6
CONTINUOUS
62
6
100
AcDbLine
10
487.127840000000
20
175.501176000000
30
0.0
11
500.127840000000
21
175.501176000000
31
0.0
0
LINE
5
764
100
AcDbEntity
8
B-0
6
CONTINUOUS
62
6
100
AcDbLine
10
510.127840000000
20
175.501176000000
30
0.0
11
523.127840000000
21
175.501176000000
31
0.0
0
LINE
5
765
100
AcDbEntity
8
B-0
6
CONTINUOUS
62
6
100
AcDbLine
10
524.471410000000
20
175.501176000000
30
0.0
11
537.471410000000
21
175.501176000000
31
0.0
0
LINE
5
766
100
AcDbEntity
8
B-0
6
CONTINUOUS
62
6
100
AcDbLine
10
563.078882000000
20
175.501176000000
30
0.0
11
576.078882000000
21
175.501176000000
31
0.0
0
LINE
5
767
100
AcDbEntity
8
B-0
6
CONTINUOUS
62
6
100
AcDbLine
10
579.203229000000
20
175.501176000000
30
0.0
11
592.174191000000
21
175.501176000000
31
0.0
0
LINE
5
768
100
AcDbEntity
8
B-0
6
CONTINUOUS
62
6
100
AcDbLine
10
611.866476000000
20
175.501176000000
30
0.0
11
622.866476000000
21
175.501176000000
31
0.0
0
LINE
5
769
100
AcDbEntity
8
B-0
6
CONTINUOUS
62
6
100
AcDbLine
10
332.958522000000
20
177.501176000000
30
0.0
11
356.982117000000
21
177.501176000000
31
0.0
0
LINE
5
76a
100
AcDbEntity
8
B-0
6
CONTINUOUS
62
6
100
AcDbLine
10
384.449249000000
20
177.501176000000
30
0.0
11
397.449249000000
21
177.501176000000
31
0.0
0
LINE
5
76b
100
AcDbEntity
8
B-0
6
CONTINUOUS
62
6
100
AcDbLine
10
422.324749000000
20
177.501176000000
30
0.0
11
437.821236000000
21
177.501176000000
31
0.0
0
LINE
5
76c
100
AcDbEntity
8
B-0
6
CONTINUOUS
62
6
100
AcDbLine
10
446.511249000000
20
177.501176000000
30
0.0
11
459.511249000000
21
177.501176000000
31
0.0
0
LINE
5
76d
100
AcDbEntity
8
B-0
6
CONTINUOUS
62
6
100
AcDbLine
10
488.060455000000
20
177.501176000000
30
0.0
11
501.060455000000
21
177.501176000000
31
0.0
0
LINE
5
76e
100
AcDbEntity
8
B-0
6
CONTINUOUS
62
6
100
AcDbLine
10
511.060455000000
20
177.501176000000
30
0.0
11
536.538794000000
21
177.501176000000
31
0.0
0
LINE
5
76f
100
AcDbEntity
8
B-0
6
CONTINUOUS
62
6
100
AcDbLine
10
563.078882000000
20
177.501176000000
30
0.0
11
576.078882000000
21
177.501176000000
31
0.0
0
LINE
5
770
100
AcDbEntity
8
B-0
6
CONTINUOUS
62
6
100
AcDbLine
10
577.953490000000
20
177.501176000000
30
0.0
11
590.924453000000
21
177.501176000000
31
0.0
0
LINE
5
771
100
AcDbEntity
8
B-0
6
CONTINUOUS
62
6
100
AcDbLine
10
611.866476000000
20
177.501176000000
30
0.0
11
622.866476000000
21
177.501176000000
31
0.0
0
LINE
5
772
100
AcDbEntity
8
B-0
6
CONTINUOUS
62
6
100
AcDbLine
10
333.891137000000
20
179.501176000000
30
0.0
11
356.049502000000
21
179.501176000000
31
0.0
0
LINE
5
773
100
AcDbEntity
8
B-0
6
CONTINUOUS
62
6
100
AcDbLine
10
384.449249000000
20
179.501176000000
30
0.0
11
397.449249000000
21
179.501176000000
31
0.0
0
LINE
5
774
100
AcDbEntity
8
B-0
6
CONTINUOUS
62
6
100
AcDbLine
10
419.245905000000
20
179.501176000000
30
0.0
11
436.990619000000
21
179.501176000000
31
0.0
0
LINE
5
775
100
AcDbEntity
8
B-0
6
CONTINUOUS
62
6
100
AcDbLine
10
445.578634000000
20
179.501176000000
30
0.0
11
458.578634000000
21
179.501176000000
31
0.0
0
LINE
5
776
100
AcDbEntity
8
B-0
6
CONTINUOUS
62
6
100
AcDbLine
10
488.993071000000
20
179.501176000000
30
0.0
11
501.993071000000
21
179.501176000000
31
0.0
0
LINE
5
777
100
AcDbEntity
8
B-0
6
CONTINUOUS
62
6
100
AcDbLine
10
511.993071000000
20
179.501176000000
30
0.0
11
535.606179000000
21
179.501176000000
31
0.0
0
LINE
5
778
100
AcDbEntity
8
B-0
6
CONTINUOUS
62
6
100
AcDbLine
10
563.078882000000
20
179.501176000000
30
0.0
11
576.078882000000
21
179.501176000000
31
0.0
0
LINE
5
779
100
AcDbEntity
8
B-0
6
CONTINUOUS
62
6
100
AcDbLine
10
576.703751000000
20
179.501176000000
30
0.0
11
589.674714000000
21
179.501176000000
31
0.0
0
LINE
5
77a
100
AcDbEntity
8
B-0
6
CONTINUOUS
62
6
100
AcDbLine
10
611.866476000000
20
179.501176000000
30
0.0
11
622.866476000000
21
179.501176000000
31
0.0
0
LINE
5
77b
100
AcDbEntity
8
B-0
6
CONTINUOUS
62
6
100
AcDbLine
10
334.823753000000
20
181.501176000000
30
0.0
11
355.116887000000
21
181.501176000000
31
0.0
0
LINE
5
77c
100
AcDbEntity
8
B-0
6
CONTINUOUS
62
6
100
AcDbLine
10
384.449249000000
20
181.501176000000
30
0.0
11
435.759809000000
21
181.501176000000
31
0.0
0
LINE
5
77d
100
AcDbEntity
8
B-0
6
CONTINUOUS
62
6
100
AcDbLine
10
444.646018000000
20
181.501176000000
30
0.0
11
457.646018000000
21
181.501176000000
31
0.0
0
LINE
5
77e
100
AcDbEntity
8
B-0
6
CONTINUOUS
62
6
100
AcDbLine
10
489.925686000000
20
181.501176000000
30
0.0
11
502.925686000000
21
181.501176000000
31
0.0
0
LINE
5
77f
100
AcDbEntity
8
B-0
6
CONTINUOUS
62
6
100
AcDbLine
10
512.925686000000
20
181.501176000000
30
0.0
11
534.673564000000
21
181.501176000000
31
0.0
0
LINE
5
780
100
AcDbEntity
8
B-0
6
CONTINUOUS
62
6
100
AcDbLine
10
563.078882000000
20
181.501176000000
30
0.0
11
588.424975000000
21
181.501176000000
31
0.0
0
LINE
5
781
100
AcDbEntity
8
B-0
6
CONTINUOUS
62
6
100
AcDbLine
10
611.866476000000
20
181.501176000000
30
0.0
11
622.866476000000
21
181.501176000000
31
0.0
0
LINE
5
782
100
AcDbEntity
8
B-0
6
CONTINUOUS
62
6
100
AcDbLine
10
335.756368000000
20
183.501176000000
30
0.0
11
354.184271000000
21
183.501176000000
31
0.0
0
LINE
5
783
100
AcDbEntity
8
B-0
6
CONTINUOUS
62
6
100
AcDbLine
10
384.449249000000
20
183.501176000000
30
0.0
11
433.868198000000
21
183.501176000000
31
0.0
0
LINE
5
784
100
AcDbEntity
8
B-0
6
CONTINUOUS
62
6
100
AcDbLine
10
443.713403000000
20
183.501176000000
30
0.0
11
456.713403000000
21
183.501176000000
31
0.0
0
LINE
5
785
100
AcDbEntity
8
B-0
6
CONTINUOUS
62
6
100
AcDbLine
10
490.858301000000
20
183.501176000000
30
0.0
11
503.858301000000
21
183.501176000000
31
0.0
0
LINE
5
786
100
AcDbEntity
8
B-0
6
CONTINUOUS
62
6
100
AcDbLine
10
513.858301000000
20
183.501176000000
30
0.0
11
533.740948000000
21
183.501176000000
31
0.0
0
LINE
5
787
100
AcDbEntity
8
B-0
6
CONTINUOUS
62
6
100
AcDbLine
10
563.078882000000
20
183.501176000000
30
0.0
11
587.175236000000
21
183.501176000000
31
0.0
0
LINE
5
788
100
AcDbEntity
8
B-0
6
CONTINUOUS
62
6
100
AcDbLine
10
611.866476000000
20
183.501176000000
30
0.0
11
622.866476000000
21
183.501176000000
31
0.0
0
LINE
5
789
100
AcDbEntity
8
B-0
6
CONTINUOUS
62
6
100
AcDbLine
10
336.688983000000
20
185.501176000000
30
0.0
11
353.251656000000
21
185.501176000000
31
0.0
0
LINE
5
78a
100
AcDbEntity
8
B-0
6
CONTINUOUS
62
6
100
AcDbLine
10
384.449249000000
20
185.501176000000
30
0.0
11
431.090539000000
21
185.501176000000
31
0.0
0
LINE
5
78b
100
AcDbEntity
8
B-0
6
CONTINUOUS
62
6
100
AcDbLine
10
442.780788000000
20
185.501176000000
30
0.0
11
455.780788000000
21
185.501176000000
31
0.0
0
LINE
5
78c
100
AcDbEntity
8
B-0
6
CONTINUOUS
62
6
100
AcDbLine
10
491.790917000000
20
185.501176000000
30
0.0
11
504.790917000000
21
185.501176000000
31
0.0
0
LINE
5
78d
100
AcDbEntity
8
B-0
6
CONTINUOUS
62
6
100
AcDbLine
10
514.790917000000
20
185.501176000000
30
0.0
11
532.808333000000
21
185.501176000000
31
0.0
0
LINE
5
78e
100
AcDbEntity
8
B-0
6
CONTINUOUS
62
6
100
AcDbLine
10
563.078882000000
20
185.501176000000
30
0.0
11
585.925498000000
21
185.501176000000
31
0.0
0
LINE
5
78f
100
AcDbEntity
8
B-0
6
CONTINUOUS
62
6
100
AcDbLine
10
611.866476000000
20
185.501176000000
30
0.0
11
622.866476000000
21
185.501176000000
31
0.0
0
LINE
5
790
100
AcDbEntity
8
B-0
6
CONTINUOUS
62
6
100
AcDbLine
10
337.621599000000
20
187.501176000000
30
0.0
11
352.319041000000
21
187.501176000000
31
0.0
0
LINE
5
791
100
AcDbEntity
8
B-0
6
CONTINUOUS
62
6
100
AcDbLine
10
384.449249000000
20
187.501176000000
30
0.0
11
427.079879000000
21
187.501176000000
31
0.0
0
LINE
5
792
100
AcDbEntity
8
B-0
6
CONTINUOUS
62
6
100
AcDbLine
10
441.848172000000
20
187.501176000000
30
0.0
11
454.848172000000
21
187.501176000000
31
0.0
0
LINE
5
793
100
AcDbEntity
8
B-0
6
CONTINUOUS
62
6
100
AcDbLine
10
492.723532000000
20
187.501176000000
30
0.0
11
505.723532000000
21
187.501176000000
31
0.0
0
LINE
5
794
100
AcDbEntity
8
B-0
6
CONTINUOUS
62
6
100
AcDbLine
10
515.723532000000
20
187.501176000000
30
0.0
11
531.875718000000
21
187.501176000000
31
0.0
0
LINE
5
795
100
AcDbEntity
8
B-0
6
CONTINUOUS
62
6
100
AcDbLine
10
563.078882000000
20
187.501176000000
30
0.0
11
584.675759000000
21
187.501176000000
31
0.0
0
LINE
5
796
100
AcDbEntity
8
B-0
6
CONTINUOUS
62
6
100
AcDbLine
10
611.866476000000
20
187.501176000000
30
0.0
11
622.866476000000
21
187.501176000000
31
0.0
0
LINE
5
797
100
AcDbEntity
8
B-0
6
CONTINUOUS
62
6
100
AcDbLine
10
338.554214000000
20
189.501176000000
30
0.0
11
351.386425000000
21
189.501176000000
31
0.0
0
LINE
5
798
100
AcDbEntity
8
B-0
6
CONTINUOUS
62
6
100
AcDbLine
10
384.449249000000
20
189.501176000000
30
0.0
11
421.195923000000
21
189.501176000000
31
0.0
0
LINE
5
799
100
AcDbEntity
8
B-0
6
CONTINUOUS
62
6
100
AcDbLine
10
440.915557000000
20
189.501176000000
30
0.0
11
453.915557000000
21
189.501176000000
31
0.0
0
LINE
5
79a
100
AcDbEntity
8
B-0
6
CONTINUOUS
62
6
100
AcDbLine
10
493.656147000000
20
189.501176000000
30
0.0
11
506.656147000000
21
189.501176000000
31
0.0
0
LINE
5
79b
100
AcDbEntity
8
B-0
6
CONTINUOUS
62
6
100
AcDbLine
10
516.656147000000
20
189.501176000000
30
0.0
11
530.943102000000
21
189.501176000000
31
0.0
0
LINE
5
79c
100
AcDbEntity
8
B-0
6
CONTINUOUS
62
6
100
AcDbLine
10
563.078882000000
20
189.501176000000
30
0.0
11
583.426020000000
21
189.501176000000
31
0.0
0
LINE
5
79d
100
AcDbEntity
8
B-0
6
CONTINUOUS
62
6
100
AcDbLine
10
611.866476000000
20
189.501176000000
30
0.0
11
622.866476000000
21
189.501176000000
31
0.0
0
LINE
5
79e
100
AcDbEntity
8
B-0
6
CONTINUOUS
62
6
100
AcDbLine
10
204.111622000000
20
134.190524000000
30
0.0
11
246.150120000000
21
134.190524000000
31
0.0
0
LINE
5
79f
100
AcDbEntity
8
B-0
6
CONTINUOUS
62
6
100
AcDbLine
10
204.111622000000
20
135.190524000000
30
0.0
11
246.150120000000
21
135.190524000000
31
0.0
0
LINE
5
7a0
100
AcDbEntity
8
B-0
6
CONTINUOUS
62
6
100
AcDbLine
10
204.111622000000
20
136.190524000000
30
0.0
11
246.150120000000
21
136.190524000000
31
0.0
0
LINE
5
7a1
100
AcDbEntity
8
B-0
6
CONTINUOUS
62
6
100
AcDbLine
10
204.111622000000
20
137.190524000000
30
0.0
11
246.150120000000
21
137.190524000000
31
0.0
0
LINE
5
7a2
100
AcDbEntity
8
B-0
6
CONTINUOUS
62
6
100
AcDbLine
10
204.111622000000
20
138.190524000000
30
0.0
11
246.150120000000
21
138.190524000000
31
0.0
0
LINE
5
7a3
100
AcDbEntity
8
B-0
6
CONTINUOUS
62
6
100
AcDbLine
10
204.111622000000
20
139.190524000000
30
0.0
11
246.150120000000
21
139.190524000000
31
0.0
0
LINE
5
7a4
100
AcDbEntity
8
B-0
6
CONTINUOUS
62
6
100
AcDbLine
10
204.111622000000
20
140.190524000000
30
0.0
11
246.150120000000
21
140.190524000000
31
0.0
0
LINE
5
7a5
100
AcDbEntity
8
B-0
6
CONTINUOUS
62
6
100
AcDbLine
10
204.111622000000
20
141.190524000000
30
0.0
11
246.150120000000
21
141.190524000000
31
0.0
0
LINE
5
7a6
100
AcDbEntity
8
B-0
6
CONTINUOUS
62
6
100
AcDbLine
10
204.111622000000
20
142.190524000000
30
0.0
11
246.150120000000
21
142.190524000000
31
0.0
0
LINE
5
7a7
100
AcDbEntity
8
B-0
6
CONTINUOUS
62
6
100
AcDbLine
10
204.111622000000
20
143.190524000000
30
0.0
11
246.150120000000
21
143.190524000000
31
0.0
0
LINE
5
7a8
100
AcDbEntity
8
B-0
6
CONTINUOUS
62
6
100
AcDbLine
10
204.111622000000
20
144.190524000000
30
0.0
11
246.150120000000
21
144.190524000000
31
0.0
0
LINE
5
7a9
100
AcDbEntity
8
B-0
6
CONTINUOUS
62
6
100
AcDbLine
10
204.111622000000
20
145.190524000000
30
0.0
11
246.150120000000
21
145.190524000000
31
0.0
0
LINE
5
7aa
100
AcDbEntity
8
B-0
6
CONTINUOUS
62
6
100
AcDbLine
10
204.111622000000
20
146.190524000000
30
0.0
11
246.150120000000
21
146.190524000000
31
0.0
0
LINE
5
7ab
100
AcDbEntity
8
B-0
6
CONTINUOUS
62
6
100
AcDbLine
10
204.111622000000
20
147.190524000000
30
0.0
11
246.150120000000
21
147.190524000000
31
0.0
0
LINE
5
7ac
100
AcDbEntity
8
B-0
6
CONTINUOUS
62
6
100
AcDbLine
10
204.111622000000
20
148.190524000000
30
0.0
11
246.150120000000
21
148.190524000000
31
0.0
0
LINE
5
7ad
100
AcDbEntity
8
B-0
6
CONTINUOUS
62
6
100
AcDbLine
10
204.111622000000
20
149.190524000000
30
0.0
11
246.150120000000
21
149.190524000000
31
0.0
0
LINE
5
7ae
100
AcDbEntity
8
B-0
6
CONTINUOUS
62
6
100
AcDbLine
10
204.111622000000
20
150.190524000000
30
0.0
11
246.150120000000
21
150.190524000000
31
0.0
0
LINE
5
7af
100
AcDbEntity
8
B-0
6
CONTINUOUS
62
6
100
AcDbLine
10
204.111622000000
20
151.190524000000
30
0.0
11
246.150120000000
21
151.190524000000
31
0.0
0
LINE
5
7b0
100
AcDbEntity
8
B-0
6
CONTINUOUS
62
6
100
AcDbLine
10
204.111622000000
20
152.190524000000
30
0.0
11
246.150120000000
21
152.190524000000
31
0.0
0
LINE
5
7b1
100
AcDbEntity
8
B-0
6
CONTINUOUS
62
6
100
AcDbLine
10
204.111622000000
20
153.190524000000
30
0.0
11
246.150120000000
21
153.190524000000
31
0.0
0
LINE
5
7b2
100
AcDbEntity
8
B-0
6
CONTINUOUS
62
6
100
AcDbLine
10
204.111622000000
20
154.190524000000
30
0.0
11
246.150120000000
21
154.190524000000
31
0.0
0
LINE
5
7b3
100
AcDbEntity
8
B-0
6
CONTINUOUS
62
6
100
AcDbLine
10
204.111622000000
20
155.190524000000
30
0.0
11
246.150120000000
21
155.190524000000
31
0.0
0
LINE
5
7b4
100
AcDbEntity
8
B-0
6
CONTINUOUS
62
6
100
AcDbLine
10
204.111622000000
20
156.190524000000
30
0.0
11
246.150120000000
21
156.190524000000
31
0.0
0
LINE
5
7b5
100
AcDbEntity
8
B-0
6
CONTINUOUS
62
6
100
AcDbLine
10
204.111622000000
20
157.190524000000
30
0.0
11
246.150120000000
21
157.190524000000
31
0.0
0
LINE
5
7b6
100
AcDbEntity
8
B-0
6
CONTINUOUS
62
6
100
AcDbLine
10
204.111622000000
20
158.190524000000
30
0.0
11
246.150120000000
21
158.190524000000
31
0.0
0
LINE
5
7b7
100
AcDbEntity
8
B-0
6
CONTINUOUS
62
6
100
AcDbLine
10
204.111622000000
20
159.190524000000
30
0.0
11
246.150120000000
21
159.190524000000
31
0.0
0
LINE
5
7b8
100
AcDbEntity
8
B-0
6
CONTINUOUS
62
6
100
AcDbLine
10
204.111622000000
20
160.190524000000
30
0.0
11
246.150120000000
21
160.190524000000
31
0.0
0
LINE
5
7b9
100
AcDbEntity
8
B-0
6
CONTINUOUS
62
6
100
AcDbLine
10
204.111622000000
20
161.190524000000
30
0.0
11
246.150120000000
21
161.190524000000
31
0.0
0
LINE
5
7ba
100
AcDbEntity
8
B-0
6
CONTINUOUS
62
6
100
AcDbLine
10
204.111622000000
20
162.190524000000
30
0.0
11
246.150120000000
21
162.190524000000
31
0.0
0
LINE
5
7bb
100
AcDbEntity
8
B-0
6
CONTINUOUS
62
6
100
AcDbLine
10
204.111622000000
20
163.190524000000
30
0.0
11
246.150120000000
21
163.190524000000
31
0.0
0
LINE
5
7bc
100
AcDbEntity
8
B-0
6
CONTINUOUS
62
6
100
AcDbLine
10
204.111622000000
20
164.190524000000
30
0.0
11
246.150120000000
21
164.190524000000
31
0.0
0
LINE
5
7bd
100
AcDbEntity
8
B-0
6
CONTINUOUS
62
6
100
AcDbLine
10
204.111622000000
20
165.190524000000
30
0.0
11
246.150120000000
21
165.190524000000
31
0.0
0
LINE
5
7be
100
AcDbEntity
8
B-0
6
CONTINUOUS
62
6
100
AcDbLine
10
204.111622000000
20
166.190524000000
30
0.0
11
246.150120000000
21
166.190524000000
31
0.0
0
LINE
5
7bf
100
AcDbEntity
8
B-0
6
CONTINUOUS
62
6
100
AcDbLine
10
204.111622000000
20
167.190524000000
30
0.0
11
246.150120000000
21
167.190524000000
31
0.0
0
LINE
5
7c0
100
AcDbEntity
8
B-0
6
CONTINUOUS
62
6
100
AcDbLine
10
204.111622000000
20
168.190524000000
30
0.0
11
246.150120000000
21
168.190524000000
31
0.0
0
LINE
5
7c1
100
AcDbEntity
8
B-0
6
CONTINUOUS
62
6
100
AcDbLine
10
204.111622000000
20
169.190524000000
30
0.0
11
246.150120000000
21
169.190524000000
31
0.0
0
LINE
5
7c2
100
AcDbEntity
8
B-0
6
CONTINUOUS
62
6
100
AcDbLine
10
204.111622000000
20
170.190524000000
30
0.0
11
246.150120000000
21
170.190524000000
31
0.0
0
LINE
5
7c3
100
AcDbEntity
8
B-0
6
CONTINUOUS
62
6
100
AcDbLine
10
204.111622000000
20
171.190524000000
30
0.0
11
246.150120000000
21
171.190524000000
31
0.0
0
LINE
5
7c4
100
AcDbEntity
8
B-0
6
CONTINUOUS
62
6
100
AcDbLine
10
204.111622000000
20
172.190524000000
30
0.0
11
246.150120000000
21
172.190524000000
31
0.0
0
LINE
5
7c5
100
AcDbEntity
8
B-0
6
CONTINUOUS
62
6
100
AcDbLine
10
204.111622000000
20
173.190524000000
30
0.0
11
246.150120000000
21
173.190524000000
31
0.0
0
LINE
5
7c6
100
AcDbEntity
8
B-0
6
CONTINUOUS
62
6
100
AcDbLine
10
204.111622000000
20
174.190524000000
30
0.0
11
246.150120000000
21
174.190524000000
31
0.0
0
LINE
5
7c7
100
AcDbEntity
8
B-0
6
CONTINUOUS
62
6
100
AcDbLine
10
204.111622000000
20
175.190524000000
30
0.0
11
246.150120000000
21
175.190524000000
31
0.0
0
LINE
5
7c8
100
AcDbEntity
8
B-0
6
CONTINUOUS
62
6
100
AcDbLine
10
298.923247000000
20
222.190524000000
30
0.0
11
313.558825000000
21
222.190524000000
31
0.0
0
LINE
5
7c9
100
AcDbEntity
8
B-0
6
CONTINUOUS
62
6
100
AcDbLine
10
296.200263000000
20
224.190524000000
30
0.0
11
316.281809000000
21
224.190524000000
31
0.0
0
LINE
5
7ca
100
AcDbEntity
8
B-0
6
CONTINUOUS
62
6
100
AcDbLine
10
294.405318000000
20
226.190524000000
30
0.0
11
318.076754000000
21
226.190524000000
31
0.0
0
LINE
5
7cb
100
AcDbEntity
8
B-0
6
CONTINUOUS
62
6
100
AcDbLine
10
293.150913000000
20
228.190524000000
30
0.0
11
319.331158000000
21
228.190524000000
31
0.0
0
LINE
5
7cc
100
AcDbEntity
8
B-0
6
CONTINUOUS
62
6
100
AcDbLine
10
292.290466000000
20
230.190524000000
30
0.0
11
320.191606000000
21
230.190524000000
31
0.0
0
LINE
5
7cd
100
AcDbEntity
8
B-0
6
CONTINUOUS
62
6
100
AcDbLine
10
291.753611000000
20
232.190524000000
30
0.0
11
320.728461000000
21
232.190524000000
31
0.0
0
LINE
5
7ce
100
AcDbEntity
8
B-0
6
CONTINUOUS
62
6
100
AcDbLine
10
291.504938000000
20
234.190524000000
30
0.0
11
320.977134000000
21
234.190524000000
31
0.0
0
LINE
5
7cf
100
AcDbEntity
8
B-0
6
CONTINUOUS
62
6
100
AcDbLine
10
291.529827000000
20
236.190524000000
30
0.0
11
320.952245000000
21
236.190524000000
31
0.0
0
LINE
5
7d0
100
AcDbEntity
8
B-0
6
CONTINUOUS
62
6
100
AcDbLine
10
291.829695000000
20
238.190524000000
30
0.0
11
320.652377000000
21
238.190524000000
31
0.0
0
LINE
5
7d1
100
AcDbEntity
8
B-0
6
CONTINUOUS
62
6
100
AcDbLine
10
292.422431000000
20
240.190524000000
30
0.0
11
320.059641000000
21
240.190524000000
31
0.0
0
LINE
5
7d2
100
AcDbEntity
8
B-0
6
CONTINUOUS
62
6
100
AcDbLine
10
293.348366000000
20
242.190524000000
30
0.0
11
319.133706000000
21
242.190524000000
31
0.0
0
LINE
5
7d3
100
AcDbEntity
8
B-0
6
CONTINUOUS
62
6
100
AcDbLine
10
294.687334000000
20
244.190524000000
30
0.0
11
317.794738000000
21
244.190524000000
31
0.0
0
LINE
5
7d4
100
AcDbEntity
8
B-0
6
CONTINUOUS
62
6
100
AcDbLine
10
296.610090000000
20
246.190524000000
30
0.0
11
315.871982000000
21
246.190524000000
31
0.0
0
LINE
5
7d5
100
AcDbEntity
8
B-0
6
CONTINUOUS
62
6
100
AcDbLine
10
299.606112000000
20
248.190524000000
30
0.0
11
312.875959000000
21
248.190524000000
31
0.0
0
LINE
5
7d6
100
AcDbEntity
8
B-0
6
CONTINUOUS
62
6
100
AcDbLine
10
320.223157000000
20
230.282893000000
30
0.0
11
320.223157000000
21
239.731700000000
31
0.0
0
LINE
5
7d7
100
AcDbEntity
8
B-0
6
CONTINUOUS
62
6
100
AcDbLine
10
318.223157000000
20
226.390541000000
30
0.0
11
318.223157000000
21
243.624052000000
31
0.0
0
LINE
5
7d8
100
AcDbEntity
8
B-0
6
CONTINUOUS
62
6
100
AcDbLine
10
316.223157000000
20
224.136374000000
30
0.0
11
316.223157000000
21
245.878219000000
31
0.0
0
LINE
5
7d9
100
AcDbEntity
8
B-0
6
CONTINUOUS
62
6
100
AcDbLine
10
314.223157000000
20
222.593375000000
30
0.0
11
314.223157000000
21
247.421217000000
31
0.0
0
LINE
5
7da
100
AcDbEntity
8
B-0
6
CONTINUOUS
62
6
100
AcDbLine
10
312.223157000000
20
221.515301000000
30
0.0
11
312.223157000000
21
248.499291000000
31
0.0
0
LINE
5
7db
100
AcDbEntity
8
B-0
6
CONTINUOUS
62
6
100
AcDbLine
10
310.223157000000
20
220.795948000000
30
0.0
11
310.223157000000
21
249.218644000000
31
0.0
0
LINE
5
7dc
100
AcDbEntity
8
B-0
6
CONTINUOUS
62
6
100
AcDbLine
10
308.223157000000
20
220.382287000000
30
0.0
11
308.223157000000
21
249.632305000000
31
0.0
0
LINE
5
7dd
100
AcDbEntity
8
B-0
6
CONTINUOUS
62
6
100
AcDbLine
10
306.223157000000
20
220.248591000000
30
0.0
11
306.223157000000
21
249.766001000000
31
0.0
0
LINE
5
7de
100
AcDbEntity
8
B-0
6
CONTINUOUS
62
6
100
AcDbLine
10
245.223157000000
20
133.984894000000
30
0.0
11
245.223157000000
21
176.082586000000
31
0.0
0
LINE
5
7df
100
AcDbEntity
8
B-0
6
CONTINUOUS
62
6
100
AcDbLine
10
244.223157000000
20
133.984894000000
30
0.0
11
244.223157000000
21
176.082586000000
31
0.0
0
LINE
5
7e0
100
AcDbEntity
8
B-0
6
CONTINUOUS
62
6
100
AcDbLine
10
243.223157000000
20
133.984894000000
30
0.0
11
243.223157000000
21
176.082586000000
31
0.0
0
LINE
5
7e1
100
AcDbEntity
8
B-0
6
CONTINUOUS
62
6
100
AcDbLine
10
242.223157000000
20
133.984894000000
30
0.0
11
242.223157000000
21
176.082586000000
31
0.0
0
LINE
5
7e2
100
AcDbEntity
8
B-0
6
CONTINUOUS
62
6
100
AcDbLine
10
241.223157000000
20
133.984894000000
30
0.0
11
241.223157000000
21
176.082586000000
31
0.0
0
LINE
5
7e3
100
AcDbEntity
8
B-0
6
CONTINUOUS
62
6
100
AcDbLine
10
240.223157000000
20
133.984894000000
30
0.0
11
240.223157000000
21
176.082586000000
31
0.0
0
LINE
5
7e4
100
AcDbEntity
8
B-0
6
CONTINUOUS
62
6
100
AcDbLine
10
239.223157000000
20
133.984894000000
30
0.0
11
239.223157000000
21
176.082586000000
31
0.0
0
LINE
5
7e5
100
AcDbEntity
8
B-0
6
CONTINUOUS
62
6
100
AcDbLine
10
238.223157000000
20
133.984894000000
30
0.0
11
238.223157000000
21
176.082586000000
31
0.0
0
LINE
5
7e6
100
AcDbEntity
8
B-0
6
CONTINUOUS
62
6
100
AcDbLine
10
237.223157000000
20
133.984894000000
30
0.0
11
237.223157000000
21
176.082586000000
31
0.0
0
LINE
5
7e7
100
AcDbEntity
8
B-0
6
CONTINUOUS
62
6
100
AcDbLine
10
236.223157000000
20
133.984894000000
30
0.0
11
236.223157000000
21
176.082586000000
31
0.0
0
LINE
5
7e8
100
AcDbEntity
8
B-0
6
CONTINUOUS
62
6
100
AcDbLine
10
235.223157000000
20
133.984894000000
30
0.0
11
235.223157000000
21
176.082586000000
31
0.0
0
LINE
5
7e9
100
AcDbEntity
8
B-0
6
CONTINUOUS
62
6
100
AcDbLine
10
234.223157000000
20
133.984894000000
30
0.0
11
234.223157000000
21
176.082586000000
31
0.0
0
LINE
5
7ea
100
AcDbEntity
8
B-0
6
CONTINUOUS
62
6
100
AcDbLine
10
233.223157000000
20
133.984894000000
30
0.0
11
233.223157000000
21
176.082586000000
31
0.0
0
LINE
5
7eb
100
AcDbEntity
8
B-0
6
CONTINUOUS
62
6
100
AcDbLine
10
232.223157000000
20
133.984894000000
30
0.0
11
232.223157000000
21
176.082586000000
31
0.0
0
LINE
5
7ec
100
AcDbEntity
8
B-0
6
CONTINUOUS
62
6
100
AcDbLine
10
231.223157000000
20
133.984894000000
30
0.0
11
231.223157000000
21
176.082586000000
31
0.0
0
LINE
5
7ed
100
AcDbEntity
8
B-0
6
CONTINUOUS
62
6
100
AcDbLine
10
230.223157000000
20
133.984894000000
30
0.0
11
230.223157000000
21
176.082586000000
31
0.0
0
LINE
5
7ee
100
AcDbEntity
8
B-0
6
CONTINUOUS
62
6
100
AcDbLine
10
229.223157000000
20
133.984894000000
30
0.0
11
229.223157000000
21
176.082586000000
31
0.0
0
LINE
5
7ef
100
AcDbEntity
8
B-0
6
CONTINUOUS
62
6
100
AcDbLine
10
228.223157000000
20
133.984894000000
30
0.0
11
228.223157000000
21
176.082586000000
31
0.0
0
LINE
5
7f0
100
AcDbEntity
8
B-0
6
CONTINUOUS
62
6
100
AcDbLine
10
227.223157000000
20
133.984894000000
30
0.0
11
227.223157000000
21
176.082586000000
31
0.0
0
LINE
5
7f1
100
AcDbEntity
8
B-0
6
CONTINUOUS
62
6
100
AcDbLine
10
226.223157000000
20
133.984894000000
30
0.0
11
226.223157000000
21
176.082586000000
31
0.0
0
LINE
5
7f2
100
AcDbEntity
8
B-0
6
CONTINUOUS
62
6
100
AcDbLine
10
225.223157000000
20
133.984894000000
30
0.0
11
225.223157000000
21
176.082586000000
31
0.0
0
LINE
5
7f3
100
AcDbEntity
8
B-0
6
CONTINUOUS
62
6
100
AcDbLine
10
224.223157000000
20
133.984894000000
30
0.0
11
224.223157000000
21
176.082586000000
31
0.0
0
LINE
5
7f4
100
AcDbEntity
8
B-0
6
CONTINUOUS
62
6
100
AcDbLine
10
223.223157000000
20
133.984894000000
30
0.0
11
223.223157000000
21
176.082586000000
31
0.0
0
LINE
5
7f5
100
AcDbEntity
8
B-0
6
CONTINUOUS
62
6
100
AcDbLine
10
222.223157000000
20
133.984894000000
30
0.0
11
222.223157000000
21
176.082586000000
31
0.0
0
LINE
5
7f6
100
AcDbEntity
8
B-0
6
CONTINUOUS
62
6
100
AcDbLine
10
221.223157000000
20
133.984894000000
30
0.0
11
221.223157000000
21
176.082586000000
31
0.0
0
LINE
5
7f7
100
AcDbEntity
8
B-0
6
CONTINUOUS
62
6
100
AcDbLine
10
220.223157000000
20
133.984894000000
30
0.0
11
220.223157000000
21
176.082586000000
31
0.0
0
LINE
5
7f8
100
AcDbEntity
8
B-0
6
CONTINUOUS
62
6
100
AcDbLine
10
219.223157000000
20
133.984894000000
30
0.0
11
219.223157000000
21
176.082586000000
31
0.0
0
LINE
5
7f9
100
AcDbEntity
8
B-0
6
CONTINUOUS
62
6
100
AcDbLine
10
218.223157000000
20
133.984894000000
30
0.0
11
218.223157000000
21
176.082586000000
31
0.0
0
LINE
5
7fa
100
AcDbEntity
8
B-0
6
CONTINUOUS
62
6
100
AcDbLine
10
217.223157000000
20
133.984894000000
30
0.0
11
217.223157000000
21
176.082586000000
31
0.0
0
LINE
5
7fb
100
AcDbEntity
8
B-0
6
CONTINUOUS
62
6
100
AcDbLine
10
216.223157000000
20
133.984894000000
30
0.0
11
216.223157000000
21
176.082586000000
31
0.0
0
LINE
5
7fc
100
AcDbEntity
8
B-0
6
CONTINUOUS
62
6
100
AcDbLine
10
215.223157000000
20
133.984894000000
30
0.0
11
215.223157000000
21
176.082586000000
31
0.0
0
LINE
5
7fd
100
AcDbEntity
8
B-0
6
CONTINUOUS
62
6
100
AcDbLine
10
214.223157000000
20
133.984894000000
30
0.0
11
214.223157000000
21
176.082586000000
31
0.0
0
LINE
5
7fe
100
AcDbEntity
8
B-0
6
CONTINUOUS
62
6
100
AcDbLine
10
213.223157000000
20
133.984894000000
30
0.0
11
213.223157000000
21
176.082586000000
31
0.0
0
LINE
5
7ff
100
AcDbEntity
8
B-0
6
CONTINUOUS
62
6
100
AcDbLine
10
212.223157000000
20
133.984894000000
30
0.0
11
212.223157000000
21
176.082586000000
31
0.0
0
LINE
5
800
100
AcDbEntity
8
B-0
6
CONTINUOUS
62
6
100
AcDbLine
10
211.223157000000
20
133.984894000000
30
0.0
11
211.223157000000
21
176.082586000000
31
0.0
0
LINE
5
801
100
AcDbEntity
8
B-0
6
CONTINUOUS
62
6
100
AcDbLine
10
210.223157000000
20
133.984894000000
30
0.0
11
210.223157000000
21
176.082586000000
31
0.0
0
LINE
5
802
100
AcDbEntity
8
B-0
6
CONTINUOUS
62
6
100
AcDbLine
10
209.223157000000
20
133.984894000000
30
0.0
11
209.223157000000
21
176.082586000000
31
0.0
0
LINE
5
803
100
AcDbEntity
8
B-0
6
CONTINUOUS
62
6
100
AcDbLine
10
208.223157000000
20
133.984894000000
30
0.0
11
208.223157000000
21
176.082586000000
31
0.0
0
LINE
5
804
100
AcDbEntity
8
B-0
6
CONTINUOUS
62
6
100
AcDbLine
10
207.223157000000
20
133.984894000000
30
0.0
11
207.223157000000
21
176.082586000000
31
0.0
0
LINE
5
805
100
AcDbEntity
8
B-0
6
CONTINUOUS
62
6
100
AcDbLine
10
206.223157000000
20
133.984894000000
30
0.0
11
206.223157000000
21
176.082586000000
31
0.0
0
LINE
5
806
100
AcDbEntity
8
B-0
6
CONTINUOUS
62
6
100
AcDbLine
10
205.223157000000
20
133.984894000000
30
0.0
11
205.223157000000
21
176.082586000000
31
0.0
0
LINE
5
807
100
AcDbEntity
8
B-0
6
CONTINUOUS
62
6
100
AcDbLine
10
204.223157000000
20
133.984894000000
30
0.0
11
204.223157000000
21
176.082586000000
31
0.0
0
LINE
5
808
100
AcDbEntity
8
B-0
6
CONTINUOUS
62
6
100
AcDbLine
10
227.220632000000
20
206.853920000000
30
0.0
11
170.319048000000
21
132.765736000000
31
0.0
0
LINE
5
809
100
AcDbEntity
8
B-0
6
CONTINUOUS
62
6
100
AcDbLine
10
170.319048000000
20
132.765736000000
30
0.0
11
164.745016000000
21
130.443222000000
31
0.0
0
LINE
5
80a
100
AcDbEntity
8
B-0
6
CONTINUOUS
62
6
100
AcDbLine
10
164.745016000000
20
130.443222000000
30
0.0
11
159.635486000000
21
128.585211000000
31
0.0
0
LINE
5
80b
100
AcDbEntity
8
B-0
6
CONTINUOUS
62
6
100
AcDbLine
10
159.635486000000
20
128.585211000000
30
0.0
11
156.848469000000
21
131.139976000000
31
0.0
0
LINE
5
80c
100
AcDbEntity
8
B-0
6
CONTINUOUS
62
6
100
AcDbLine
10
156.848469000000
20
131.139976000000
30
0.0
11
154.525956000000
21
134.391495000000
31
0.0
0
LINE
5
80d
100
AcDbEntity
8
B-0
6
CONTINUOUS
62
6
100
AcDbLine
10
154.525956000000
20
134.391495000000
30
0.0
11
152.667945000000
21
140.662282000000
31
0.0
0
LINE
5
80e
100
AcDbEntity
8
B-0
6
CONTINUOUS
62
6
100
AcDbLine
10
152.667945000000
20
140.662282000000
30
0.0
11
154.525956000000
21
146.468566000000
31
0.0
0
LINE
5
80f
100
AcDbEntity
8
B-0
6
CONTINUOUS
62
6
100
AcDbLine
10
154.525956000000
20
146.468566000000
30
0.0
11
161.493497000000
21
156.455375000000
31
0.0
0
LINE
5
810
100
AcDbEntity
8
B-0
6
CONTINUOUS
62
6
100
AcDbLine
10
161.493497000000
20
156.455375000000
30
0.0
11
213.982305000000
21
227.524292000000
31
0.0
0
LINE
5
811
100
AcDbEntity
8
B-0
6
CONTINUOUS
62
6
100
AcDbLine
10
213.982305000000
20
227.524292000000
30
0.0
11
213.982305000000
21
232.633822000000
31
0.0
0
LINE
5
812
100
AcDbEntity
8
B-0
6
CONTINUOUS
62
6
100
AcDbLine
10
213.982305000000
20
232.633822000000
30
0.0
11
215.375813000000
21
235.885341000000
31
0.0
0
LINE
5
813
100
AcDbEntity
8
B-0
6
CONTINUOUS
62
6
100
AcDbLine
10
215.375813000000
20
235.885341000000
30
0.0
11
219.091835000000
21
240.065865000000
31
0.0
0
LINE
5
814
100
AcDbEntity
8
B-0
6
CONTINUOUS
62
6
100
AcDbLine
10
219.091835000000
20
240.065865000000
30
0.0
11
220.253091000000
21
241.227122000000
31
0.0
0
LINE
5
815
100
AcDbEntity
8
B-0
6
CONTINUOUS
62
6
100
AcDbLine
10
220.253091000000
20
241.227122000000
30
0.0
11
222.343354000000
21
244.246390000000
31
0.0
0
LINE
5
816
100
AcDbEntity
8
B-0
6
CONTINUOUS
62
6
100
AcDbLine
10
222.343354000000
20
244.246390000000
30
0.0
11
225.827124000000
21
244.710892000000
31
0.0
0
LINE
5
817
100
AcDbEntity
8
B-0
6
CONTINUOUS
62
6
100
AcDbLine
10
225.827124000000
20
244.710892000000
30
0.0
11
231.865659000000
21
245.872149000000
31
0.0
0
LINE
5
818
100
AcDbEntity
8
B-0
6
CONTINUOUS
62
6
100
AcDbLine
10
231.865659000000
20
245.872149000000
30
0.0
11
234.188173000000
21
245.639898000000
31
0.0
0
LINE
5
819
100
AcDbEntity
8
B-0
6
CONTINUOUS
62
6
100
AcDbLine
10
234.188173000000
20
245.639898000000
30
0.0
11
239.065452000000
21
244.014138000000
31
0.0
0
LINE
5
81a
100
AcDbEntity
8
B-0
6
CONTINUOUS
62
6
100
AcDbLine
10
239.065452000000
20
244.014138000000
30
0.0
11
240.923463000000
21
241.691625000000
31
0.0
0
LINE
5
81b
100
AcDbEntity
8
B-0
6
CONTINUOUS
62
6
100
AcDbLine
10
240.923463000000
20
241.691625000000
30
0.0
11
246.032993000000
21
234.956335000000
31
0.0
0
LINE
5
81c
100
AcDbEntity
8
B-0
6
CONTINUOUS
62
6
100
AcDbLine
10
246.032993000000
20
234.956335000000
30
0.0
11
261.826085000000
21
208.711931000000
31
0.0
0
LINE
5
81d
100
AcDbEntity
8
B-0
6
CONTINUOUS
62
6
100
AcDbLine
10
273.014713000000
20
189.810504000000
30
0.0
11
295.493430000000
21
151.006960000000
31
0.0
0
LINE
5
81e
100
AcDbEntity
8
B-0
6
CONTINUOUS
62
6
100
AcDbLine
10
295.493430000000
20
151.006960000000
30
0.0
11
297.648972000000
21
145.464137000000
31
0.0
0
LINE
5
81f
100
AcDbEntity
8
B-0
6
CONTINUOUS
62
6
100
AcDbLine
10
297.648972000000
20
145.464137000000
30
0.0
11
296.725169000000
21
142.692726000000
31
0.0
0
LINE
5
820
100
AcDbEntity
8
B-0
6
CONTINUOUS
62
6
100
AcDbLine
10
296.725169000000
20
142.692726000000
30
0.0
11
293.953757000000
21
138.843543000000
31
0.0
0
LINE
5
821
100
AcDbEntity
8
B-0
6
CONTINUOUS
62
6
100
AcDbLine
10
293.953757000000
20
138.843543000000
30
0.0
11
283.176045000000
21
135.610230000000
31
0.0
0
LINE
5
822
100
AcDbEntity
8
B-0
6
CONTINUOUS
62
6
100
AcDbLine
10
283.176045000000
20
135.610230000000
30
0.0
11
276.709418000000
21
133.300720000000
31
0.0
0
LINE
5
823
100
AcDbEntity
8
B-0
6
CONTINUOUS
62
6
100
AcDbLine
10
276.709418000000
20
133.300720000000
30
0.0
11
271.012628000000
21
135.610230000000
31
0.0
0
LINE
5
824
100
AcDbEntity
8
B-0
6
CONTINUOUS
62
6
100
AcDbLine
10
271.012628000000
20
135.610230000000
30
0.0
11
262.236491000000
21
145.002235000000
31
0.0
0
LINE
5
825
100
AcDbEntity
8
B-0
6
CONTINUOUS
62
6
100
AcDbLine
10
262.236491000000
20
145.002235000000
30
0.0
11
261.928557000000
21
150.083157000000
31
0.0
0
LINE
5
826
100
AcDbEntity
8
B-0
6
CONTINUOUS
62
6
100
AcDbLine
10
261.928557000000
20
150.083157000000
30
0.0
11
227.220632000000
21
206.853920000000
31
0.0
0
LINE
5
827
100
AcDbEntity
8
B-0
6
CONTINUOUS
62
6
100
AcDbLine
10
292.873227000000
20
138.519384000000
30
0.0
11
295.898710000000
21
141.544867000000
31
0.0
0
LINE
5
828
100
AcDbEntity
8
B-0
6
CONTINUOUS
62
6
100
AcDbLine
10
288.832617000000
20
137.307201000000
30
0.0
11
297.464335000000
21
145.938919000000
31
0.0
0
LINE
5
829
100
AcDbEntity
8
B-0
6
CONTINUOUS
62
6
100
AcDbLine
10
284.792007000000
20
136.095018000000
30
0.0
11
296.672375000000
21
147.975387000000
31
0.0
0
LINE
5
82a
100
AcDbEntity
8
B-0
6
CONTINUOUS
62
6
100
AcDbLine
10
280.535873000000
20
134.667311000000
30
0.0
11
295.880416000000
21
150.011854000000
31
0.0
0
LINE
5
82b
100
AcDbEntity
8
B-0
6
CONTINUOUS
62
6
100
AcDbLine
10
276.447171000000
20
133.407036000000
30
0.0
11
294.962905000000
21
151.922771000000
31
0.0
0
LINE
5
82c
100
AcDbEntity
8
B-0
6
CONTINUOUS
62
6
100
AcDbLine
10
274.434636000000
20
134.222929000000
30
0.0
11
293.925421000000
21
153.713713000000
31
0.0
0
LINE
5
82d
100
AcDbEntity
8
B-0
6
CONTINUOUS
62
6
100
AcDbLine
10
272.422102000000
20
135.038821000000
30
0.0
11
292.887936000000
21
155.504655000000
31
0.0
0
LINE
5
82e
100
AcDbEntity
8
B-0
6
CONTINUOUS
62
6
100
AcDbLine
10
270.603221000000
20
136.048367000000
30
0.0
11
291.850451000000
21
157.295598000000
31
0.0
0
LINE
5
82f
100
AcDbEntity
8
B-0
6
CONTINUOUS
62
6
100
AcDbLine
10
269.236946000000
20
137.510520000000
30
0.0
11
290.812966000000
21
159.086540000000
31
0.0
0
LINE
5
830
100
AcDbEntity
8
B-0
6
CONTINUOUS
62
6
100
AcDbLine
10
267.870672000000
20
138.972673000000
30
0.0
11
289.775481000000
21
160.877482000000
31
0.0
0
LINE
5
831
100
AcDbEntity
8
B-0
6
CONTINUOUS
62
6
100
AcDbLine
10
266.504398000000
20
140.434826000000
30
0.0
11
288.737997000000
21
162.668425000000
31
0.0
0
LINE
5
832
100
AcDbEntity
8
B-0
6
CONTINUOUS
62
6
100
AcDbLine
10
265.138124000000
20
141.896979000000
30
0.0
11
287.700512000000
21
164.459367000000
31
0.0
0
LINE
5
833
100
AcDbEntity
8
B-0
6
CONTINUOUS
62
6
100
AcDbLine
10
263.771850000000
20
143.359132000000
30
0.0
11
286.663027000000
21
166.250309000000
31
0.0
0
LINE
5
834
100
AcDbEntity
8
B-0
6
CONTINUOUS
62
6
100
AcDbLine
10
262.405576000000
20
144.821285000000
30
0.0
11
285.625542000000
21
168.041252000000
31
0.0
0
LINE
5
835
100
AcDbEntity
8
B-0
6
CONTINUOUS
62
6
100
AcDbLine
10
262.094869000000
20
147.339005000000
30
0.0
11
284.588058000000
21
169.832194000000
31
0.0
0
LINE
5
836
100
AcDbEntity
8
B-0
6
CONTINUOUS
62
6
100
AcDbLine
10
261.933245000000
20
150.005808000000
30
0.0
11
283.550573000000
21
171.623136000000
31
0.0
0
LINE
5
837
100
AcDbEntity
8
B-0
6
CONTINUOUS
62
6
100
AcDbLine
10
260.886549000000
20
151.787539000000
30
0.0
11
282.513088000000
21
173.414079000000
31
0.0
0
LINE
5
838
100
AcDbEntity
8
B-0
6
CONTINUOUS
62
6
100
AcDbLine
10
259.813415000000
20
153.542833000000
30
0.0
11
281.475603000000
21
175.205021000000
31
0.0
0
LINE
5
839
100
AcDbEntity
8
B-0
6
CONTINUOUS
62
6
100
AcDbLine
10
258.740282000000
20
155.298127000000
30
0.0
11
280.438118000000
21
176.995964000000
31
0.0
0
LINE
5
83a
100
AcDbEntity
8
B-0
6
CONTINUOUS
62
6
100
AcDbLine
10
257.667149000000
20
157.053421000000
30
0.0
11
279.400634000000
21
178.786906000000
31
0.0
0
LINE
5
83b
100
AcDbEntity
8
B-0
6
CONTINUOUS
62
6
100
AcDbLine
10
256.594015000000
20
158.808714000000
30
0.0
11
278.363149000000
21
180.577848000000
31
0.0
0
LINE
5
83c
100
AcDbEntity
8
B-0
6
CONTINUOUS
62
6
100
AcDbLine
10
255.520882000000
20
160.564008000000
30
0.0
11
277.325664000000
21
182.368791000000
31
0.0
0
LINE
5
83d
100
AcDbEntity
8
B-0
6
CONTINUOUS
62
6
100
AcDbLine
10
254.447748000000
20
162.319302000000
30
0.0
11
276.288179000000
21
184.159733000000
31
0.0
0
LINE
5
83e
100
AcDbEntity
8
B-0
6
CONTINUOUS
62
6
100
AcDbLine
10
253.374615000000
20
164.074596000000
30
0.0
11
275.250695000000
21
185.950675000000
31
0.0
0
LINE
5
83f
100
AcDbEntity
8
B-0
6
CONTINUOUS
62
6
100
AcDbLine
10
252.301482000000
20
165.829889000000
30
0.0
11
274.213210000000
21
187.741618000000
31
0.0
0
LINE
5
840
100
AcDbEntity
8
B-0
6
CONTINUOUS
62
6
100
AcDbLine
10
251.228348000000
20
167.585183000000
30
0.0
11
273.175725000000
21
189.532560000000
31
0.0
0
LINE
5
841
100
AcDbEntity
8
B-0
6
CONTINUOUS
62
6
100
AcDbLine
10
250.155215000000
20
169.340477000000
30
0.0
11
270.625242000000
21
189.810504000000
31
0.0
0
LINE
5
842
100
AcDbEntity
8
B-0
6
CONTINUOUS
62
6
100
AcDbLine
10
249.082081000000
20
171.095770000000
30
0.0
11
267.796815000000
21
189.810504000000
31
0.0
0
LINE
5
843
100
AcDbEntity
8
B-0
6
CONTINUOUS
62
6
100
AcDbLine
10
248.008948000000
20
172.851064000000
30
0.0
11
264.968388000000
21
189.810504000000
31
0.0
0
LINE
5
844
100
AcDbEntity
8
B-0
6
CONTINUOUS
62
6
100
AcDbLine
10
246.935815000000
20
174.606358000000
30
0.0
11
262.139961000000
21
189.810504000000
31
0.0
0
LINE
5
845
100
AcDbEntity
8
B-0
6
CONTINUOUS
62
6
100
AcDbLine
10
245.862681000000
20
176.361652000000
30
0.0
11
259.311534000000
21
189.810504000000
31
0.0
0
LINE
5
846
100
AcDbEntity
8
B-0
6
CONTINUOUS
62
6
100
AcDbLine
10
244.789548000000
20
178.116945000000
30
0.0
11
256.483106000000
21
189.810504000000
31
0.0
0
LINE
5
847
100
AcDbEntity
8
B-0
6
CONTINUOUS
62
6
100
AcDbLine
10
243.716414000000
20
179.872239000000
30
0.0
11
253.654679000000
21
189.810504000000
31
0.0
0
LINE
5
848
100
AcDbEntity
8
B-0
6
CONTINUOUS
62
6
100
AcDbLine
10
242.643281000000
20
181.627533000000
30
0.0
11
251.032307000000
21
190.016559000000
31
0.0
0
LINE
5
849
100
AcDbEntity
8
B-0
6
CONTINUOUS
62
6
100
AcDbLine
10
241.570148000000
20
183.382827000000
30
0.0
11
254.896010000000
21
196.708689000000
31
0.0
0
LINE
5
84a
100
AcDbEntity
8
B-0
6
CONTINUOUS
62
6
100
AcDbLine
10
240.497014000000
20
185.138120000000
30
0.0
11
258.759714000000
21
203.400820000000
31
0.0
0
LINE
5
84b
100
AcDbEntity
8
B-0
6
CONTINUOUS
62
6
100
AcDbLine
10
239.423881000000
20
186.893414000000
30
0.0
11
261.606799000000
21
209.076333000000
31
0.0
0
LINE
5
84c
100
AcDbEntity
8
B-0
6
CONTINUOUS
62
6
100
AcDbLine
10
238.350747000000
20
188.648708000000
30
0.0
11
260.544186000000
21
210.842146000000
31
0.0
0
LINE
5
84d
100
AcDbEntity
8
B-0
6
CONTINUOUS
62
6
100
AcDbLine
10
237.277614000000
20
190.404002000000
30
0.0
11
259.481572000000
21
212.607960000000
31
0.0
0
LINE
5
84e
100
AcDbEntity
8
B-0
6
CONTINUOUS
62
6
100
AcDbLine
10
236.204481000000
20
192.159295000000
30
0.0
11
258.418959000000
21
214.373774000000
31
0.0
0
LINE
5
84f
100
AcDbEntity
8
B-0
6
CONTINUOUS
62
6
100
AcDbLine
10
235.131347000000
20
193.914589000000
30
0.0
11
257.356345000000
21
216.139587000000
31
0.0
0
LINE
5
850
100
AcDbEntity
8
B-0
6
CONTINUOUS
62
6
100
AcDbLine
10
234.058214000000
20
195.669883000000
30
0.0
11
256.293732000000
21
217.905401000000
31
0.0
0
LINE
5
851
100
AcDbEntity
8
B-0
6
CONTINUOUS
62
6
100
AcDbLine
10
166.901776000000
20
131.341872000000
30
0.0
11
176.918848000000
21
141.358944000000
31
0.0
0
LINE
5
852
100
AcDbEntity
8
B-0
6
CONTINUOUS
62
6
100
AcDbLine
10
232.985080000000
20
197.425176000000
30
0.0
11
255.231118000000
21
219.671214000000
31
0.0
0
LINE
5
853
100
AcDbEntity
8
B-0
6
CONTINUOUS
62
6
100
AcDbLine
10
162.277375000000
20
129.545898000000
30
0.0
11
186.283235000000
21
153.551758000000
31
0.0
0
LINE
5
854
100
AcDbEntity
8
B-0
6
CONTINUOUS
62
6
100
AcDbLine
10
231.911947000000
20
199.180470000000
30
0.0
11
254.168505000000
21
221.437028000000
31
0.0
0
LINE
5
855
100
AcDbEntity
8
B-0
6
CONTINUOUS
62
6
100
AcDbLine
10
159.036933000000
20
129.133884000000
30
0.0
11
195.647622000000
21
165.744572000000
31
0.0
0
LINE
5
856
100
AcDbEntity
8
B-0
6
CONTINUOUS
62
6
100
AcDbLine
10
230.838814000000
20
200.935764000000
30
0.0
11
253.105891000000
21
223.202842000000
31
0.0
0
LINE
5
857
100
AcDbEntity
8
B-0
6
CONTINUOUS
62
6
100
AcDbLine
10
157.561232000000
20
130.486610000000
30
0.0
11
205.012009000000
21
177.937386000000
31
0.0
0
LINE
5
858
100
AcDbEntity
8
B-0
6
CONTINUOUS
62
6
100
AcDbLine
10
229.765680000000
20
202.691058000000
30
0.0
11
252.043278000000
21
224.968655000000
31
0.0
0
LINE
5
859
100
AcDbEntity
8
B-0
6
CONTINUOUS
62
6
100
AcDbLine
10
156.239179000000
20
131.992983000000
30
0.0
11
214.376396000000
21
190.130201000000
31
0.0
0
LINE
5
85a
100
AcDbEntity
8
B-0
6
CONTINUOUS
62
6
100
AcDbLine
10
228.692547000000
20
204.446351000000
30
0.0
11
250.980664000000
21
226.734469000000
31
0.0
0
LINE
5
85b
100
AcDbEntity
8
B-0
6
CONTINUOUS
62
6
100
AcDbLine
10
155.060667000000
20
133.642899000000
30
0.0
11
223.740783000000
21
202.323015000000
31
0.0
0
LINE
5
85c
100
AcDbEntity
8
B-0
6
CONTINUOUS
62
6
100
AcDbLine
10
227.619413000000
20
206.201645000000
30
0.0
11
249.918051000000
21
228.500282000000
31
0.0
0
LINE
5
85d
100
AcDbEntity
8
B-0
6
CONTINUOUS
62
6
100
AcDbLine
10
154.172785000000
20
135.583444000000
30
0.0
11
248.855437000000
21
230.266096000000
31
0.0
0
LINE
5
85e
100
AcDbEntity
8
B-0
6
CONTINUOUS
62
6
100
AcDbLine
10
153.526288000000
20
137.765374000000
30
0.0
11
247.792824000000
21
232.031910000000
31
0.0
0
LINE
5
85f
100
AcDbEntity
8
B-0
6
CONTINUOUS
62
6
100
AcDbLine
10
152.879790000000
20
139.947303000000
30
0.0
11
246.730210000000
21
233.797723000000
31
0.0
0
LINE
5
860
100
AcDbEntity
8
B-0
6
CONTINUOUS
62
6
100
AcDbLine
10
153.562817000000
20
143.458757000000
30
0.0
11
245.613441000000
21
235.509381000000
31
0.0
0
LINE
5
861
100
AcDbEntity
8
B-0
6
CONTINUOUS
62
6
100
AcDbLine
10
156.330010000000
20
149.054377000000
30
0.0
11
244.393335000000
21
237.117702000000
31
0.0
0
LINE
5
862
100
AcDbEntity
8
B-0
6
CONTINUOUS
62
6
100
AcDbLine
10
163.162835000000
20
158.715630000000
30
0.0
11
243.173229000000
21
238.726023000000
31
0.0
0
LINE
5
863
100
AcDbEntity
8
B-0
6
CONTINUOUS
62
6
100
AcDbLine
10
171.153142000000
20
169.534363000000
30
0.0
11
241.953123000000
21
240.334345000000
31
0.0
0
LINE
5
864
100
AcDbEntity
8
B-0
6
CONTINUOUS
62
6
100
AcDbLine
10
179.143448000000
20
180.353097000000
30
0.0
11
240.727246000000
21
241.936895000000
31
0.0
0
LINE
5
865
100
AcDbEntity
8
B-0
6
CONTINUOUS
62
6
100
AcDbLine
10
187.133755000000
20
191.171831000000
30
0.0
11
239.470168000000
21
243.508243000000
31
0.0
0
LINE
5
866
100
AcDbEntity
8
B-0
6
CONTINUOUS
62
6
100
AcDbLine
10
195.124062000000
20
201.990565000000
30
0.0
11
237.627090000000
21
244.493592000000
31
0.0
0
LINE
5
867
100
AcDbEntity
8
B-0
6
CONTINUOUS
62
6
100
AcDbLine
10
203.114368000000
20
212.809298000000
30
0.0
11
235.505769000000
21
245.200699000000
31
0.0
0
LINE
5
868
100
AcDbEntity
8
B-0
6
CONTINUOUS
62
6
100
AcDbLine
10
211.104675000000
20
223.628032000000
30
0.0
11
233.213962000000
21
245.737319000000
31
0.0
0
LINE
5
869
100
AcDbEntity
8
B-0
6
CONTINUOUS
62
6
100
AcDbLine
10
213.982305000000
20
229.334089000000
30
0.0
11
230.200057000000
21
245.551841000000
31
0.0
0
LINE
5
86a
100
AcDbEntity
8
B-0
6
CONTINUOUS
62
6
100
AcDbLine
10
213.982305000000
20
232.162516000000
30
0.0
11
226.698195000000
21
244.878406000000
31
0.0
0
LINE
5
86b
100
AcDbEntity
8
B-0
6
CONTINUOUS
62
6
100
AcDbLine
10
220.330959000000
20
241.339597000000
30
0.0
11
223.375351000000
21
244.383989000000
31
0.0
0
LINE
5
86c
100
AcDbEntity
8
B-0
6
CONTINUOUS
62
6
100
AcDbLine
10
154.445883000000
20
134.661739000000
30
0.0
11
160.285898000000
21
128.821724000000
31
0.0
0
LINE
5
86d
100
AcDbEntity
8
B-0
6
CONTINUOUS
62
6
100
AcDbLine
10
153.254967000000
20
138.681082000000
30
0.0
11
162.360078000000
21
129.575972000000
31
0.0
0
LINE
5
86e
100
AcDbEntity
8
B-0
6
CONTINUOUS
62
6
100
AcDbLine
10
153.015642000000
20
141.748835000000
30
0.0
11
164.434257000000
21
130.330219000000
31
0.0
0
LINE
5
86f
100
AcDbEntity
8
B-0
6
CONTINUOUS
62
6
100
AcDbLine
10
153.701321000000
20
143.891583000000
30
0.0
11
166.442427000000
21
131.150477000000
31
0.0
0
LINE
5
870
100
AcDbEntity
8
B-0
6
CONTINUOUS
62
6
100
AcDbLine
10
154.387000000000
20
146.034330000000
30
0.0
11
168.438964000000
21
131.982367000000
31
0.0
0
LINE
5
871
100
AcDbEntity
8
B-0
6
CONTINUOUS
62
6
100
AcDbLine
10
155.452765000000
20
147.796993000000
30
0.0
11
170.390713000000
21
132.859045000000
31
0.0
0
LINE
5
872
100
AcDbEntity
8
B-0
6
CONTINUOUS
62
6
100
AcDbLine
10
156.615132000000
20
149.463053000000
30
0.0
11
171.619373000000
21
134.458812000000
31
0.0
0
LINE
5
873
100
AcDbEntity
8
B-0
6
CONTINUOUS
62
6
100
AcDbLine
10
157.777500000000
20
151.129112000000
30
0.0
11
172.848034000000
21
136.058578000000
31
0.0
0
LINE
5
874
100
AcDbEntity
8
B-0
6
CONTINUOUS
62
6
100
AcDbLine
10
158.939867000000
20
152.795172000000
30
0.0
11
174.076695000000
21
137.658344000000
31
0.0
0
LINE
5
875
100
AcDbEntity
8
B-0
6
CONTINUOUS
62
6
100
AcDbLine
10
160.102234000000
20
154.461232000000
30
0.0
11
175.305355000000
21
139.258111000000
31
0.0
0
LINE
5
876
100
AcDbEntity
8
B-0
6
CONTINUOUS
62
6
100
AcDbLine
10
161.264602000000
20
156.127292000000
30
0.0
11
176.534016000000
21
140.857877000000
31
0.0
0
LINE
5
877
100
AcDbEntity
8
B-0
6
CONTINUOUS
62
6
100
AcDbLine
10
162.458436000000
20
157.761885000000
30
0.0
11
177.762677000000
21
142.457644000000
31
0.0
0
LINE
5
878
100
AcDbEntity
8
B-0
6
CONTINUOUS
62
6
100
AcDbLine
10
163.659985000000
20
159.388762000000
30
0.0
11
178.991338000000
21
144.057410000000
31
0.0
0
LINE
5
879
100
AcDbEntity
8
B-0
6
CONTINUOUS
62
6
100
AcDbLine
10
164.861535000000
20
161.015639000000
30
0.0
11
180.219998000000
21
145.657176000000
31
0.0
0
LINE
5
87a
100
AcDbEntity
8
B-0
6
CONTINUOUS
62
6
100
AcDbLine
10
166.063085000000
20
162.642517000000
30
0.0
11
181.448659000000
21
147.256943000000
31
0.0
0
LINE
5
87b
100
AcDbEntity
8
B-0
6
CONTINUOUS
62
6
100
AcDbLine
10
167.264635000000
20
164.269394000000
30
0.0
11
182.677320000000
21
148.856709000000
31
0.0
0
LINE
5
87c
100
AcDbEntity
8
B-0
6
CONTINUOUS
62
6
100
AcDbLine
10
168.466185000000
20
165.896271000000
30
0.0
11
183.905980000000
21
150.456476000000
31
0.0
0
LINE
5
87d
100
AcDbEntity
8
B-0
6
CONTINUOUS
62
6
100
AcDbLine
10
169.667735000000
20
167.523148000000
30
0.0
11
185.134641000000
21
152.056242000000
31
0.0
0
LINE
5
87e
100
AcDbEntity
8
B-0
6
CONTINUOUS
62
6
100
AcDbLine
10
170.869285000000
20
169.150026000000
30
0.0
11
186.363302000000
21
153.656009000000
31
0.0
0
LINE
5
87f
100
AcDbEntity
8
B-0
6
CONTINUOUS
62
6
100
AcDbLine
10
172.070835000000
20
170.776903000000
30
0.0
11
187.591963000000
21
155.255775000000
31
0.0
0
LINE
5
880
100
AcDbEntity
8
B-0
6
CONTINUOUS
62
6
100
AcDbLine
10
173.272384000000
20
172.403780000000
30
0.0
11
188.820623000000
21
156.855541000000
31
0.0
0
LINE
5
881
100
AcDbEntity
8
B-0
6
CONTINUOUS
62
6
100
AcDbLine
10
174.473934000000
20
174.030657000000
30
0.0
11
190.049284000000
21
158.455308000000
31
0.0
0
LINE
5
882
100
AcDbEntity
8
B-0
6
CONTINUOUS
62
6
100
AcDbLine
10
175.675484000000
20
175.657535000000
30
0.0
11
191.277945000000
21
160.055074000000
31
0.0
0
LINE
5
883
100
AcDbEntity
8
B-0
6
CONTINUOUS
62
6
100
AcDbLine
10
176.877034000000
20
177.284412000000
30
0.0
11
192.506605000000
21
161.654841000000
31
0.0
0
LINE
5
884
100
AcDbEntity
8
B-0
6
CONTINUOUS
62
6
100
AcDbLine
10
178.078584000000
20
178.911289000000
30
0.0
11
193.735266000000
21
163.254607000000
31
0.0
0
LINE
5
885
100
AcDbEntity
8
B-0
6
CONTINUOUS
62
6
100
AcDbLine
10
179.280134000000
20
180.538167000000
30
0.0
11
194.963927000000
21
164.854373000000
31
0.0
0
LINE
5
886
100
AcDbEntity
8
B-0
6
CONTINUOUS
62
6
100
AcDbLine
10
180.481684000000
20
182.165044000000
30
0.0
11
196.192588000000
21
166.454140000000
31
0.0
0
LINE
5
887
100
AcDbEntity
8
B-0
6
CONTINUOUS
62
6
100
AcDbLine
10
181.683233000000
20
183.791921000000
30
0.0
11
197.421248000000
21
168.053906000000
31
0.0
0
LINE
5
888
100
AcDbEntity
8
B-0
6
CONTINUOUS
62
6
100
AcDbLine
10
182.884783000000
20
185.418798000000
30
0.0
11
198.649909000000
21
169.653673000000
31
0.0
0
LINE
5
889
100
AcDbEntity
8
B-0
6
CONTINUOUS
62
6
100
AcDbLine
10
184.086333000000
20
187.045676000000
30
0.0
11
199.878570000000
21
171.253439000000
31
0.0
0
LINE
5
88a
100
AcDbEntity
8
B-0
6
CONTINUOUS
62
6
100
AcDbLine
10
185.287883000000
20
188.672553000000
30
0.0
11
201.107230000000
21
172.853205000000
31
0.0
0
LINE
5
88b
100
AcDbEntity
8
B-0
6
CONTINUOUS
62
6
100
AcDbLine
10
186.489433000000
20
190.299430000000
30
0.0
11
202.335891000000
21
174.452972000000
31
0.0
0
LINE
5
88c
100
AcDbEntity
8
B-0
6
CONTINUOUS
62
6
100
AcDbLine
10
187.690983000000
20
191.926307000000
30
0.0
11
203.564552000000
21
176.052738000000
31
0.0
0
LINE
5
88d
100
AcDbEntity
8
B-0
6
CONTINUOUS
62
6
100
AcDbLine
10
188.892533000000
20
193.553185000000
30
0.0
11
204.793213000000
21
177.652505000000
31
0.0
0
LINE
5
88e
100
AcDbEntity
8
B-0
6
CONTINUOUS
62
6
100
AcDbLine
10
190.094083000000
20
195.180062000000
30
0.0
11
206.021873000000
21
179.252271000000
31
0.0
0
LINE
5
88f
100
AcDbEntity
8
B-0
6
CONTINUOUS
62
6
100
AcDbLine
10
191.295632000000
20
196.806939000000
30
0.0
11
207.250534000000
21
180.852037000000
31
0.0
0
LINE
5
890
100
AcDbEntity
8
B-0
6
CONTINUOUS
62
6
100
AcDbLine
10
192.497182000000
20
198.433816000000
30
0.0
11
208.479195000000
21
182.451804000000
31
0.0
0
LINE
5
891
100
AcDbEntity
8
B-0
6
CONTINUOUS
62
6
100
AcDbLine
10
193.698732000000
20
200.060694000000
30
0.0
11
209.707856000000
21
184.051570000000
31
0.0
0
LINE
5
892
100
AcDbEntity
8
B-0
6
CONTINUOUS
62
6
100
AcDbLine
10
194.900282000000
20
201.687571000000
30
0.0
11
210.936516000000
21
185.651337000000
31
0.0
0
LINE
5
893
100
AcDbEntity
8
B-0
6
CONTINUOUS
62
6
100
AcDbLine
10
196.101832000000
20
203.314448000000
30
0.0
11
212.165177000000
21
187.251103000000
31
0.0
0
LINE
5
894
100
AcDbEntity
8
B-0
6
CONTINUOUS
62
6
100
AcDbLine
10
197.303382000000
20
204.941325000000
30
0.0
11
213.393838000000
21
188.850869000000
31
0.0
0
LINE
5
895
100
AcDbEntity
8
B-0
6
CONTINUOUS
62
6
100
AcDbLine
10
198.504932000000
20
206.568203000000
30
0.0
11
214.622498000000
21
190.450636000000
31
0.0
0
LINE
5
896
100
AcDbEntity
8
B-0
6
CONTINUOUS
62
6
100
AcDbLine
10
199.706482000000
20
208.195080000000
30
0.0
11
215.851159000000
21
192.050402000000
31
0.0
0
LINE
5
897
100
AcDbEntity
8
B-0
6
CONTINUOUS
62
6
100
AcDbLine
10
262.193728000000
20
145.707834000000
30
0.0
11
273.163175000000
21
134.738386000000
31
0.0
0
LINE
5
898
100
AcDbEntity
8
B-0
6
CONTINUOUS
62
6
100
AcDbLine
10
200.908031000000
20
209.821957000000
30
0.0
11
217.079820000000
21
193.650169000000
31
0.0
0
LINE
5
899
100
AcDbEntity
8
B-0
6
CONTINUOUS
62
6
100
AcDbLine
10
262.011249000000
20
148.718740000000
30
0.0
11
277.239834000000
21
133.490154000000
31
0.0
0
LINE
5
89a
100
AcDbEntity
8
B-0
6
CONTINUOUS
62
6
100
AcDbLine
10
202.109581000000
20
211.448834000000
30
0.0
11
218.308481000000
21
195.249935000000
31
0.0
0
LINE
5
89b
100
AcDbEntity
8
B-0
6
CONTINUOUS
62
6
100
AcDbLine
10
259.495378000000
20
154.063037000000
30
0.0
11
279.323939000000
21
134.234477000000
31
0.0
0
LINE
5
89c
100
AcDbEntity
8
B-0
6
CONTINUOUS
62
6
100
AcDbLine
10
203.311131000000
20
213.075712000000
30
0.0
11
219.537141000000
21
196.849701000000
31
0.0
0
LINE
5
89d
100
AcDbEntity
8
B-0
6
CONTINUOUS
62
6
100
AcDbLine
10
255.045868000000
20
161.340975000000
30
0.0
11
281.408043000000
21
134.978800000000
31
0.0
0
LINE
5
89e
100
AcDbEntity
8
B-0
6
CONTINUOUS
62
6
100
AcDbLine
10
204.512681000000
20
214.702589000000
30
0.0
11
220.765802000000
21
198.449468000000
31
0.0
0
LINE
5
89f
100
AcDbEntity
8
B-0
6
CONTINUOUS
62
6
100
AcDbLine
10
250.596357000000
20
168.618913000000
30
0.0
11
283.506041000000
21
135.709228000000
31
0.0
0
LINE
5
8a0
100
AcDbEntity
8
B-0
6
CONTINUOUS
62
6
100
AcDbLine
10
205.714231000000
20
216.329466000000
30
0.0
11
221.994463000000
21
200.049234000000
31
0.0
0
LINE
5
8a1
100
AcDbEntity
8
B-0
6
CONTINUOUS
62
6
100
AcDbLine
10
246.146847000000
20
175.896850000000
30
0.0
11
285.681755000000
21
136.361942000000
31
0.0
0
LINE
5
8a2
100
AcDbEntity
8
B-0
6
CONTINUOUS
62
6
100
AcDbLine
10
206.915781000000
20
217.956343000000
30
0.0
11
223.223123000000
21
201.649001000000
31
0.0
0
LINE
5
8a3
100
AcDbEntity
8
B-0
6
CONTINUOUS
62
6
100
AcDbLine
10
241.697336000000
20
183.174788000000
30
0.0
11
287.857468000000
21
137.014656000000
31
0.0
0
LINE
5
8a4
100
AcDbEntity
8
B-0
6
CONTINUOUS
62
6
100
AcDbLine
10
208.117331000000
20
219.583221000000
30
0.0
11
224.451784000000
21
203.248767000000
31
0.0
0
LINE
5
8a5
100
AcDbEntity
8
B-0
6
CONTINUOUS
62
6
100
AcDbLine
10
237.247826000000
20
190.452726000000
30
0.0
11
290.033181000000
21
137.667370000000
31
0.0
0
LINE
5
8a6
100
AcDbEntity
8
B-0
6
CONTINUOUS
62
6
100
AcDbLine
10
209.318880000000
20
221.210098000000
30
0.0
11
225.680445000000
21
204.848533000000
31
0.0
0
LINE
5
8a7
100
AcDbEntity
8
B-0
6
CONTINUOUS
62
6
100
AcDbLine
10
232.798315000000
20
197.730663000000
30
0.0
11
292.208894000000
21
138.320084000000
31
0.0
0
LINE
5
8a8
100
AcDbEntity
8
B-0
6
CONTINUOUS
62
6
100
AcDbLine
10
210.520430000000
20
222.836975000000
30
0.0
11
226.909106000000
21
206.448300000000
31
0.0
0
LINE
5
8a9
100
AcDbEntity
8
B-0
6
CONTINUOUS
62
6
100
AcDbLine
10
228.348804000000
20
205.008601000000
30
0.0
11
294.188220000000
21
139.169186000000
31
0.0
0
LINE
5
8aa
100
AcDbEntity
8
B-0
6
CONTINUOUS
62
6
100
AcDbLine
10
211.721980000000
20
224.463852000000
30
0.0
11
295.372213000000
21
140.813620000000
31
0.0
0
LINE
5
8ab
100
AcDbEntity
8
B-0
6
CONTINUOUS
62
6
100
AcDbLine
10
212.923530000000
20
226.090730000000
30
0.0
11
296.556205000000
21
142.458054000000
31
0.0
0
LINE
5
8ac
100
AcDbEntity
8
B-0
6
CONTINUOUS
62
6
100
AcDbLine
10
213.982305000000
20
227.860382000000
30
0.0
11
251.322866000000
21
190.519821000000
31
0.0
0
LINE
5
8ad
100
AcDbEntity
8
B-0
6
CONTINUOUS
62
6
100
AcDbLine
10
252.032183000000
20
189.810504000000
30
0.0
11
297.331367000000
21
144.511320000000
31
0.0
0
LINE
5
8ae
100
AcDbEntity
8
B-0
6
CONTINUOUS
62
6
100
AcDbLine
10
213.982305000000
20
230.688809000000
30
0.0
11
252.358142000000
21
192.312972000000
31
0.0
0
LINE
5
8af
100
AcDbEntity
8
B-0
6
CONTINUOUS
62
6
100
AcDbLine
10
254.860610000000
20
189.810504000000
30
0.0
11
296.657515000000
21
148.013599000000
31
0.0
0
LINE
5
8b0
100
AcDbEntity
8
B-0
6
CONTINUOUS
62
6
100
AcDbLine
10
214.247329000000
20
233.252212000000
30
0.0
11
253.393418000000
21
194.106123000000
31
0.0
0
LINE
5
8b1
100
AcDbEntity
8
B-0
6
CONTINUOUS
62
6
100
AcDbLine
10
257.689037000000
20
189.810504000000
30
0.0
11
294.117635000000
21
153.381907000000
31
0.0
0
LINE
5
8b2
100
AcDbEntity
8
B-0
6
CONTINUOUS
62
6
100
AcDbLine
10
215.095857000000
20
235.232111000000
30
0.0
11
254.428694000000
21
195.899274000000
31
0.0
0
LINE
5
8b3
100
AcDbEntity
8
B-0
6
CONTINUOUS
62
6
100
AcDbLine
10
260.517464000000
20
189.810504000000
30
0.0
11
290.222989000000
21
160.104979000000
31
0.0
0
LINE
5
8b4
100
AcDbEntity
8
B-0
6
CONTINUOUS
62
6
100
AcDbLine
10
216.267691000000
20
236.888704000000
30
0.0
11
255.463970000000
21
197.692425000000
31
0.0
0
LINE
5
8b5
100
AcDbEntity
8
B-0
6
CONTINUOUS
62
6
100
AcDbLine
10
263.345891000000
20
189.810504000000
30
0.0
11
286.328344000000
21
166.828052000000
31
0.0
0
LINE
5
8b6
100
AcDbEntity
8
B-0
6
CONTINUOUS
62
6
100
AcDbLine
10
217.598716000000
20
238.386107000000
30
0.0
11
256.499247000000
21
199.485576000000
31
0.0
0
LINE
5
8b7
100
AcDbEntity
8
B-0
6
CONTINUOUS
62
6
100
AcDbLine
10
266.174318000000
20
189.810504000000
30
0.0
11
282.433698000000
21
173.551124000000
31
0.0
0
LINE
5
8b8
100
AcDbEntity
8
B-0
6
CONTINUOUS
62
6
100
AcDbLine
10
218.929740000000
20
239.883509000000
30
0.0
11
257.534523000000
21
201.278727000000
31
0.0
0
LINE
5
8b9
100
AcDbEntity
8
B-0
6
CONTINUOUS
62
6
100
AcDbLine
10
269.002746000000
20
189.810504000000
30
0.0
11
278.539053000000
21
180.274197000000
31
0.0
0
LINE
5
8ba
100
AcDbEntity
8
B-0
6
CONTINUOUS
62
6
100
AcDbLine
10
220.319145000000
20
241.322532000000
30
0.0
11
258.569799000000
21
203.071878000000
31
0.0
0
LINE
5
8bb
100
AcDbEntity
8
B-0
6
CONTINUOUS
62
6
100
AcDbLine
10
271.831173000000
20
189.810504000000
30
0.0
11
274.644407000000
21
186.997269000000
31
0.0
0
LINE
5
8bc
100
AcDbEntity
8
B-0
6
CONTINUOUS
62
6
100
AcDbLine
10
221.476228000000
20
242.993875000000
30
0.0
11
259.605075000000
21
204.865029000000
31
0.0
0
LINE
5
8bd
100
AcDbEntity
8
B-0
6
CONTINUOUS
62
6
100
AcDbLine
10
222.968755000000
20
244.329776000000
30
0.0
11
260.640351000000
21
206.658180000000
31
0.0
0
LINE
5
8be
100
AcDbEntity
8
B-0
6
CONTINUOUS
62
6
100
AcDbLine
10
225.464425000000
20
244.662533000000
30
0.0
11
261.675627000000
21
208.451331000000
31
0.0
0
LINE
5
8bf
100
AcDbEntity
8
B-0
6
CONTINUOUS
62
6
100
AcDbLine
10
227.854595000000
20
245.100791000000
30
0.0
11
258.173172000000
21
214.782213000000
31
0.0
0
LINE
5
8c0
100
AcDbEntity
8
B-0
6
CONTINUOUS
62
6
100
AcDbLine
10
230.226824000000
20
245.556989000000
30
0.0
11
253.899105000000
21
221.884708000000
31
0.0
0
LINE
5
8c1
100
AcDbEntity
8
B-0
6
CONTINUOUS
62
6
100
AcDbLine
10
232.837249000000
20
245.774990000000
30
0.0
11
249.625037000000
21
228.987202000000
31
0.0
0
LINE
5
8c2
100
AcDbEntity
8
B-0
6
CONTINUOUS
62
6
100
AcDbLine
10
236.607067000000
20
244.833600000000
30
0.0
11
244.614499000000
21
236.826168000000
31
0.0
0
LINE
5
8c3
100
AcDbEntity
8
B-0
6
CONTINUOUS
62
6
100
AcDbLine
10
304.223157000000
20
220.387178000000
30
0.0
11
304.223157000000
21
249.627414000000
31
0.0
0
LINE
5
8c4
100
AcDbEntity
8
B-0
6
CONTINUOUS
62
6
100
AcDbLine
10
302.223157000000
20
220.806017000000
30
0.0
11
302.223157000000
21
249.208576000000
31
0.0
0
LINE
5
8c5
100
AcDbEntity
8
B-0
6
CONTINUOUS
62
6
100
AcDbLine
10
300.223157000000
20
221.531213000000
30
0.0
11
300.223157000000
21
248.483380000000
31
0.0
0
LINE
5
8c6
100
AcDbEntity
8
B-0
6
CONTINUOUS
62
6
100
AcDbLine
10
298.223157000000
20
222.616440000000
30
0.0
11
298.223157000000
21
247.398152000000
31
0.0
0
LINE
5
8c7
100
AcDbEntity
8
B-0
6
CONTINUOUS
62
6
100
AcDbLine
10
296.223157000000
20
224.169317000000
30
0.0
11
296.223157000000
21
245.845275000000
31
0.0
0
LINE
5
8c8
100
AcDbEntity
8
B-0
6
CONTINUOUS
62
6
100
AcDbLine
10
294.223157000000
20
226.440484000000
30
0.0
11
294.223157000000
21
243.574109000000
31
0.0
0
LINE
5
8c9
100
AcDbEntity
8
B-0
6
CONTINUOUS
62
6
100
AcDbLine
10
292.223157000000
20
230.390072000000
30
0.0
11
292.223157000000
21
239.624520000000
31
0.0
0
LINE
5
8ca
100
AcDbEntity
8
B-0
6
CONTINUOUS
62
6
100
AcDbLine
10
251.132746000000
20
190.190524000000
30
0.0
11
293.693937000000
21
190.190524000000
31
0.0
0
LINE
5
8cb
100
AcDbEntity
8
B-0
6
CONTINUOUS
62
6
100
AcDbLine
10
252.287446000000
20
192.190524000000
30
0.0
11
292.539236000000
21
192.190524000000
31
0.0
0
LINE
5
8cc
100
AcDbEntity
8
B-0
6
CONTINUOUS
62
6
100
AcDbLine
10
253.442147000000
20
194.190524000000
30
0.0
11
291.384536000000
21
194.190524000000
31
0.0
0
LINE
5
8cd
100
AcDbEntity
8
B-0
6
CONTINUOUS
62
6
100
AcDbLine
10
254.596847000000
20
196.190524000000
30
0.0
11
290.229835000000
21
196.190524000000
31
0.0
0
LINE
5
8ce
100
AcDbEntity
8
B-0
6
CONTINUOUS
62
6
100
AcDbLine
10
255.751548000000
20
198.190524000000
30
0.0
11
289.075135000000
21
198.190524000000
31
0.0
0
LINE
5
8cf
100
AcDbEntity
8
B-0
6
CONTINUOUS
62
6
100
AcDbLine
10
256.906248000000
20
200.190524000000
30
0.0
11
287.920434000000
21
200.190524000000
31
0.0
0
LINE
5
8d0
100
AcDbEntity
8
B-0
6
CONTINUOUS
62
6
100
AcDbLine
10
258.060949000000
20
202.190524000000
30
0.0
11
286.765734000000
21
202.190524000000
31
0.0
0
LINE
5
8d1
100
AcDbEntity
8
B-0
6
CONTINUOUS
62
6
100
AcDbLine
10
259.215649000000
20
204.190524000000
30
0.0
11
285.611033000000
21
204.190524000000
31
0.0
0
LINE
5
8d2
100
AcDbEntity
8
B-0
6
CONTINUOUS
62
6
100
AcDbLine
10
260.370350000000
20
206.190524000000
30
0.0
11
284.456333000000
21
206.190524000000
31
0.0
0
LINE
5
8d3
100
AcDbEntity
8
B-0
6
CONTINUOUS
62
6
100
AcDbLine
10
261.525050000000
20
208.190524000000
30
0.0
11
283.301632000000
21
208.190524000000
31
0.0
0
LINE
5
8d4
100
AcDbEntity
8
B-0
6
CONTINUOUS
62
6
100
AcDbLine
10
262.679751000000
20
210.190524000000
30
0.0
11
282.146931000000
21
210.190524000000
31
0.0
0
LINE
5
8d5
100
AcDbEntity
8
B-0
6
CONTINUOUS
62
6
100
AcDbLine
10
263.834452000000
20
212.190524000000
30
0.0
11
280.992231000000
21
212.190524000000
31
0.0
0
LINE
5
8d6
100
AcDbEntity
8
B-0
6
CONTINUOUS
62
6
100
AcDbLine
10
264.989152000000
20
214.190524000000
30
0.0
11
279.837530000000
21
214.190524000000
31
0.0
0
LINE
5
8d7
100
AcDbEntity
8
B-0
6
CONTINUOUS
62
6
100
AcDbLine
10
266.143853000000
20
216.190524000000
30
0.0
11
278.682830000000
21
216.190524000000
31
0.0
0
LINE
5
8d8
100
AcDbEntity
8
B-0
6
CONTINUOUS
62
6
100
AcDbLine
10
267.298553000000
20
218.190524000000
30
0.0
11
277.528129000000
21
218.190524000000
31
0.0
0
LINE
5
8d9
100
AcDbEntity
8
B-0
6
CONTINUOUS
62
6
100
AcDbLine
10
268.453254000000
20
220.190524000000
30
0.0
11
276.373429000000
21
220.190524000000
31
0.0
0
LINE
5
8da
100
AcDbEntity
8
B-0
6
CONTINUOUS
62
6
100
AcDbLine
10
269.607954000000
20
222.190524000000
30
0.0
11
275.218728000000
21
222.190524000000
31
0.0
0
LINE
5
8db
100
AcDbEntity
8
B-0
6
CONTINUOUS
62
6
100
AcDbLine
10
270.762655000000
20
224.190524000000
30
0.0
11
274.064028000000
21
224.190524000000
31
0.0
0
LINE
5
8dc
100
AcDbEntity
8
B-0
6
CONTINUOUS
62
6
100
AcDbLine
10
271.917355000000
20
226.190524000000
30
0.0
11
272.909327000000
21
226.190524000000
31
0.0
0
LINE
5
8dd
100
AcDbEntity
8
B-0
6
CONTINUOUS
62
6
100
AcDbLine
10
292.223157000000
20
189.810504000000
30
0.0
11
292.223157000000
21
192.737990000000
31
0.0
0
LINE
5
8de
100
AcDbEntity
8
B-0
6
CONTINUOUS
62
6
100
AcDbLine
10
290.223157000000
20
189.810504000000
30
0.0
11
290.223157000000
21
196.202091000000
31
0.0
0
LINE
5
8df
100
AcDbEntity
8
B-0
6
CONTINUOUS
62
6
100
AcDbLine
10
288.223157000000
20
189.810504000000
30
0.0
11
288.223157000000
21
199.666193000000
31
0.0
0
LINE
5
8e0
100
AcDbEntity
8
B-0
6
CONTINUOUS
62
6
100
AcDbLine
10
286.223157000000
20
189.810504000000
30
0.0
11
286.223157000000
21
203.130294000000
31
0.0
0
LINE
5
8e1
100
AcDbEntity
8
B-0
6
CONTINUOUS
62
6
100
AcDbLine
10
284.223157000000
20
189.810504000000
30
0.0
11
284.223157000000
21
206.594396000000
31
0.0
0
LINE
5
8e2
100
AcDbEntity
8
B-0
6
CONTINUOUS
62
6
100
AcDbLine
10
282.223157000000
20
189.810504000000
30
0.0
11
282.223157000000
21
210.058498000000
31
0.0
0
LINE
5
8e3
100
AcDbEntity
8
B-0
6
CONTINUOUS
62
6
100
AcDbLine
10
280.223157000000
20
189.810504000000
30
0.0
11
280.223157000000
21
213.522599000000
31
0.0
0
LINE
5
8e4
100
AcDbEntity
8
B-0
6
CONTINUOUS
62
6
100
AcDbLine
10
278.223157000000
20
189.810504000000
30
0.0
11
278.223157000000
21
216.986701000000
31
0.0
0
LINE
5
8e5
100
AcDbEntity
8
B-0
6
CONTINUOUS
62
6
100
AcDbLine
10
276.223157000000
20
189.810504000000
30
0.0
11
276.223157000000
21
220.450802000000
31
0.0
0
LINE
5
8e6
100
AcDbEntity
8
B-0
6
CONTINUOUS
62
6
100
AcDbLine
10
274.223157000000
20
189.810504000000
30
0.0
11
274.223157000000
21
223.914904000000
31
0.0
0
LINE
5
8e7
100
AcDbEntity
8
B-0
6
CONTINUOUS
62
6
100
AcDbLine
10
272.223157000000
20
189.810504000000
30
0.0
11
272.223157000000
21
226.720187000000
31
0.0
0
LINE
5
8e8
100
AcDbEntity
8
B-0
6
CONTINUOUS
62
6
100
AcDbLine
10
270.223157000000
20
189.810504000000
30
0.0
11
270.223157000000
21
223.256086000000
31
0.0
0
LINE
5
8e9
100
AcDbEntity
8
B-0
6
CONTINUOUS
62
6
100
AcDbLine
10
268.223157000000
20
189.810504000000
30
0.0
11
268.223157000000
21
219.791984000000
31
0.0
0
LINE
5
8ea
100
AcDbEntity
8
B-0
6
CONTINUOUS
62
6
100
AcDbLine
10
266.223157000000
20
189.810504000000
30
0.0
11
266.223157000000
21
216.327882000000
31
0.0
0
LINE
5
8eb
100
AcDbEntity
8
B-0
6
CONTINUOUS
62
6
100
AcDbLine
10
264.223157000000
20
189.810504000000
30
0.0
11
264.223157000000
21
212.863781000000
31
0.0
0
LINE
5
8ec
100
AcDbEntity
8
B-0
6
CONTINUOUS
62
6
100
AcDbLine
10
262.223157000000
20
189.810504000000
30
0.0
11
262.223157000000
21
209.399679000000
31
0.0
0
LINE
5
8ed
100
AcDbEntity
8
B-0
6
CONTINUOUS
62
6
100
AcDbLine
10
260.223157000000
20
189.810504000000
30
0.0
11
260.223157000000
21
205.935577000000
31
0.0
0
LINE
5
8ee
100
AcDbEntity
8
B-0
6
CONTINUOUS
62
6
100
AcDbLine
10
258.223157000000
20
189.810504000000
30
0.0
11
258.223157000000
21
202.471476000000
31
0.0
0
LINE
5
8ef
100
AcDbEntity
8
B-0
6
CONTINUOUS
62
6
100
AcDbLine
10
256.223157000000
20
189.810504000000
30
0.0
11
256.223157000000
21
199.007374000000
31
0.0
0
LINE
5
8f0
100
AcDbEntity
8
B-0
6
CONTINUOUS
62
6
100
AcDbLine
10
254.223157000000
20
189.810504000000
30
0.0
11
254.223157000000
21
195.543273000000
31
0.0
0
LINE
5
8f1
100
AcDbEntity
8
B-0
6
CONTINUOUS
62
6
100
AcDbLine
10
252.223157000000
20
189.810504000000
30
0.0
11
252.223157000000
21
192.079171000000
31
0.0
0
LINE
5
8f2
100
AcDbEntity
8
C-0
6
CONTINUOUS
62
6
100
AcDbLine
10
1562.232780000000
20
211.675606000000
30
0.0
11
1562.232780000000
21
99.175606000000
31
0.0
0
LINE
5
8f3
100
AcDbEntity
8
C-0
6
CONTINUOUS
62
6
100
AcDbLine
10
1712.232780000000
20
211.675606000000
30
0.0
11
1712.232780000000
21
99.175606000000
31
0.0
0
LINE
5
8f4
100
AcDbEntity
8
C-0
6
CONTINUOUS
62
6
100
AcDbLine
10
2012.232780000000
20
181.675606000000
30
0.0
11
1362.232780000000
21
181.675606000000
31
0.0
0
LINE
5
8f5
100
AcDbEntity
8
C-0
6
CONTINUOUS
62
6
100
AcDbLine
10
1812.232780000000
20
279.175606000000
30
0.0
11
1812.232780000000
21
99.175606000000
31
0.0
0
LINE
5
8f6
100
AcDbEntity
8
C-0
6
CONTINUOUS
62
6
100
AcDbLine
10
1912.232780000000
20
279.175606000000
30
0.0
11
1912.232780000000
21
99.175606000000
31
0.0
0
LINE
5
8f7
100
AcDbEntity
8
C-0
6
CONTINUOUS
62
6
100
AcDbLine
10
2012.232780000000
20
245.425606000000
30
0.0
11
1912.232780000000
21
245.425606000000
31
0.0
0
LINE
5
8f8
100
AcDbEntity
8
C-0
6
CONTINUOUS
62
6
100
AcDbLine
10
2012.232780000000
20
211.675606000000
30
0.0
11
1362.232780000000
21
211.675606000000
31
0.0
0
CIRCLE
5
8f9
100
AcDbEntity
8
2-0
6
CONTINUOUS
62
2
100
AcDbCircle
10
1837.232780000000
20
245.425606000000
30
0.0
40
20.000000000000
0
CIRCLE
5
8fa
100
AcDbEntity
8
2-0
6
CONTINUOUS
62
2
100
AcDbCircle
10
1837.232780000000
20
245.425606000000
30
0.0
40
10.000000000000
0
LINE
5
8fb
100
AcDbEntity
8
E-0
6
CENTER2
62
16
100
AcDbLine
10
1837.232780000000
20
270.425606000000
30
0.0
11
1837.232780000000
21
220.425606000000
31
0.0
0
LINE
5
8fc
100
AcDbEntity
8
2-0
6
CONTINUOUS
62
2
100
AcDbLine
10
1867.232780000000
20
255.425606000000
30
0.0
11
1902.232780000000
21
265.425606000000
31
0.0
0
LINE
5
8fd
100
AcDbEntity
8
2-0
6
CONTINUOUS
62
2
100
AcDbLine
10
1902.232780000000
20
265.425606000000
30
0.0
11
1902.232780000000
21
225.425606000000
31
0.0
0
LINE
5
8fe
100
AcDbEntity
8
2-0
6
CONTINUOUS
62
2
100
AcDbLine
10
1867.232780000000
20
235.425606000000
30
0.0
11
1902.232780000000
21
225.425606000000
31
0.0
0
LINE
5
8ff
100
AcDbEntity
8
2-0
6
CONTINUOUS
62
2
100
AcDbLine
10
1867.232780000000
20
255.425606000000
30
0.0
11
1867.232780000000
21
235.425606000000
31
0.0
0
LINE
5
900
100
AcDbEntity
8
E-0
6
CENTER2
62
16
100
AcDbLine
10
1812.232780000000
20
245.425606000000
30
0.0
11
1907.232780000000
21
245.425606000000
31
0.0
0
LINE
5
901
100
AcDbEntity
8
C-0
6
CONTINUOUS
62
6
100
AcDbLine
10
1362.232780000000
20
189.175606000000
30
0.0
11
687.767210000000
21
189.175606000000
31
0.0
0
LINE
5
902
100
AcDbEntity
8
C-0
6
CONTINUOUS
62
6
100
AcDbLine
10
687.767210000000
20
99.175606000000
30
0.0
11
687.767210000000
21
279.175606000000
31
0.0
0
TEXT
5
903
100
AcDbEntity
8
F-0
62
4
100
AcDbText
10
697.767
20
252.477
30
0.0
40
25.600
1
品番
41
1.000
50
0.000
100
AcDbText
0
TEXT
5
904
100
AcDbEntity
8
F-0
62
4
100
AcDbText
10
697.767
20
162.516
30
0.0
40
25.600
1
名称
41
1.000
50
0.000
100
AcDbText
0
TEXT
5
905
100
AcDbEntity
8
F-0
62
4
100
AcDbText
10
1840.640
20
183.593
30
0.0
40
25.600
1
検図
41
1.000
50
0.000
100
AcDbText
0
LINE
5
906
100
AcDbEntity
8
C-0
6
CONTINUOUS
62
6
100
AcDbLine
10
87.767210000000
20
279.175606000000
30
0.0
11
87.767210000000
21
99.175606000000
31
0.0
0
TEXT
5
907
100
AcDbEntity
8
F-0
62
4
100
AcDbText
10
1940.899
20
249.741
30
0.0
40
25.600
1
単位
41
1.000
50
0.000
100
AcDbText
0
TEXT
5
908
100
AcDbEntity
8
F-0
62
4
100
AcDbText
10
1933.661
20
219.324
30
0.0
40
25.600
1
mm
41
1.000
50
0.000
100
AcDbText
0
TEXT
5
909
100
AcDbEntity
8
F-0
62
4
100
AcDbText
10
1574.757
20
127.866
30
0.0
40
25.600
1
S=1：10
41
1.000
50
0.000
100
AcDbText
0
TEXT
5
90a
100
AcDbEntity
8
F-0
62
4
100
AcDbText
10
1394.138
20
127.866
30
0.0
40
25.600
1
13.07.23
41
1.000
50
0.000
100
AcDbText
0
TEXT
5
90b
100
AcDbEntity
8
F-0
62
4
100
AcDbText
10
1741.566
20
127.866
30
0.0
40
25.600
1
竹内
41
1.000
50
0.000
100
AcDbText
0
TEXT
5
90c
100
AcDbEntity
8
F-0
62
4
100
AcDbText
10
1439.566
20
184.116
30
0.0
40
25.600
1
日付
41
1.000
50
0.000
100
AcDbText
0
TEXT
5
90d
100
AcDbEntity
8
F-0
62
4
100
AcDbText
10
1591.518
20
184.116
30
0.0
40
25.600
1
SCALE
41
1.000
50
0.000
100
AcDbText
0
TEXT
5
90e
100
AcDbEntity
8
F-0
62
4
100
AcDbText
10
1741.566
20
184.116
30
0.0
40
25.600
1
製図
41
1.000
50
0.000
100
AcDbText
0
TEXT
5
90f
100
AcDbEntity
8
F-0
62
4
100
AcDbText
10
835.476
20
209.056
30
0.0
40
51.200
1
GI-W03601F
41
1.000
50
0.000
100
AcDbText
0
TEXT
5
910
100
AcDbEntity
8
F-0
62
4
100
AcDbText
10
928.810
20
119.056
30
0.0
40
51.200
1
OM-IN
41
1.000
50
0.000
100
AcDbText
0
TEXT
5
911
100
AcDbEntity
8
F-0
62
4
100
AcDbText
10
133.893
20
309.412
30
0.0
40
25.600
1
焼成による寸法誤差が生じることがありますので予めご了承下さい。
41
1.000
50
0.000
100
AcDbText
0
TEXT
5
912
100
AcDbEntity
8
F-0
62
4
100
AcDbText
10
135.096
20
407.002
30
0.0
40
25.600
1
オーバーフロー：無（固定タイプ排水栓RP-147.755.5＋スペーサーRP-47.100.0のご使用をおすすめします。）
41
1.000
50
0.000
100
AcDbText
0
TEXT
5
913
100
AcDbEntity
8
F-0
62
4
100
AcDbText
10
132.556
20
376.209
30
0.0
40
25.600
1
タイプ：アンダーシンク型
41
1.000
50
0.000
100
AcDbText
0
TEXT
5
914
100
AcDbEntity
8
F-0
62
4
100
AcDbText
10
133.645
20
342.811
30
0.0
40
25.600
1
※取り付けには固定金具GI-LBISをご利用下さい。
41
1.000
50
0.000
100
AcDbText
0
ARC
5
915
100
AcDbEntity
8
5-0
6
CONTINUOUS
62
5
100
AcDbCircle
10
1247.432051000000
20
2437.824391000000
30
0.0
40
13.000000000000
100
AcDbArc
50
90.000000000000
51
180.000000000000
0
ARC
5
916
100
AcDbEntity
8
5-0
6
CONTINUOUS
62
5
100
AcDbCircle
10
1821.432051000000
20
2437.824391000000
30
0.0
40
13.000000000000
100
AcDbArc
50
0.000000000000
51
90.000000000000
0
ARC
5
917
100
AcDbEntity
8
5-0
6
CONTINUOUS
62
5
100
AcDbCircle
10
1821.432051000000
20
2163.824391000000
30
0.0
40
13.000000000000
100
AcDbArc
50
270.000000000000
51
0.000000000000
0
ARC
5
918
100
AcDbEntity
8
5-0
6
CONTINUOUS
62
5
100
AcDbCircle
10
1247.432051000000
20
2163.824391000000
30
0.0
40
13.000000000000
100
AcDbArc
50
180.000000000000
51
270.000000000000
0
LINE
5
919
100
AcDbEntity
8
D-0
6
CONTINUOUS
62
0
100
AcDbLine
10
1698.360186000000
20
2300.468658000000
30
0.0
11
1813.424205000000
21
2428.887144000000
31
0.0
0
TEXT
5
91a
100
AcDbEntity
8
D-0
62
0
100
AcDbText
10
1716.002
20
2325.103
30
0.0
40
32.000
1
4-R13
41
1.000
50
48.139
100
AcDbText
0
LINE
5
91b
100
AcDbEntity
8
D-0
6
BYLAYER
62
0
100
AcDbLine
10
1808.435191079963
20
2433.357340915219
30
0.0
11
1830.107218950024
21
2447.506408892472
31
0.0
0
LINE
5
91c
100
AcDbEntity
8
D-0
6
BYLAYER
62
0
100
AcDbLine
10
1830.107218950024
20
2447.506408892472
30
0.0
11
1818.413217960657
21
2424.416946848364
31
0.0
0
LINE
5
91d
100
AcDbEntity
8
D-0
6
BYLAYER
62
0
100
AcDbLine
10
1830.107218950024
20
2447.506408892472
30
0.0
11
1813.424204520310
21
2428.887143881791
31
0.0
0
ENDSEC
0
EOF
