  0
SECTION
  2
HEADER
  9
$ACADVER
  1
AC1009
  9
$INSBASE
 10
0
 20
0
 30
0
  9
$EXTMIN
 10
0
 20
0
  9
$EXTMAX
 10
420
 20
297
  9
$LIMMIN
 10
0
 20
0
  9
$LIMMAX
 10
420
 20
297
  9
$LTSCALE
 40
1
  0
ENDSEC
  0
SECTION
  2
TABLES
  0
TABLE
  2
LTYPE
 70
     9
  0
LTYPE
  2
CONTINUOUS
 70
    64
  3
実線
 72
    65
 73
     0
 40
0.0
  0
LTYPE
  2
DASHED1
 70
    64
  3
--  --  --  --  --  --  --  --  
 72
    65
 73
     2
 40
2.5
 49
1.25
 49
-1.25
  0
LTYPE
  2
DASHED2
 70
    64
  3
----    ----    ----    ----    
 72
    65
 73
     2
 40
5.0
 49
2.5
 49
-2.5
  0
LTYPE
  2
DASHED3
 70
    64
  3
------  ------  ------  ------  
 72
    65
 73
     2
 40
5.0
 49
3.75
 49
-1.25
  0
LTYPE
  2
CENTER1
 70
    64
  3
----- - ----- - ----- - ----- - 
 72
    65
 73
     4
 40
10.0
 49
6.25
 49
-1.25
 49
1.25
 49
-1.25
  0
LTYPE
  2
CENTER2
 70
    64
  3
----------  --  ----------  --  
 72
    65
 73
     4
 40
20.0
 49
12.5
 49
-2.5
 49
2.5
 49
-2.5
  0
LTYPE
  2
PHANTOM1
 70
    64
  3
--- - - --- - - --- - - --- - - 
 72
    65
 73
     6
 40
10.0
 49
3.25
 49
-1.25
 49
1.25
 49
-1.25
 49
1.25
 49
-1.25
  0
LTYPE
  2
PHANTOM2
 70
    64
  3
--------  -  -  --------  -  -  
 72
    65
 73
     6
 40
20.0
 49
10.0
 49
-2.5
 49
1.25
 49
-2.5
 49
1.25
 49
-2.5
  0
LTYPE
  2
DOT
 70
    64
  3
-   -   -   -   -   -   -   -   
 72
    65
 73
     2
 40
2.5
 49
0.625
 49
-1.875
  0
LTYPE
  2
DUMMY
 70
    64
  3
ダミー
 72
    65
 73
     0
 40
0.0
  0
LTYPE
  2
RAND1
 70
    64
  3
----- - ----- - ----- - ----- - 
 72
    65
 73
     4
 40
10.0
 49
6.25
 49
-1.25
 49
1.25
 49
-1.25
  0
LTYPE
  2
RAND2
 70
    64
  3
----------  --  ----------  --  
 72
    65
 73
     4
 40
20.0
 49
12.5
 49
-2.5
 49
2.5
 49
-2.5
  0
LTYPE
  2
RAND3
 70
    64
  3
--- - - --- - - --- - - --- - - 
 72
    65
 73
     6
 40
10.0
 49
3.25
 49
-1.25
 49
1.25
 49
-1.25
 49
1.25
 49
-1.25
  0
LTYPE
  2
RAND4
 70
    64
  3
--------  -  -  --------  -  -  
 72
    65
 73
     6
 40
20.0
 49
10.0
 49
-2.5
 49
1.25
 49
-2.5
 49
1.25
 49
-2.5
  0
LTYPE
  2
RAND5
 70
    64
  3
----- - ----- - ----- - ----- - 
 72
    65
 73
     4
 40
10.0
 49
6.25
 49
-1.25
 49
1.25
 49
-1.25
  0
LTYPE
  2
LONG1
 70
    64
  3
----------  --  ----------  --  
 72
    65
 73
     4
 40
20.0
 49
12.5
 49
-2.5
 49
2.5
 49
-2.5
  0
LTYPE
  2
LONG2
 70
    64
  3
--- - - --- - - --- - - --- - - 
 72
    65
 73
     6
 40
10.0
 49
3.25
 49
-1.25
 49
1.25
 49
-1.25
 49
1.25
 49
-1.25
  0
LTYPE
  2
LONG3
 70
    64
  3
--------  -  -  --------  -  -  
 72
    65
 73
     6
 40
20.0
 49
10.0
 49
-2.5
 49
1.25
 49
-2.5
 49
1.25
 49
-2.5
  0
LTYPE
  2
LONG4
 70
    64
  3
----- - ----- - ----- - ----- - 
 72
    65
 73
     4
 40
10.0
 49
6.25
 49
-1.25
 49
1.25
 49
-1.25
  0
LTYPE
  2
LONG5
 70
    64
  3
----------  --  ----------  --  
 72
    65
 73
     4
 40
20.0
 49
12.5
 49
-2.5
 49
2.5
 49
-2.5
  0
ENDTAB
  0
TABLE
  2
STYLE
  5
3
100
AcDbSymbolTable
 70
     1
  0
STYLE
  5
10
100
AcDbSymbolTableRecord
100
AcDbTextStyleTableRecord
  2
STANDARD
 70
     0
 40
0.0
 41
1.0
 50
0.0
 71
     0
 42
0.2
  3
txt
  4
bigfont.shx
  0
STYLE
  5
26
100
AcDbSymbolTableRecord
100
AcDbTextStyleTableRecord
  2
TATEGAKI
 70
    68
 40
0.0
 41
1.0
 50
0.0
 71
     0
 42
1.0
  3
txt
  4
bigfont.shx
  0
ENDTAB
  0
TABLE
  2
LAYER
 70
    3
  0
LAYER
  2
_0-0_
 70
   64
 62
    7
  6
CONTINUOUS
  0
LAYER
  2
_0-1_
 70
   64
 62
    7
  6
CONTINUOUS
  0
LAYER
  2
ADD_LINE
 70
   64
 62
    7
  6
CONTINUOUS
  0
ENDTAB
  0
ENDSEC
  0
SECTION
  2
BLOCKS
  0
ENDSEC
  0
SECTION
  2
ENTITIES
  0
LINE
  8
_0-0_
  6
CONTINUOUS
 62
    7
 10
255.37119
 20
205.1506
 11
239.41144
 21
205.1506
  0
LINE
  8
_0-1_
  6
CONTINUOUS
 62
    1
 10
241.75121
 20
28.338966
 11
241.75121
 21
10.338966
  0
LINE
  8
_0-1_
  6
CONTINUOUS
 62
    1
 10
306.75121
 20
287.50384
 11
306.75121
 21
10.338966
  0
LINE
  8
ADD_LINE
  6
DOT
 62
    7
 10
310
 20
291.49999
 11
110
 21
291.49999
  0
LINE
  8
ADD_LINE
  6
DOT
 62
    7
 10
110
 20
291.49999
 11
110
 21
5.5
  0
LINE
  8
ADD_LINE
  6
DOT
 62
    7
 10
110
 20
5.5
 11
310
 21
5.5
  0
LINE
  8
ADD_LINE
  6
DOT
 62
    7
 10
310
 20
5.5
 11
310
 21
291.49999
  0
LINE
  8
_0-1_
  6
CONTINUOUS
 62
    1
 10
114.30465
 20
10.338966
 11
114.30465
 21
287.50384
  0
LINE
  8
_0-1_
  6
CONTINUOUS
 62
    1
 10
114.30465
 20
287.50384
 11
306.75121
 21
287.50384
  0
LINE
  8
_0-1_
  6
CONTINUOUS
 62
    1
 10
306.75121
 20
28.338966
 11
114.30465
 21
28.338966
  0
LINE
  8
_0-1_
  6
CONTINUOUS
 62
    1
 10
306.75121
 20
10.338966
 11
114.30465
 21
10.338966
  0
LINE
  8
_0-1_
  6
CONTINUOUS
 62
    7
 10
126.17665
 20
13.819895
 11
130.3805
 21
13.819895
  0
LINE
  8
_0-1_
  6
CONTINUOUS
 62
    7
 10
130.3805
 20
13.819895
 11
130.3805
 21
18.029664
  0
LINE
  8
_0-1_
  6
CONTINUOUS
 62
    7
 10
126.17665
 20
18.029664
 11
126.17665
 21
13.819895
  0
LINE
  8
_0-1_
  6
CONTINUOUS
 62
    7
 10
130.3805
 20
18.029664
 11
126.17665
 21
18.029664
  0
LINE
  8
_0-1_
  6
CONTINUOUS
 62
    7
 10
130.85683
 20
19.402456
 11
133.00683
 21
23.126365
  0
LINE
  8
_0-1_
  6
CONTINUOUS
 62
    7
 10
130.85683
 20
19.402456
 11
135.15683
 21
19.402456
  0
LINE
  8
_0-1_
  6
CONTINUOUS
 62
    7
 10
133.00683
 20
23.126365
 11
135.15683
 21
19.402456
  0
CIRCLE
  8
_0-1_
  6
CONTINUOUS
 62
    7
 10
136.3896
 20
23.922135
 40
1.4758715
  0
LINE
  8
_0-1_
  6
CONTINUOUS
 62
    2
 10
139.35639
 20
16.016395
 11
141.16866
 21
16.016395
  0
LINE
  8
_0-1_
  6
CONTINUOUS
 62
    2
 10
141.63496
 20
15.016395
 11
142.24116
 21
13.716395
  0
LINE
  8
_0-1_
  6
CONTINUOUS
 62
    2
 10
138.89008
 20
15.016395
 11
138.28388
 21
13.716395
  0
LINE
  8
_0-1_
  6
CONTINUOUS
 62
    2
 10
140.26252
 20
17.959602
 11
141.16866
 21
16.016395
  0
LINE
  8
_0-1_
  6
CONTINUOUS
 62
    2
 10
140.26252
 20
17.959602
 11
139.35639
 21
16.016395
  0
LINE
  8
_0-1_
  6
CONTINUOUS
 62
    2
 10
139.66754
 20
19.471523
 11
136.98388
 21
13.716395
  0
LINE
  8
_0-1_
  6
CONTINUOUS
 62
    2
 10
147.51042
 20
18.471523
 11
147.58523
 21
18.430466
  0
LINE
  8
_0-1_
  6
CONTINUOUS
 62
    2
 10
147.58523
 20
18.430466
 11
147.71283
 21
18.358737
  0
LINE
  8
_0-1_
  6
CONTINUOUS
 62
    2
 10
147.71283
 20
18.358737
 11
147.83655
 21
18.284391
  0
LINE
  8
_0-1_
  6
CONTINUOUS
 62
    2
 10
147.83655
 20
18.284391
 11
147.95396
 21
18.205771
  0
LINE
  8
_0-1_
  6
CONTINUOUS
 62
    2
 10
147.95396
 20
18.205771
 11
148.0626
 21
18.121223
  0
LINE
  8
_0-1_
  6
CONTINUOUS
 62
    2
 10
148.0626
 20
18.121223
 11
148.16002
 21
18.029089
  0
LINE
  8
_0-1_
  6
CONTINUOUS
 62
    2
 10
148.16002
 20
18.029089
 11
148.21042
 21
17.971523
  0
LINE
  8
_0-1_
  6
CONTINUOUS
 62
    2
 10
148.21042
 20
17.971523
 11
148.28237
 21
17.869989
  0
LINE
  8
_0-1_
  6
CONTINUOUS
 62
    2
 10
148.28237
 20
17.869989
 11
148.37782
 21
17.675811
  0
LINE
  8
_0-1_
  6
CONTINUOUS
 62
    2
 10
148.37782
 20
17.675811
 11
148.44226
 21
17.461258
  0
LINE
  8
_0-1_
  6
CONTINUOUS
 62
    2
 10
148.44226
 20
17.461258
 11
148.48169
 21
17.230779
  0
LINE
  8
_0-1_
  6
CONTINUOUS
 62
    2
 10
148.48169
 20
17.230779
 11
148.50215
 21
16.988823
  0
LINE
  8
_0-1_
  6
CONTINUOUS
 62
    2
 10
148.50215
 20
16.988823
 11
148.50964
 21
16.739838
  0
LINE
  8
_0-1_
  6
CONTINUOUS
 62
    2
 10
148.50964
 20
16.739838
 11
148.51042
 21
16.593959
  0
LINE
  8
_0-1_
  6
CONTINUOUS
 62
    2
 10
148.51042
 20
16.593959
 11
148.50964
 21
16.44808
  0
LINE
  8
_0-1_
  6
CONTINUOUS
 62
    2
 10
148.50964
 20
16.44808
 11
148.50215
 21
16.199095
  0
LINE
  8
_0-1_
  6
CONTINUOUS
 62
    2
 10
148.50215
 20
16.199095
 11
148.48169
 21
15.957139
  0
LINE
  8
_0-1_
  6
CONTINUOUS
 62
    2
 10
148.48169
 20
15.957139
 11
148.44226
 21
15.72666
  0
LINE
  8
_0-1_
  6
CONTINUOUS
 62
    2
 10
148.44226
 20
15.72666
 11
148.37782
 21
15.512108
  0
LINE
  8
_0-1_
  6
CONTINUOUS
 62
    2
 10
148.37782
 20
15.512108
 11
148.28237
 21
15.31793
  0
LINE
  8
_0-1_
  6
CONTINUOUS
 62
    2
 10
148.28237
 20
15.31793
 11
148.21042
 21
15.216395
  0
LINE
  8
_0-1_
  6
CONTINUOUS
 62
    2
 10
148.21042
 20
15.216395
 11
148.16002
 21
15.158829
  0
LINE
  8
_0-1_
  6
CONTINUOUS
 62
    2
 10
148.16002
 20
15.158829
 11
148.0626
 21
15.066695
  0
LINE
  8
_0-1_
  6
CONTINUOUS
 62
    2
 10
148.0626
 20
15.066695
 11
147.95396
 21
14.982147
  0
LINE
  8
_0-1_
  6
CONTINUOUS
 62
    2
 10
147.95396
 20
14.982147
 11
147.83655
 21
14.903528
  0
LINE
  8
_0-1_
  6
CONTINUOUS
 62
    2
 10
147.83655
 20
14.903528
 11
147.71283
 21
14.829181
  0
LINE
  8
_0-1_
  6
CONTINUOUS
 62
    2
 10
147.71283
 20
14.829181
 11
147.58523
 21
14.757452
  0
LINE
  8
_0-1_
  6
CONTINUOUS
 62
    2
 10
147.58523
 20
14.757452
 11
147.51042
 21
14.716395
  0
LINE
  8
_0-1_
  6
CONTINUOUS
 62
    2
 10
147.51042
 20
13.716395
 11
147.57591
 21
13.733349
  0
LINE
  8
_0-1_
  6
CONTINUOUS
 62
    2
 10
147.57591
 20
13.733349
 11
147.68888
 21
13.762873
  0
LINE
  8
_0-1_
  6
CONTINUOUS
 62
    2
 10
147.68888
 20
13.762873
 11
147.80204
 21
13.793214
  0
LINE
  8
_0-1_
  6
CONTINUOUS
 62
    2
 10
147.80204
 20
13.793214
 11
147.9155
 21
13.824886
  0
LINE
  8
_0-1_
  6
CONTINUOUS
 62
    2
 10
147.9155
 20
13.824886
 11
148.02937
 21
13.858408
  0
LINE
  8
_0-1_
  6
CONTINUOUS
 62
    2
 10
148.02937
 20
13.858408
 11
148.14378
 21
13.894294
  0
LINE
  8
_0-1_
  6
CONTINUOUS
 62
    2
 10
148.14378
 20
13.894294
 11
148.21042
 21
13.916395
  0
LINE
  8
_0-1_
  6
CONTINUOUS
 62
    2
 10
148.21042
 20
13.916395
 11
148.34292
 21
13.963378
  0
LINE
  8
_0-1_
  6
CONTINUOUS
 62
    2
 10
148.34292
 20
13.963378
 11
148.56982
 21
14.055518
  0
LINE
  8
_0-1_
  6
CONTINUOUS
 62
    2
 10
148.56982
 20
14.055518
 11
148.78907
 21
14.163681
  0
LINE
  8
_0-1_
  6
CONTINUOUS
 62
    2
 10
148.78907
 20
14.163681
 11
148.99406
 21
14.290104
  0
LINE
  8
_0-1_
  6
CONTINUOUS
 62
    2
 10
148.99406
 20
14.290104
 11
149.17817
 21
14.437027
  0
LINE
  8
_0-1_
  6
CONTINUOUS
 62
    2
 10
149.17817
 20
14.437027
 11
149.33478
 21
14.606689
  0
LINE
  8
_0-1_
  6
CONTINUOUS
 62
    2
 10
149.33478
 20
14.606689
 11
149.41042
 21
14.716395
  0
LINE
  8
_0-1_
  6
CONTINUOUS
 62
    2
 10
149.41042
 20
14.716395
 11
149.43549
 21
14.75958
  0
LINE
  8
_0-1_
  6
CONTINUOUS
 62
    2
 10
149.43549
 20
14.75958
 11
149.4749
 21
14.836612
  0
LINE
  8
_0-1_
  6
CONTINUOUS
 62
    2
 10
149.4749
 20
14.836612
 11
149.51003
 21
14.916423
  0
LINE
  8
_0-1_
  6
CONTINUOUS
 62
    2
 10
149.51003
 20
14.916423
 11
149.54151
 21
14.998454
  0
LINE
  8
_0-1_
  6
CONTINUOUS
 62
    2
 10
149.54151
 20
14.998454
 11
149.56999
 21
15.082144
  0
LINE
  8
_0-1_
  6
CONTINUOUS
 62
    2
 10
149.56999
 20
15.082144
 11
149.5961
 21
15.166934
  0
LINE
  8
_0-1_
  6
CONTINUOUS
 62
    2
 10
149.5961
 20
15.166934
 11
149.61042
 21
15.216395
  0
LINE
  8
_0-1_
  6
CONTINUOUS
 62
    2
 10
149.61042
 20
15.216395
 11
149.64523
 21
15.344622
  0
LINE
  8
_0-1_
  6
CONTINUOUS
 62
    2
 10
149.64523
 20
15.344622
 11
149.69789
 21
15.566707
  0
LINE
  8
_0-1_
  6
CONTINUOUS
 62
    2
 10
149.69789
 20
15.566707
 11
149.7409
 21
15.789861
  0
LINE
  8
_0-1_
  6
CONTINUOUS
 62
    2
 10
149.7409
 20
15.789861
 11
149.77392
 21
16.013851
  0
LINE
  8
_0-1_
  6
CONTINUOUS
 62
    2
 10
149.77392
 20
16.013851
 11
149.79658
 21
16.238444
  0
LINE
  8
_0-1_
  6
CONTINUOUS
 62
    2
 10
149.79658
 20
16.238444
 11
149.80853
 21
16.463405
  0
LINE
  8
_0-1_
  6
CONTINUOUS
 62
    2
 10
149.80853
 20
16.463405
 11
149.81042
 21
16.593959
  0
LINE
  8
_0-1_
  6
CONTINUOUS
 62
    2
 10
149.81042
 20
16.593959
 11
149.80853
 21
16.724514
  0
LINE
  8
_0-1_
  6
CONTINUOUS
 62
    2
 10
149.80853
 20
16.724514
 11
149.79658
 21
16.949475
  0
LINE
  8
_0-1_
  6
CONTINUOUS
 62
    2
 10
149.79658
 20
16.949475
 11
149.77392
 21
17.174067
  0
LINE
  8
_0-1_
  6
CONTINUOUS
 62
    2
 10
149.77392
 20
17.174067
 11
149.7409
 21
17.398057
  0
LINE
  8
_0-1_
  6
CONTINUOUS
 62
    2
 10
149.7409
 20
17.398057
 11
149.69789
 21
17.621211
  0
LINE
  8
_0-1_
  6
CONTINUOUS
 62
    2
 10
149.69789
 20
17.621211
 11
149.64523
 21
17.843296
  0
LINE
  8
_0-1_
  6
CONTINUOUS
 62
    2
 10
149.64523
 20
17.843296
 11
149.61042
 21
17.971523
  0
LINE
  8
_0-1_
  6
CONTINUOUS
 62
    2
 10
149.61042
 20
17.971523
 11
149.5961
 21
18.020985
  0
LINE
  8
_0-1_
  6
CONTINUOUS
 62
    2
 10
149.5961
 20
18.020985
 11
149.56999
 21
18.105774
  0
LINE
  8
_0-1_
  6
CONTINUOUS
 62
    2
 10
149.56999
 20
18.105774
 11
149.54151
 21
18.189465
  0
LINE
  8
_0-1_
  6
CONTINUOUS
 62
    2
 10
149.54151
 20
18.189465
 11
149.51003
 21
18.271495
  0
LINE
  8
_0-1_
  6
CONTINUOUS
 62
    2
 10
149.51003
 20
18.271495
 11
149.4749
 21
18.351306
  0
LINE
  8
_0-1_
  6
CONTINUOUS
 62
    2
 10
149.4749
 20
18.351306
 11
149.43549
 21
18.428339
  0
LINE
  8
_0-1_
  6
CONTINUOUS
 62
    2
 10
149.43549
 20
18.428339
 11
149.41042
 21
18.471523
  0
LINE
  8
_0-1_
  6
CONTINUOUS
 62
    2
 10
149.41042
 20
18.471523
 11
149.33478
 21
18.581229
  0
LINE
  8
_0-1_
  6
CONTINUOUS
 62
    2
 10
149.33478
 20
18.581229
 11
149.17817
 21
18.750891
  0
LINE
  8
_0-1_
  6
CONTINUOUS
 62
    2
 10
149.17817
 20
18.750891
 11
148.99406
 21
18.897815
  0
LINE
  8
_0-1_
  6
CONTINUOUS
 62
    2
 10
148.99406
 20
18.897815
 11
148.78907
 21
19.024238
  0
LINE
  8
_0-1_
  6
CONTINUOUS
 62
    2
 10
148.78907
 20
19.024238
 11
148.56982
 21
19.1324
  0
LINE
  8
_0-1_
  6
CONTINUOUS
 62
    2
 10
148.56982
 20
19.1324
 11
148.34292
 21
19.22454
  0
LINE
  8
_0-1_
  6
CONTINUOUS
 62
    2
 10
148.34292
 20
19.22454
 11
148.21042
 21
19.271523
  0
LINE
  8
_0-1_
  6
CONTINUOUS
 62
    2
 10
148.21042
 20
19.271523
 11
148.14378
 21
19.293624
  0
LINE
  8
_0-1_
  6
CONTINUOUS
 62
    2
 10
148.14378
 20
19.293624
 11
148.02937
 21
19.329511
  0
LINE
  8
_0-1_
  6
CONTINUOUS
 62
    2
 10
148.02937
 20
19.329511
 11
147.9155
 21
19.363032
  0
LINE
  8
_0-1_
  6
CONTINUOUS
 62
    2
 10
147.9155
 20
19.363032
 11
147.80204
 21
19.394705
  0
LINE
  8
_0-1_
  6
CONTINUOUS
 62
    2
 10
147.80204
 20
19.394705
 11
147.68888
 21
19.425045
  0
LINE
  8
_0-1_
  6
CONTINUOUS
 62
    2
 10
147.68888
 20
19.425045
 11
147.57591
 21
19.454569
  0
LINE
  8
_0-1_
  6
CONTINUOUS
 62
    2
 10
147.57591
 20
19.454569
 11
147.51042
 21
19.471523
  0
LINE
  8
_0-1_
  6
CONTINUOUS
 62
    2
 10
151.11042
 20
19.471523
 11
153.14408
 21
15.110325
  0
LINE
  8
_0-1_
  6
CONTINUOUS
 62
    2
 10
155.17774
 20
19.471523
 11
153.14408
 21
15.110325
  0
LINE
  8
_0-1_
  6
CONTINUOUS
 62
    2
 10
149.81042
 20
19.471523
 11
152.49408
 21
13.716395
  0
LINE
  8
_0-1_
  6
CONTINUOUS
 62
    2
 10
153.79408
 20
13.716395
 11
156.47774
 21
19.471523
  0
LINE
  8
_0-1_
  6
CONTINUOUS
 62
    2
 10
157.47774
 20
19.471523
 11
154.79408
 21
13.716395
  0
LINE
  8
_0-1_
  6
CONTINUOUS
 62
    2
 10
158.81317
 20
19.471523
 11
161.49683
 21
13.716395
  0
LINE
  8
_0-1_
  6
CONTINUOUS
 62
    2
 10
138.89008
 20
15.016395
 11
141.63496
 21
15.016395
  0
LINE
  8
_0-1_
  6
CONTINUOUS
 62
    2
 10
156.70028
 20
15.016395
 11
159.59063
 21
15.016395
  0
LINE
  8
_0-1_
  6
CONTINUOUS
 62
    2
 10
157.16659
 20
16.016395
 11
159.12432
 21
16.016395
  0
LINE
  8
_0-1_
  6
CONTINUOUS
 62
    2
 10
163.37338
 20
18.471523
 11
166.34471
 21
13.716395
  0
LINE
  8
_0-1_
  6
CONTINUOUS
 62
    2
 10
166.95214
 20
14.820099
 11
166.95214
 21
19.471523
  0
LINE
  8
_0-1_
  6
CONTINUOUS
 62
    2
 10
168.05214
 20
13.716395
 11
168.05214
 21
19.471523
  0
LINE
  8
_0-1_
  6
CONTINUOUS
 62
    2
 10
164.04561
 20
19.471523
 11
166.95214
 21
14.820099
  0
LINE
  8
_0-1_
  6
CONTINUOUS
 62
    2
 10
162.07338
 20
19.471523
 11
162.07338
 21
13.716395
  0
LINE
  8
_0-1_
  6
CONTINUOUS
 62
    2
 10
147.51042
 20
18.471523
 11
145.51042
 21
18.471523
  0
LINE
  8
_0-1_
  6
CONTINUOUS
 62
    2
 10
145.51042
 20
14.716395
 11
147.51042
 21
14.716395
  0
LINE
  8
_0-1_
  6
CONTINUOUS
 62
    2
 10
159.12432
 20
16.016395
 11
158.14546
 21
18.115588
  0
LINE
  8
_0-1_
  6
CONTINUOUS
 62
    2
 10
157.16659
 20
16.016395
 11
158.14546
 21
18.115588
  0
LINE
  8
_0-1_
  6
CONTINUOUS
 62
    2
 10
156.09408
 20
13.716395
 11
156.70028
 21
15.016395
  0
LINE
  8
_0-1_
  6
CONTINUOUS
 62
    2
 10
160.19683
 20
13.716395
 11
159.59063
 21
15.016395
  0
LINE
  8
_0-1_
  6
CONTINUOUS
 62
    2
 10
163.37338
 20
18.471523
 11
163.37338
 21
13.716395
  0
LINE
  8
_0-1_
  6
CONTINUOUS
 62
    2
 10
136.98388
 20
13.716395
 11
138.28388
 21
13.716395
  0
LINE
  8
_0-1_
  6
CONTINUOUS
 62
    2
 10
142.24116
 20
13.716395
 11
143.54116
 21
13.716395
  0
LINE
  8
_0-1_
  6
CONTINUOUS
 62
    2
 10
140.8575
 20
19.471523
 11
143.54116
 21
13.716395
  0
LINE
  8
_0-1_
  6
CONTINUOUS
 62
    2
 10
140.8575
 20
19.471523
 11
139.66754
 21
19.471523
  0
LINE
  8
_0-1_
  6
CONTINUOUS
 62
    2
 10
144.21042
 20
19.471523
 11
144.21042
 21
13.716395
  0
LINE
  8
_0-1_
  6
CONTINUOUS
 62
    2
 10
145.51042
 20
18.471523
 11
145.51042
 21
14.716395
  0
LINE
  8
_0-1_
  6
CONTINUOUS
 62
    2
 10
144.21042
 20
13.716395
 11
147.51042
 21
13.716395
  0
LINE
  8
_0-1_
  6
CONTINUOUS
 62
    2
 10
147.51042
 20
19.471523
 11
144.21042
 21
19.471523
  0
LINE
  8
_0-1_
  6
CONTINUOUS
 62
    2
 10
151.11042
 20
19.471523
 11
149.81042
 21
19.471523
  0
LINE
  8
_0-1_
  6
CONTINUOUS
 62
    2
 10
152.49408
 20
13.716395
 11
153.79408
 21
13.716395
  0
LINE
  8
_0-1_
  6
CONTINUOUS
 62
    2
 10
156.47774
 20
19.471523
 11
155.17774
 21
19.471523
  0
LINE
  8
_0-1_
  6
CONTINUOUS
 62
    2
 10
154.79408
 20
13.716395
 11
156.09408
 21
13.716395
  0
LINE
  8
_0-1_
  6
CONTINUOUS
 62
    2
 10
160.19683
 20
13.716395
 11
161.49683
 21
13.716395
  0
LINE
  8
_0-1_
  6
CONTINUOUS
 62
    2
 10
162.07338
 20
13.716395
 11
163.37338
 21
13.716395
  0
LINE
  8
_0-1_
  6
CONTINUOUS
 62
    2
 10
166.34471
 20
13.716395
 11
168.05214
 21
13.716395
  0
LINE
  8
_0-1_
  6
CONTINUOUS
 62
    2
 10
168.05214
 20
19.471523
 11
166.95214
 21
19.471523
  0
LINE
  8
_0-1_
  6
CONTINUOUS
 62
    2
 10
164.04561
 20
19.471523
 11
162.07338
 21
19.471523
  0
LINE
  8
_0-1_
  6
CONTINUOUS
 62
    2
 10
158.81317
 20
19.471523
 11
157.47774
 21
19.471523
  0
LINE
  8
_0-1_
  6
CONTINUOUS
 62
    2
 10
137.05622
 20
13.871523
 11
138.35622
 21
13.871523
  0
LINE
  8
_0-1_
  6
CONTINUOUS
 62
    2
 10
142.16883
 20
13.871523
 11
143.46883
 21
13.871523
  0
LINE
  8
_0-1_
  6
CONTINUOUS
 62
    2
 10
144.21042
 20
13.871523
 11
148.07119
 21
13.871523
  0
LINE
  8
_0-1_
  6
CONTINUOUS
 62
    2
 10
152.42174
 20
13.871523
 11
153.86642
 21
13.871523
  0
LINE
  8
_0-1_
  6
CONTINUOUS
 62
    2
 10
154.86642
 20
13.871523
 11
156.16642
 21
13.871523
  0
LINE
  8
_0-1_
  6
CONTINUOUS
 62
    2
 10
160.12449
 20
13.871523
 11
161.42449
 21
13.871523
  0
LINE
  8
_0-1_
  6
CONTINUOUS
 62
    2
 10
162.07338
 20
13.871523
 11
163.37338
 21
13.871523
  0
LINE
  8
_0-1_
  6
CONTINUOUS
 62
    2
 10
166.24778
 20
13.871523
 11
168.05214
 21
13.871523
  0
LINE
  8
_0-1_
  6
CONTINUOUS
 62
    2
 10
137.14948
 20
14.071523
 11
138.44948
 21
14.071523
  0
LINE
  8
_0-1_
  6
CONTINUOUS
 62
    2
 10
142.07557
 20
14.071523
 11
143.37557
 21
14.071523
  0
LINE
  8
_0-1_
  6
CONTINUOUS
 62
    2
 10
144.21042
 20
14.071523
 11
148.60227
 21
14.071523
  0
LINE
  8
_0-1_
  6
CONTINUOUS
 62
    2
 10
152.32848
 20
14.071523
 11
153.95968
 21
14.071523
  0
LINE
  8
_0-1_
  6
CONTINUOUS
 62
    2
 10
154.95968
 20
14.071523
 11
156.25968
 21
14.071523
  0
LINE
  8
_0-1_
  6
CONTINUOUS
 62
    2
 10
160.03123
 20
14.071523
 11
161.33123
 21
14.071523
  0
LINE
  8
_0-1_
  6
CONTINUOUS
 62
    2
 10
162.07338
 20
14.071523
 11
163.37338
 21
14.071523
  0
LINE
  8
_0-1_
  6
CONTINUOUS
 62
    2
 10
166.12281
 20
14.071523
 11
168.05214
 21
14.071523
  0
LINE
  8
_0-1_
  6
CONTINUOUS
 62
    2
 10
137.24274
 20
14.271523
 11
138.54274
 21
14.271523
  0
LINE
  8
_0-1_
  6
CONTINUOUS
 62
    2
 10
141.9823
 20
14.271523
 11
143.2823
 21
14.271523
  0
LINE
  8
_0-1_
  6
CONTINUOUS
 62
    2
 10
144.21042
 20
14.271523
 11
148.96393
 21
14.271523
  0
LINE
  8
_0-1_
  6
CONTINUOUS
 62
    2
 10
152.23522
 20
14.271523
 11
154.05294
 21
14.271523
  0
LINE
  8
_0-1_
  6
CONTINUOUS
 62
    2
 10
155.05294
 20
14.271523
 11
156.35294
 21
14.271523
  0
LINE
  8
_0-1_
  6
CONTINUOUS
 62
    2
 10
159.93797
 20
14.271523
 11
161.23797
 21
14.271523
  0
LINE
  8
_0-1_
  6
CONTINUOUS
 62
    2
 10
162.07338
 20
14.271523
 11
163.37338
 21
14.271523
  0
LINE
  8
_0-1_
  6
CONTINUOUS
 62
    2
 10
165.99783
 20
14.271523
 11
168.05214
 21
14.271523
  0
LINE
  8
_0-1_
  6
CONTINUOUS
 62
    2
 10
137.33601
 20
14.471523
 11
138.63601
 21
14.471523
  0
LINE
  8
_0-1_
  6
CONTINUOUS
 62
    2
 10
141.88904
 20
14.471523
 11
143.18904
 21
14.471523
  0
LINE
  8
_0-1_
  6
CONTINUOUS
 62
    2
 10
144.21042
 20
14.471523
 11
149.21001
 21
14.471523
  0
LINE
  8
_0-1_
  6
CONTINUOUS
 62
    2
 10
152.14196
 20
14.471523
 11
154.1462
 21
14.471523
  0
LINE
  8
_0-1_
  6
CONTINUOUS
 62
    2
 10
155.1462
 20
14.471523
 11
156.4462
 21
14.471523
  0
LINE
  8
_0-1_
  6
CONTINUOUS
 62
    2
 10
159.84471
 20
14.471523
 11
161.14471
 21
14.471523
  0
LINE
  8
_0-1_
  6
CONTINUOUS
 62
    2
 10
162.07338
 20
14.471523
 11
163.37338
 21
14.471523
  0
LINE
  8
_0-1_
  6
CONTINUOUS
 62
    2
 10
165.87286
 20
14.471523
 11
168.05214
 21
14.471523
  0
LINE
  8
_0-1_
  6
CONTINUOUS
 62
    2
 10
137.42927
 20
14.671523
 11
138.72927
 21
14.671523
  0
LINE
  8
_0-1_
  6
CONTINUOUS
 62
    2
 10
141.79578
 20
14.671523
 11
143.09578
 21
14.671523
  0
LINE
  8
_0-1_
  6
CONTINUOUS
 62
    2
 10
144.21042
 20
14.671523
 11
149.37948
 21
14.671523
  0
LINE
  8
_0-1_
  6
CONTINUOUS
 62
    2
 10
152.04869
 20
14.671523
 11
154.23946
 21
14.671523
  0
LINE
  8
_0-1_
  6
CONTINUOUS
 62
    2
 10
155.23946
 20
14.671523
 11
156.53946
 21
14.671523
  0
LINE
  8
_0-1_
  6
CONTINUOUS
 62
    2
 10
159.75145
 20
14.671523
 11
161.05145
 21
14.671523
  0
LINE
  8
_0-1_
  6
CONTINUOUS
 62
    2
 10
162.07338
 20
14.671523
 11
163.37338
 21
14.671523
  0
LINE
  8
_0-1_
  6
CONTINUOUS
 62
    2
 10
165.74788
 20
14.671523
 11
168.05214
 21
14.671523
  0
LINE
  8
_0-1_
  6
CONTINUOUS
 62
    2
 10
137.52253
 20
14.871523
 11
138.82253
 21
14.871523
  0
LINE
  8
_0-1_
  6
CONTINUOUS
 62
    2
 10
141.70252
 20
14.871523
 11
143.00252
 21
14.871523
  0
LINE
  8
_0-1_
  6
CONTINUOUS
 62
    2
 10
144.21042
 20
14.871523
 11
145.51042
 21
14.871523
  0
LINE
  8
_0-1_
  6
CONTINUOUS
 62
    2
 10
147.78329
 20
14.871523
 11
149.49026
 21
14.871523
  0
LINE
  8
_0-1_
  6
CONTINUOUS
 62
    2
 10
151.95543
 20
14.871523
 11
154.33272
 21
14.871523
  0
LINE
  8
_0-1_
  6
CONTINUOUS
 62
    2
 10
155.33272
 20
14.871523
 11
156.63272
 21
14.871523
  0
LINE
  8
_0-1_
  6
CONTINUOUS
 62
    2
 10
159.65819
 20
14.871523
 11
160.95819
 21
14.871523
  0
LINE
  8
_0-1_
  6
CONTINUOUS
 62
    2
 10
162.07338
 20
14.871523
 11
163.37338
 21
14.871523
  0
LINE
  8
_0-1_
  6
CONTINUOUS
 62
    2
 10
165.62291
 20
14.871523
 11
166.92001
 21
14.871523
  0
LINE
  8
_0-1_
  6
CONTINUOUS
 62
    2
 10
166.95214
 20
14.871523
 11
168.05214
 21
14.871523
  0
LINE
  8
_0-1_
  6
CONTINUOUS
 62
    2
 10
137.61579
 20
15.071523
 11
142.90926
 21
15.071523
  0
LINE
  8
_0-1_
  6
CONTINUOUS
 62
    2
 10
144.21042
 20
15.071523
 11
145.51042
 21
15.071523
  0
LINE
  8
_0-1_
  6
CONTINUOUS
 62
    2
 10
148.0677
 20
15.071523
 11
149.56638
 21
15.071523
  0
LINE
  8
_0-1_
  6
CONTINUOUS
 62
    2
 10
151.86217
 20
15.071523
 11
154.42598
 21
15.071523
  0
LINE
  8
_0-1_
  6
CONTINUOUS
 62
    2
 10
155.42598
 20
15.071523
 11
160.86493
 21
15.071523
  0
LINE
  8
_0-1_
  6
CONTINUOUS
 62
    2
 10
162.07338
 20
15.071523
 11
163.37338
 21
15.071523
  0
LINE
  8
_0-1_
  6
CONTINUOUS
 62
    2
 10
165.49794
 20
15.071523
 11
166.79503
 21
15.071523
  0
LINE
  8
_0-1_
  6
CONTINUOUS
 62
    2
 10
166.95214
 20
15.071523
 11
168.05214
 21
15.071523
  0
LINE
  8
_0-1_
  6
CONTINUOUS
 62
    2
 10
137.70905
 20
15.271523
 11
142.816
 21
15.271523
  0
LINE
  8
_0-1_
  6
CONTINUOUS
 62
    2
 10
144.21042
 20
15.271523
 11
145.51042
 21
15.271523
  0
LINE
  8
_0-1_
  6
CONTINUOUS
 62
    2
 10
148.24948
 20
15.271523
 11
149.62539
 21
15.271523
  0
LINE
  8
_0-1_
  6
CONTINUOUS
 62
    2
 10
151.76891
 20
15.271523
 11
153.06891
 21
15.271523
  0
LINE
  8
_0-1_
  6
CONTINUOUS
 62
    2
 10
153.21925
 20
15.271523
 11
154.51925
 21
15.271523
  0
LINE
  8
_0-1_
  6
CONTINUOUS
 62
    2
 10
155.51925
 20
15.271523
 11
160.77166
 21
15.271523
  0
LINE
  8
_0-1_
  6
CONTINUOUS
 62
    2
 10
162.07338
 20
15.271523
 11
163.37338
 21
15.271523
  0
LINE
  8
_0-1_
  6
CONTINUOUS
 62
    2
 10
165.37296
 20
15.271523
 11
166.67006
 21
15.271523
  0
LINE
  8
_0-1_
  6
CONTINUOUS
 62
    2
 10
166.95214
 20
15.271523
 11
168.05214
 21
15.271523
  0
LINE
  8
_0-1_
  6
CONTINUOUS
 62
    2
 10
137.80231
 20
15.471523
 11
142.72273
 21
15.471523
  0
LINE
  8
_0-1_
  6
CONTINUOUS
 62
    2
 10
144.21042
 20
15.471523
 11
145.51042
 21
15.471523
  0
LINE
  8
_0-1_
  6
CONTINUOUS
 62
    2
 10
148.35787
 20
15.471523
 11
149.67532
 21
15.471523
  0
LINE
  8
_0-1_
  6
CONTINUOUS
 62
    2
 10
151.67565
 20
15.471523
 11
152.97565
 21
15.471523
  0
LINE
  8
_0-1_
  6
CONTINUOUS
 62
    2
 10
153.31251
 20
15.471523
 11
154.61251
 21
15.471523
  0
LINE
  8
_0-1_
  6
CONTINUOUS
 62
    2
 10
155.61251
 20
15.471523
 11
160.6784
 21
15.471523
  0
LINE
  8
_0-1_
  6
CONTINUOUS
 62
    2
 10
162.07338
 20
15.471523
 11
163.37338
 21
15.471523
  0
LINE
  8
_0-1_
  6
CONTINUOUS
 62
    2
 10
165.24799
 20
15.471523
 11
166.54509
 21
15.471523
  0
LINE
  8
_0-1_
  6
CONTINUOUS
 62
    2
 10
166.95214
 20
15.471523
 11
168.05214
 21
15.471523
  0
LINE
  8
_0-1_
  6
CONTINUOUS
 62
    2
 10
137.89558
 20
15.671523
 11
142.62947
 21
15.671523
  0
LINE
  8
_0-1_
  6
CONTINUOUS
 62
    2
 10
144.21042
 20
15.671523
 11
145.51042
 21
15.671523
  0
LINE
  8
_0-1_
  6
CONTINUOUS
 62
    2
 10
148.4257
 20
15.671523
 11
149.71809
 21
15.671523
  0
LINE
  8
_0-1_
  6
CONTINUOUS
 62
    2
 10
151.58239
 20
15.671523
 11
152.88239
 21
15.671523
  0
LINE
  8
_0-1_
  6
CONTINUOUS
 62
    2
 10
153.40577
 20
15.671523
 11
154.70577
 21
15.671523
  0
LINE
  8
_0-1_
  6
CONTINUOUS
 62
    2
 10
155.70577
 20
15.671523
 11
160.58514
 21
15.671523
  0
LINE
  8
_0-1_
  6
CONTINUOUS
 62
    2
 10
162.07338
 20
15.671523
 11
163.37338
 21
15.671523
  0
LINE
  8
_0-1_
  6
CONTINUOUS
 62
    2
 10
165.12301
 20
15.671523
 11
166.42011
 21
15.671523
  0
LINE
  8
_0-1_
  6
CONTINUOUS
 62
    2
 10
166.95214
 20
15.671523
 11
168.05214
 21
15.671523
  0
LINE
  8
_0-1_
  6
CONTINUOUS
 62
    2
 10
137.98884
 20
15.871523
 11
142.53621
 21
15.871523
  0
LINE
  8
_0-1_
  6
CONTINUOUS
 62
    2
 10
144.21042
 20
15.871523
 11
145.51042
 21
15.871523
  0
LINE
  8
_0-1_
  6
CONTINUOUS
 62
    2
 10
148.46705
 20
15.871523
 11
149.75294
 21
15.871523
  0
LINE
  8
_0-1_
  6
CONTINUOUS
 62
    2
 10
151.48913
 20
15.871523
 11
152.78913
 21
15.871523
  0
LINE
  8
_0-1_
  6
CONTINUOUS
 62
    2
 10
153.49903
 20
15.871523
 11
154.79903
 21
15.871523
  0
LINE
  8
_0-1_
  6
CONTINUOUS
 62
    2
 10
155.79903
 20
15.871523
 11
160.49188
 21
15.871523
  0
LINE
  8
_0-1_
  6
CONTINUOUS
 62
    2
 10
162.07338
 20
15.871523
 11
163.37338
 21
15.871523
  0
LINE
  8
_0-1_
  6
CONTINUOUS
 62
    2
 10
164.99804
 20
15.871523
 11
166.29514
 21
15.871523
  0
LINE
  8
_0-1_
  6
CONTINUOUS
 62
    2
 10
166.95214
 20
15.871523
 11
168.05214
 21
15.871523
  0
LINE
  8
_0-1_
  6
CONTINUOUS
 62
    2
 10
138.0821
 20
16.071523
 11
139.3821
 21
16.071523
  0
LINE
  8
_0-1_
  6
CONTINUOUS
 62
    2
 10
141.14295
 20
16.071523
 11
142.44295
 21
16.071523
  0
LINE
  8
_0-1_
  6
CONTINUOUS
 62
    2
 10
144.21042
 20
16.071523
 11
145.51042
 21
16.071523
  0
LINE
  8
_0-1_
  6
CONTINUOUS
 62
    2
 10
148.49136
 20
16.071523
 11
149.77974
 21
16.071523
  0
LINE
  8
_0-1_
  6
CONTINUOUS
 62
    2
 10
151.39586
 20
16.071523
 11
152.69586
 21
16.071523
  0
LINE
  8
_0-1_
  6
CONTINUOUS
 62
    2
 10
153.59229
 20
16.071523
 11
154.89229
 21
16.071523
  0
LINE
  8
_0-1_
  6
CONTINUOUS
 62
    2
 10
155.89229
 20
16.071523
 11
157.19229
 21
16.071523
  0
LINE
  8
_0-1_
  6
CONTINUOUS
 62
    2
 10
159.09862
 20
16.071523
 11
160.39862
 21
16.071523
  0
LINE
  8
_0-1_
  6
CONTINUOUS
 62
    2
 10
162.07338
 20
16.071523
 11
163.37338
 21
16.071523
  0
LINE
  8
_0-1_
  6
CONTINUOUS
 62
    2
 10
164.87307
 20
16.071523
 11
166.17016
 21
16.071523
  0
LINE
  8
_0-1_
  6
CONTINUOUS
 62
    2
 10
166.95214
 20
16.071523
 11
168.05214
 21
16.071523
  0
LINE
  8
_0-1_
  6
CONTINUOUS
 62
    2
 10
138.17536
 20
16.271523
 11
139.47536
 21
16.271523
  0
LINE
  8
_0-1_
  6
CONTINUOUS
 62
    2
 10
141.04969
 20
16.271523
 11
142.34969
 21
16.271523
  0
LINE
  8
_0-1_
  6
CONTINUOUS
 62
    2
 10
144.21042
 20
16.271523
 11
145.51042
 21
16.271523
  0
LINE
  8
_0-1_
  6
CONTINUOUS
 62
    2
 10
148.50433
 20
16.271523
 11
149.79834
 21
16.271523
  0
LINE
  8
_0-1_
  6
CONTINUOUS
 62
    2
 10
151.3026
 20
16.271523
 11
152.6026
 21
16.271523
  0
LINE
  8
_0-1_
  6
CONTINUOUS
 62
    2
 10
153.68555
 20
16.271523
 11
154.98555
 21
16.271523
  0
LINE
  8
_0-1_
  6
CONTINUOUS
 62
    2
 10
155.98555
 20
16.271523
 11
157.28555
 21
16.271523
  0
LINE
  8
_0-1_
  6
CONTINUOUS
 62
    2
 10
159.00536
 20
16.271523
 11
160.30536
 21
16.271523
  0
LINE
  8
_0-1_
  6
CONTINUOUS
 62
    2
 10
162.07338
 20
16.271523
 11
163.37338
 21
16.271523
  0
LINE
  8
_0-1_
  6
CONTINUOUS
 62
    2
 10
164.74809
 20
16.271523
 11
166.04519
 21
16.271523
  0
LINE
  8
_0-1_
  6
CONTINUOUS
 62
    2
 10
166.95214
 20
16.271523
 11
168.05214
 21
16.271523
  0
LINE
  8
_0-1_
  6
CONTINUOUS
 62
    2
 10
138.26862
 20
16.471523
 11
139.56862
 21
16.471523
  0
LINE
  8
_0-1_
  6
CONTINUOUS
 62
    2
 10
140.95643
 20
16.471523
 11
142.25643
 21
16.471523
  0
LINE
  8
_0-1_
  6
CONTINUOUS
 62
    2
 10
144.21042
 20
16.471523
 11
145.51042
 21
16.471523
  0
LINE
  8
_0-1_
  6
CONTINUOUS
 62
    2
 10
148.50977
 20
16.471523
 11
149.80865
 21
16.471523
  0
LINE
  8
_0-1_
  6
CONTINUOUS
 62
    2
 10
151.20934
 20
16.471523
 11
152.50934
 21
16.471523
  0
LINE
  8
_0-1_
  6
CONTINUOUS
 62
    2
 10
153.77882
 20
16.471523
 11
155.07882
 21
16.471523
  0
LINE
  8
_0-1_
  6
CONTINUOUS
 62
    2
 10
156.07882
 20
16.471523
 11
157.37882
 21
16.471523
  0
LINE
  8
_0-1_
  6
CONTINUOUS
 62
    2
 10
158.91209
 20
16.471523
 11
160.21209
 21
16.471523
  0
LINE
  8
_0-1_
  6
CONTINUOUS
 62
    2
 10
162.07338
 20
16.471523
 11
163.37338
 21
16.471523
  0
LINE
  8
_0-1_
  6
CONTINUOUS
 62
    2
 10
164.62312
 20
16.471523
 11
165.92022
 21
16.471523
  0
LINE
  8
_0-1_
  6
CONTINUOUS
 62
    2
 10
166.95214
 20
16.471523
 11
168.05214
 21
16.471523
  0
LINE
  8
_0-1_
  6
CONTINUOUS
 62
    2
 10
138.36188
 20
16.671523
 11
139.66188
 21
16.671523
  0
LINE
  8
_0-1_
  6
CONTINUOUS
 62
    2
 10
140.86317
 20
16.671523
 11
142.16317
 21
16.671523
  0
LINE
  8
_0-1_
  6
CONTINUOUS
 62
    2
 10
144.21042
 20
16.671523
 11
145.51042
 21
16.671523
  0
LINE
  8
_0-1_
  6
CONTINUOUS
 62
    2
 10
148.51
 20
16.671523
 11
149.8093
 21
16.671523
  0
LINE
  8
_0-1_
  6
CONTINUOUS
 62
    2
 10
151.11608
 20
16.671523
 11
152.41608
 21
16.671523
  0
LINE
  8
_0-1_
  6
CONTINUOUS
 62
    2
 10
153.87208
 20
16.671523
 11
155.17208
 21
16.671523
  0
LINE
  8
_0-1_
  6
CONTINUOUS
 62
    2
 10
156.17208
 20
16.671523
 11
157.47208
 21
16.671523
  0
LINE
  8
_0-1_
  6
CONTINUOUS
 62
    2
 10
158.81883
 20
16.671523
 11
160.11883
 21
16.671523
  0
LINE
  8
_0-1_
  6
CONTINUOUS
 62
    2
 10
162.07338
 20
16.671523
 11
163.37338
 21
16.671523
  0
LINE
  8
_0-1_
  6
CONTINUOUS
 62
    2
 10
164.49815
 20
16.671523
 11
165.79524
 21
16.671523
  0
LINE
  8
_0-1_
  6
CONTINUOUS
 62
    2
 10
166.95214
 20
16.671523
 11
168.05214
 21
16.671523
  0
LINE
  8
_0-1_
  6
CONTINUOUS
 62
    2
 10
138.45514
 20
16.871523
 11
139.75514
 21
16.871523
  0
LINE
  8
_0-1_
  6
CONTINUOUS
 62
    2
 10
140.7699
 20
16.871523
 11
142.0699
 21
16.871523
  0
LINE
  8
_0-1_
  6
CONTINUOUS
 62
    2
 10
144.21042
 20
16.871523
 11
145.51042
 21
16.871523
  0
LINE
  8
_0-1_
  6
CONTINUOUS
 62
    2
 10
148.50568
 20
16.871523
 11
149.80072
 21
16.871523
  0
LINE
  8
_0-1_
  6
CONTINUOUS
 62
    2
 10
151.02282
 20
16.871523
 11
152.32282
 21
16.871523
  0
LINE
  8
_0-1_
  6
CONTINUOUS
 62
    2
 10
153.96534
 20
16.871523
 11
155.26534
 21
16.871523
  0
LINE
  8
_0-1_
  6
CONTINUOUS
 62
    2
 10
156.26534
 20
16.871523
 11
157.56534
 21
16.871523
  0
LINE
  8
_0-1_
  6
CONTINUOUS
 62
    2
 10
158.72557
 20
16.871523
 11
160.02557
 21
16.871523
  0
LINE
  8
_0-1_
  6
CONTINUOUS
 62
    2
 10
162.07338
 20
16.871523
 11
163.37338
 21
16.871523
  0
LINE
  8
_0-1_
  6
CONTINUOUS
 62
    2
 10
164.37317
 20
16.871523
 11
165.67027
 21
16.871523
  0
LINE
  8
_0-1_
  6
CONTINUOUS
 62
    2
 10
166.95214
 20
16.871523
 11
168.05214
 21
16.871523
  0
LINE
  8
_0-1_
  6
CONTINUOUS
 62
    2
 10
138.54841
 20
17.071523
 11
139.84841
 21
17.071523
  0
LINE
  8
_0-1_
  6
CONTINUOUS
 62
    2
 10
140.67664
 20
17.071523
 11
141.97664
 21
17.071523
  0
LINE
  8
_0-1_
  6
CONTINUOUS
 62
    2
 10
144.21042
 20
17.071523
 11
145.51042
 21
17.071523
  0
LINE
  8
_0-1_
  6
CONTINUOUS
 62
    2
 10
148.49516
 20
17.071523
 11
149.78426
 21
17.071523
  0
LINE
  8
_0-1_
  6
CONTINUOUS
 62
    2
 10
150.92956
 20
17.071523
 11
152.22956
 21
17.071523
  0
LINE
  8
_0-1_
  6
CONTINUOUS
 62
    2
 10
154.0586
 20
17.071523
 11
155.3586
 21
17.071523
  0
LINE
  8
_0-1_
  6
CONTINUOUS
 62
    2
 10
156.3586
 20
17.071523
 11
157.6586
 21
17.071523
  0
LINE
  8
_0-1_
  6
CONTINUOUS
 62
    2
 10
158.63231
 20
17.071523
 11
159.93231
 21
17.071523
  0
LINE
  8
_0-1_
  6
CONTINUOUS
 62
    2
 10
162.07338
 20
17.071523
 11
163.37338
 21
17.071523
  0
LINE
  8
_0-1_
  6
CONTINUOUS
 62
    2
 10
164.2482
 20
17.071523
 11
165.54529
 21
17.071523
  0
LINE
  8
_0-1_
  6
CONTINUOUS
 62
    2
 10
166.95214
 20
17.071523
 11
168.05214
 21
17.071523
  0
LINE
  8
_0-1_
  6
CONTINUOUS
 62
    2
 10
138.64167
 20
17.271523
 11
139.94167
 21
17.271523
  0
LINE
  8
_0-1_
  6
CONTINUOUS
 62
    2
 10
140.58338
 20
17.271523
 11
141.88338
 21
17.271523
  0
LINE
  8
_0-1_
  6
CONTINUOUS
 62
    2
 10
144.21042
 20
17.271523
 11
145.51042
 21
17.271523
  0
LINE
  8
_0-1_
  6
CONTINUOUS
 62
    2
 10
148.47472
 20
17.271523
 11
149.75955
 21
17.271523
  0
LINE
  8
_0-1_
  6
CONTINUOUS
 62
    2
 10
150.83629
 20
17.271523
 11
152.13629
 21
17.271523
  0
LINE
  8
_0-1_
  6
CONTINUOUS
 62
    2
 10
154.15186
 20
17.271523
 11
155.45186
 21
17.271523
  0
LINE
  8
_0-1_
  6
CONTINUOUS
 62
    2
 10
156.45186
 20
17.271523
 11
157.75186
 21
17.271523
  0
LINE
  8
_0-1_
  6
CONTINUOUS
 62
    2
 10
158.53905
 20
17.271523
 11
159.83905
 21
17.271523
  0
LINE
  8
_0-1_
  6
CONTINUOUS
 62
    2
 10
162.07338
 20
17.271523
 11
163.37338
 21
17.271523
  0
LINE
  8
_0-1_
  6
CONTINUOUS
 62
    2
 10
164.12322
 20
17.271523
 11
165.42032
 21
17.271523
  0
LINE
  8
_0-1_
  6
CONTINUOUS
 62
    2
 10
166.95214
 20
17.271523
 11
168.05214
 21
17.271523
  0
LINE
  8
_0-1_
  6
CONTINUOUS
 62
    2
 10
138.73493
 20
17.471523
 11
140.03493
 21
17.471523
  0
LINE
  8
_0-1_
  6
CONTINUOUS
 62
    2
 10
140.49012
 20
17.471523
 11
141.79012
 21
17.471523
  0
LINE
  8
_0-1_
  6
CONTINUOUS
 62
    2
 10
144.21042
 20
17.471523
 11
145.51042
 21
17.471523
  0
LINE
  8
_0-1_
  6
CONTINUOUS
 62
    2
 10
148.43918
 20
17.471523
 11
149.72674
 21
17.471523
  0
LINE
  8
_0-1_
  6
CONTINUOUS
 62
    2
 10
150.74303
 20
17.471523
 11
152.04303
 21
17.471523
  0
LINE
  8
_0-1_
  6
CONTINUOUS
 62
    2
 10
154.24512
 20
17.471523
 11
155.54512
 21
17.471523
  0
LINE
  8
_0-1_
  6
CONTINUOUS
 62
    2
 10
156.54512
 20
17.471523
 11
157.84512
 21
17.471523
  0
LINE
  8
_0-1_
  6
CONTINUOUS
 62
    2
 10
158.44579
 20
17.471523
 11
159.74579
 21
17.471523
  0
LINE
  8
_0-1_
  6
CONTINUOUS
 62
    2
 10
162.07338
 20
17.471523
 11
163.37338
 21
17.471523
  0
LINE
  8
_0-1_
  6
CONTINUOUS
 62
    2
 10
163.99825
 20
17.471523
 11
165.29535
 21
17.471523
  0
LINE
  8
_0-1_
  6
CONTINUOUS
 62
    2
 10
166.95214
 20
17.471523
 11
168.05214
 21
17.471523
  0
LINE
  8
_0-1_
  6
CONTINUOUS
 62
    2
 10
138.82819
 20
17.671523
 11
140.12819
 21
17.671523
  0
LINE
  8
_0-1_
  6
CONTINUOUS
 62
    2
 10
140.39686
 20
17.671523
 11
141.69686
 21
17.671523
  0
LINE
  8
_0-1_
  6
CONTINUOUS
 62
    2
 10
144.21042
 20
17.671523
 11
145.51042
 21
17.671523
  0
LINE
  8
_0-1_
  6
CONTINUOUS
 62
    2
 10
148.37911
 20
17.671523
 11
149.68596
 21
17.671523
  0
LINE
  8
_0-1_
  6
CONTINUOUS
 62
    2
 10
150.64977
 20
17.671523
 11
151.94977
 21
17.671523
  0
LINE
  8
_0-1_
  6
CONTINUOUS
 62
    2
 10
154.33838
 20
17.671523
 11
155.63838
 21
17.671523
  0
LINE
  8
_0-1_
  6
CONTINUOUS
 62
    2
 10
156.63838
 20
17.671523
 11
157.93838
 21
17.671523
  0
LINE
  8
_0-1_
  6
CONTINUOUS
 62
    2
 10
158.35253
 20
17.671523
 11
159.65253
 21
17.671523
  0
LINE
  8
_0-1_
  6
CONTINUOUS
 62
    2
 10
162.07338
 20
17.671523
 11
163.37338
 21
17.671523
  0
LINE
  8
_0-1_
  6
CONTINUOUS
 62
    2
 10
163.87328
 20
17.671523
 11
165.17037
 21
17.671523
  0
LINE
  8
_0-1_
  6
CONTINUOUS
 62
    2
 10
166.95214
 20
17.671523
 11
168.05214
 21
17.671523
  0
LINE
  8
_0-1_
  6
CONTINUOUS
 62
    2
 10
138.92145
 20
17.871523
 11
140.22145
 21
17.871523
  0
LINE
  8
_0-1_
  6
CONTINUOUS
 62
    2
 10
140.3036
 20
17.871523
 11
141.6036
 21
17.871523
  0
LINE
  8
_0-1_
  6
CONTINUOUS
 62
    2
 10
144.21042
 20
17.871523
 11
145.51042
 21
17.871523
  0
LINE
  8
_0-1_
  6
CONTINUOUS
 62
    2
 10
148.28128
 20
17.871523
 11
149.63757
 21
17.871523
  0
LINE
  8
_0-1_
  6
CONTINUOUS
 62
    2
 10
150.55651
 20
17.871523
 11
151.85651
 21
17.871523
  0
LINE
  8
_0-1_
  6
CONTINUOUS
 62
    2
 10
154.43165
 20
17.871523
 11
155.73165
 21
17.871523
  0
LINE
  8
_0-1_
  6
CONTINUOUS
 62
    2
 10
156.73165
 20
17.871523
 11
158.03165
 21
17.871523
  0
LINE
  8
_0-1_
  6
CONTINUOUS
 62
    2
 10
158.25926
 20
17.871523
 11
159.55926
 21
17.871523
  0
LINE
  8
_0-1_
  6
CONTINUOUS
 62
    2
 10
162.07338
 20
17.871523
 11
163.37338
 21
17.871523
  0
LINE
  8
_0-1_
  6
CONTINUOUS
 62
    2
 10
163.7483
 20
17.871523
 11
165.0454
 21
17.871523
  0
LINE
  8
_0-1_
  6
CONTINUOUS
 62
    2
 10
166.95214
 20
17.871523
 11
168.05214
 21
17.871523
  0
LINE
  8
_0-1_
  6
CONTINUOUS
 62
    2
 10
139.01471
 20
18.071523
 11
141.51034
 21
18.071523
  0
LINE
  8
_0-1_
  6
CONTINUOUS
 62
    2
 10
144.21042
 20
18.071523
 11
145.51042
 21
18.071523
  0
LINE
  8
_0-1_
  6
CONTINUOUS
 62
    2
 10
148.11515
 20
18.071523
 11
149.58054
 21
18.071523
  0
LINE
  8
_0-1_
  6
CONTINUOUS
 62
    2
 10
150.46325
 20
18.071523
 11
151.76325
 21
18.071523
  0
LINE
  8
_0-1_
  6
CONTINUOUS
 62
    2
 10
154.52491
 20
18.071523
 11
155.82491
 21
18.071523
  0
LINE
  8
_0-1_
  6
CONTINUOUS
 62
    2
 10
156.82491
 20
18.071523
 11
158.12491
 21
18.071523
  0
LINE
  8
_0-1_
  6
CONTINUOUS
 62
    2
 10
158.166
 20
18.071523
 11
159.466
 21
18.071523
  0
LINE
  8
_0-1_
  6
CONTINUOUS
 62
    2
 10
162.07338
 20
18.071523
 11
163.37338
 21
18.071523
  0
LINE
  8
_0-1_
  6
CONTINUOUS
 62
    2
 10
163.62333
 20
18.071523
 11
164.92042
 21
18.071523
  0
LINE
  8
_0-1_
  6
CONTINUOUS
 62
    2
 10
166.95214
 20
18.071523
 11
168.05214
 21
18.071523
  0
LINE
  8
_0-1_
  6
CONTINUOUS
 62
    2
 10
139.10798
 20
18.271523
 11
141.41707
 21
18.271523
  0
LINE
  8
_0-1_
  6
CONTINUOUS
 62
    2
 10
144.21042
 20
18.271523
 11
145.51042
 21
18.271523
  0
LINE
  8
_0-1_
  6
CONTINUOUS
 62
    2
 10
147.85577
 20
18.271523
 11
149.51001
 21
18.271523
  0
LINE
  8
_0-1_
  6
CONTINUOUS
 62
    2
 10
150.36999
 20
18.271523
 11
151.66999
 21
18.271523
  0
LINE
  8
_0-1_
  6
CONTINUOUS
 62
    2
 10
154.61817
 20
18.271523
 11
155.91817
 21
18.271523
  0
LINE
  8
_0-1_
  6
CONTINUOUS
 62
    2
 10
156.91817
 20
18.271523
 11
159.37274
 21
18.271523
  0
LINE
  8
_0-1_
  6
CONTINUOUS
 62
    2
 10
162.07338
 20
18.271523
 11
163.37338
 21
18.271523
  0
LINE
  8
_0-1_
  6
CONTINUOUS
 62
    2
 10
163.49835
 20
18.271523
 11
164.79545
 21
18.271523
  0
LINE
  8
_0-1_
  6
CONTINUOUS
 62
    2
 10
166.95214
 20
18.271523
 11
168.05214
 21
18.271523
  0
LINE
  8
_0-1_
  6
CONTINUOUS
 62
    2
 10
139.20124
 20
18.471523
 11
141.32381
 21
18.471523
  0
LINE
  8
_0-1_
  6
CONTINUOUS
 62
    2
 10
144.21042
 20
18.471523
 11
145.51042
 21
18.471523
  0
LINE
  8
_0-1_
  6
CONTINUOUS
 62
    2
 10
147.51042
 20
18.471523
 11
149.41042
 21
18.471523
  0
LINE
  8
_0-1_
  6
CONTINUOUS
 62
    2
 10
150.27673
 20
18.471523
 11
151.57673
 21
18.471523
  0
LINE
  8
_0-1_
  6
CONTINUOUS
 62
    2
 10
154.71143
 20
18.471523
 11
156.01143
 21
18.471523
  0
LINE
  8
_0-1_
  6
CONTINUOUS
 62
    2
 10
157.01143
 20
18.471523
 11
159.27948
 21
18.471523
  0
LINE
  8
_0-1_
  6
CONTINUOUS
 62
    2
 10
162.07338
 20
18.471523
 11
163.37338
 21
18.471523
  0
LINE
  8
_0-1_
  6
CONTINUOUS
 62
    2
 10
163.37338
 20
18.471523
 11
164.67048
 21
18.471523
  0
LINE
  8
_0-1_
  6
CONTINUOUS
 62
    2
 10
166.95214
 20
18.471523
 11
168.05214
 21
18.471523
  0
LINE
  8
_0-1_
  6
CONTINUOUS
 62
    2
 10
139.2945
 20
18.671523
 11
141.23055
 21
18.671523
  0
LINE
  8
_0-1_
  6
CONTINUOUS
 62
    2
 10
144.21042
 20
18.671523
 11
149.25143
 21
18.671523
  0
LINE
  8
_0-1_
  6
CONTINUOUS
 62
    2
 10
150.18346
 20
18.671523
 11
151.48346
 21
18.671523
  0
LINE
  8
_0-1_
  6
CONTINUOUS
 62
    2
 10
154.80469
 20
18.671523
 11
156.10469
 21
18.671523
  0
LINE
  8
_0-1_
  6
CONTINUOUS
 62
    2
 10
157.10469
 20
18.671523
 11
159.18622
 21
18.671523
  0
LINE
  8
_0-1_
  6
CONTINUOUS
 62
    2
 10
162.07338
 20
18.671523
 11
164.5455
 21
18.671523
  0
LINE
  8
_0-1_
  6
CONTINUOUS
 62
    2
 10
166.95214
 20
18.671523
 11
168.05214
 21
18.671523
  0
LINE
  8
_0-1_
  6
CONTINUOUS
 62
    2
 10
139.38776
 20
18.871523
 11
141.13729
 21
18.871523
  0
LINE
  8
_0-1_
  6
CONTINUOUS
 62
    2
 10
144.21042
 20
18.871523
 11
149.027
 21
18.871523
  0
LINE
  8
_0-1_
  6
CONTINUOUS
 62
    2
 10
150.0902
 20
18.871523
 11
151.3902
 21
18.871523
  0
LINE
  8
_0-1_
  6
CONTINUOUS
 62
    2
 10
154.89795
 20
18.871523
 11
156.19795
 21
18.871523
  0
LINE
  8
_0-1_
  6
CONTINUOUS
 62
    2
 10
157.19795
 20
18.871523
 11
159.09296
 21
18.871523
  0
LINE
  8
_0-1_
  6
CONTINUOUS
 62
    2
 10
162.07338
 20
18.871523
 11
164.42053
 21
18.871523
  0
LINE
  8
_0-1_
  6
CONTINUOUS
 62
    2
 10
166.95214
 20
18.871523
 11
168.05214
 21
18.871523
  0
LINE
  8
_0-1_
  6
CONTINUOUS
 62
    2
 10
139.48102
 20
19.071523
 11
141.04403
 21
19.071523
  0
LINE
  8
_0-1_
  6
CONTINUOUS
 62
    2
 10
144.21042
 20
19.071523
 11
148.69322
 21
19.071523
  0
LINE
  8
_0-1_
  6
CONTINUOUS
 62
    2
 10
149.99694
 20
19.071523
 11
151.29694
 21
19.071523
  0
LINE
  8
_0-1_
  6
CONTINUOUS
 62
    2
 10
154.99121
 20
19.071523
 11
156.29121
 21
19.071523
  0
LINE
  8
_0-1_
  6
CONTINUOUS
 62
    2
 10
157.29121
 20
19.071523
 11
158.9997
 21
19.071523
  0
LINE
  8
_0-1_
  6
CONTINUOUS
 62
    2
 10
162.07338
 20
19.071523
 11
164.29556
 21
19.071523
  0
LINE
  8
_0-1_
  6
CONTINUOUS
 62
    2
 10
166.95214
 20
19.071523
 11
168.05214
 21
19.071523
  0
LINE
  8
_0-1_
  6
CONTINUOUS
 62
    2
 10
139.57428
 20
19.271523
 11
140.95077
 21
19.271523
  0
LINE
  8
_0-1_
  6
CONTINUOUS
 62
    2
 10
144.21042
 20
19.271523
 11
148.21042
 21
19.271523
  0
LINE
  8
_0-1_
  6
CONTINUOUS
 62
    2
 10
149.90368
 20
19.271523
 11
151.20368
 21
19.271523
  0
LINE
  8
_0-1_
  6
CONTINUOUS
 62
    2
 10
155.08448
 20
19.271523
 11
156.38448
 21
19.271523
  0
LINE
  8
_0-1_
  6
CONTINUOUS
 62
    2
 10
157.38448
 20
19.271523
 11
158.90643
 21
19.271523
  0
LINE
  8
_0-1_
  6
CONTINUOUS
 62
    2
 10
162.07338
 20
19.271523
 11
164.17058
 21
19.271523
  0
LINE
  8
_0-1_
  6
CONTINUOUS
 62
    2
 10
166.95214
 20
19.271523
 11
168.05214
 21
19.271523
  0
LINE
  8
_0-1_
  6
CONTINUOUS
 62
    2
 10
139.66754
 20
19.471523
 11
140.8575
 21
19.471523
  0
LINE
  8
_0-1_
  6
CONTINUOUS
 62
    2
 10
144.21042
 20
19.471523
 11
147.51042
 21
19.471523
  0
LINE
  8
_0-1_
  6
CONTINUOUS
 62
    2
 10
149.81042
 20
19.471523
 11
151.11042
 21
19.471523
  0
LINE
  8
_0-1_
  6
CONTINUOUS
 62
    2
 10
155.17774
 20
19.471523
 11
156.47774
 21
19.471523
  0
LINE
  8
_0-1_
  6
CONTINUOUS
 62
    2
 10
157.47774
 20
19.471523
 11
158.81317
 21
19.471523
  0
LINE
  8
_0-1_
  6
CONTINUOUS
 62
    2
 10
162.07338
 20
19.471523
 11
164.04561
 21
19.471523
  0
LINE
  8
_0-1_
  6
CONTINUOUS
 62
    2
 10
166.95214
 20
19.471523
 11
168.05214
 21
19.471523
  0
LINE
  8
_0-1_
  6
CONTINUOUS
 62
    2
 10
137.00959
 20
13.771523
 11
138.30959
 21
13.771523
  0
LINE
  8
_0-1_
  6
CONTINUOUS
 62
    2
 10
142.21546
 20
13.771523
 11
143.51546
 21
13.771523
  0
LINE
  8
_0-1_
  6
CONTINUOUS
 62
    2
 10
144.21042
 20
13.771523
 11
147.72114
 21
13.771523
  0
LINE
  8
_0-1_
  6
CONTINUOUS
 62
    2
 10
152.46837
 20
13.771523
 11
153.81978
 21
13.771523
  0
LINE
  8
_0-1_
  6
CONTINUOUS
 62
    2
 10
154.81978
 20
13.771523
 11
156.11978
 21
13.771523
  0
LINE
  8
_0-1_
  6
CONTINUOUS
 62
    2
 10
160.17113
 20
13.771523
 11
161.47113
 21
13.771523
  0
LINE
  8
_0-1_
  6
CONTINUOUS
 62
    2
 10
162.07338
 20
13.771523
 11
163.37338
 21
13.771523
  0
LINE
  8
_0-1_
  6
CONTINUOUS
 62
    2
 10
166.31027
 20
13.771523
 11
168.05214
 21
13.771523
  0
LINE
  8
_0-1_
  6
CONTINUOUS
 62
    2
 10
137.10285
 20
13.971523
 11
138.40285
 21
13.971523
  0
LINE
  8
_0-1_
  6
CONTINUOUS
 62
    2
 10
142.1222
 20
13.971523
 11
143.4222
 21
13.971523
  0
LINE
  8
_0-1_
  6
CONTINUOUS
 62
    2
 10
144.21042
 20
13.971523
 11
148.36298
 21
13.971523
  0
LINE
  8
_0-1_
  6
CONTINUOUS
 62
    2
 10
152.37511
 20
13.971523
 11
153.91305
 21
13.971523
  0
LINE
  8
_0-1_
  6
CONTINUOUS
 62
    2
 10
154.91305
 20
13.971523
 11
156.21305
 21
13.971523
  0
LINE
  8
_0-1_
  6
CONTINUOUS
 62
    2
 10
160.07786
 20
13.971523
 11
161.37786
 21
13.971523
  0
LINE
  8
_0-1_
  6
CONTINUOUS
 62
    2
 10
162.07338
 20
13.971523
 11
163.37338
 21
13.971523
  0
LINE
  8
_0-1_
  6
CONTINUOUS
 62
    2
 10
166.18529
 20
13.971523
 11
168.05214
 21
13.971523
  0
LINE
  8
_0-1_
  6
CONTINUOUS
 62
    2
 10
137.19611
 20
14.171523
 11
138.49611
 21
14.171523
  0
LINE
  8
_0-1_
  6
CONTINUOUS
 62
    2
 10
142.02893
 20
14.171523
 11
143.32893
 21
14.171523
  0
LINE
  8
_0-1_
  6
CONTINUOUS
 62
    2
 10
144.21042
 20
14.171523
 11
148.80179
 21
14.171523
  0
LINE
  8
_0-1_
  6
CONTINUOUS
 62
    2
 10
152.28185
 20
14.171523
 11
154.00631
 21
14.171523
  0
LINE
  8
_0-1_
  6
CONTINUOUS
 62
    2
 10
155.00631
 20
14.171523
 11
156.30631
 21
14.171523
  0
LINE
  8
_0-1_
  6
CONTINUOUS
 62
    2
 10
159.9846
 20
14.171523
 11
161.2846
 21
14.171523
  0
LINE
  8
_0-1_
  6
CONTINUOUS
 62
    2
 10
162.07338
 20
14.171523
 11
163.37338
 21
14.171523
  0
LINE
  8
_0-1_
  6
CONTINUOUS
 62
    2
 10
166.06032
 20
14.171523
 11
168.05214
 21
14.171523
  0
LINE
  8
_0-1_
  6
CONTINUOUS
 62
    2
 10
137.28938
 20
14.371523
 11
138.58938
 21
14.371523
  0
LINE
  8
_0-1_
  6
CONTINUOUS
 62
    2
 10
141.93567
 20
14.371523
 11
143.23567
 21
14.371523
  0
LINE
  8
_0-1_
  6
CONTINUOUS
 62
    2
 10
144.21042
 20
14.371523
 11
149.09608
 21
14.371523
  0
LINE
  8
_0-1_
  6
CONTINUOUS
 62
    2
 10
152.18859
 20
14.371523
 11
154.09957
 21
14.371523
  0
LINE
  8
_0-1_
  6
CONTINUOUS
 62
    2
 10
155.09957
 20
14.371523
 11
156.39957
 21
14.371523
  0
LINE
  8
_0-1_
  6
CONTINUOUS
 62
    2
 10
159.89134
 20
14.371523
 11
161.19134
 21
14.371523
  0
LINE
  8
_0-1_
  6
CONTINUOUS
 62
    2
 10
162.07338
 20
14.371523
 11
163.37338
 21
14.371523
  0
LINE
  8
_0-1_
  6
CONTINUOUS
 62
    2
 10
165.93535
 20
14.371523
 11
168.05214
 21
14.371523
  0
LINE
  8
_0-1_
  6
CONTINUOUS
 62
    2
 10
137.38264
 20
14.571523
 11
138.68264
 21
14.571523
  0
LINE
  8
_0-1_
  6
CONTINUOUS
 62
    2
 10
141.84241
 20
14.571523
 11
143.14241
 21
14.571523
  0
LINE
  8
_0-1_
  6
CONTINUOUS
 62
    2
 10
144.21042
 20
14.571523
 11
149.30232
 21
14.571523
  0
LINE
  8
_0-1_
  6
CONTINUOUS
 62
    2
 10
152.09533
 20
14.571523
 11
154.19283
 21
14.571523
  0
LINE
  8
_0-1_
  6
CONTINUOUS
 62
    2
 10
155.19283
 20
14.571523
 11
156.49283
 21
14.571523
  0
LINE
  8
_0-1_
  6
CONTINUOUS
 62
    2
 10
159.79808
 20
14.571523
 11
161.09808
 21
14.571523
  0
LINE
  8
_0-1_
  6
CONTINUOUS
 62
    2
 10
162.07338
 20
14.571523
 11
163.37338
 21
14.571523
  0
LINE
  8
_0-1_
  6
CONTINUOUS
 62
    2
 10
165.81037
 20
14.571523
 11
168.05214
 21
14.571523
  0
LINE
  8
_0-1_
  6
CONTINUOUS
 62
    2
 10
137.4759
 20
14.771523
 11
138.7759
 21
14.771523
  0
LINE
  8
_0-1_
  6
CONTINUOUS
 62
    2
 10
141.74915
 20
14.771523
 11
143.04915
 21
14.771523
  0
LINE
  8
_0-1_
  6
CONTINUOUS
 62
    2
 10
144.21042
 20
14.771523
 11
145.51042
 21
14.771523
  0
LINE
  8
_0-1_
  6
CONTINUOUS
 62
    2
 10
147.61026
 20
14.771523
 11
149.4416
 21
14.771523
  0
LINE
  8
_0-1_
  6
CONTINUOUS
 62
    2
 10
152.00206
 20
14.771523
 11
154.28609
 21
14.771523
  0
LINE
  8
_0-1_
  6
CONTINUOUS
 62
    2
 10
155.28609
 20
14.771523
 11
156.58609
 21
14.771523
  0
LINE
  8
_0-1_
  6
CONTINUOUS
 62
    2
 10
159.70482
 20
14.771523
 11
161.00482
 21
14.771523
  0
LINE
  8
_0-1_
  6
CONTINUOUS
 62
    2
 10
162.07338
 20
14.771523
 11
163.37338
 21
14.771523
  0
LINE
  8
_0-1_
  6
CONTINUOUS
 62
    2
 10
165.6854
 20
14.771523
 11
168.05214
 21
14.771523
  0
LINE
  8
_0-1_
  6
CONTINUOUS
 62
    2
 10
137.56916
 20
14.971523
 11
138.86916
 21
14.971523
  0
LINE
  8
_0-1_
  6
CONTINUOUS
 62
    2
 10
141.65589
 20
14.971523
 11
142.95589
 21
14.971523
  0
LINE
  8
_0-1_
  6
CONTINUOUS
 62
    2
 10
144.21042
 20
14.971523
 11
145.51042
 21
14.971523
  0
LINE
  8
_0-1_
  6
CONTINUOUS
 62
    2
 10
147.9381
 20
14.971523
 11
149.53117
 21
14.971523
  0
LINE
  8
_0-1_
  6
CONTINUOUS
 62
    2
 10
151.9088
 20
14.971523
 11
154.37935
 21
14.971523
  0
LINE
  8
_0-1_
  6
CONTINUOUS
 62
    2
 10
155.37935
 20
14.971523
 11
156.67935
 21
14.971523
  0
LINE
  8
_0-1_
  6
CONTINUOUS
 62
    2
 10
159.61156
 20
14.971523
 11
160.91156
 21
14.971523
  0
LINE
  8
_0-1_
  6
CONTINUOUS
 62
    2
 10
162.07338
 20
14.971523
 11
163.37338
 21
14.971523
  0
LINE
  8
_0-1_
  6
CONTINUOUS
 62
    2
 10
165.56042
 20
14.971523
 11
166.85752
 21
14.971523
  0
LINE
  8
_0-1_
  6
CONTINUOUS
 62
    2
 10
166.95214
 20
14.971523
 11
168.05214
 21
14.971523
  0
LINE
  8
_0-1_
  6
CONTINUOUS
 62
    2
 10
137.66242
 20
15.171523
 11
142.86263
 21
15.171523
  0
LINE
  8
_0-1_
  6
CONTINUOUS
 62
    2
 10
144.21042
 20
15.171523
 11
145.51042
 21
15.171523
  0
LINE
  8
_0-1_
  6
CONTINUOUS
 62
    2
 10
148.17113
 20
15.171523
 11
149.59743
 21
15.171523
  0
LINE
  8
_0-1_
  6
CONTINUOUS
 62
    2
 10
151.81554
 20
15.171523
 11
153.11554
 21
15.171523
  0
LINE
  8
_0-1_
  6
CONTINUOUS
 62
    2
 10
153.17262
 20
15.171523
 11
154.47262
 21
15.171523
  0
LINE
  8
_0-1_
  6
CONTINUOUS
 62
    2
 10
155.47262
 20
15.171523
 11
160.81829
 21
15.171523
  0
LINE
  8
_0-1_
  6
CONTINUOUS
 62
    2
 10
162.07338
 20
15.171523
 11
163.37338
 21
15.171523
  0
LINE
  8
_0-1_
  6
CONTINUOUS
 62
    2
 10
165.43545
 20
15.171523
 11
166.73255
 21
15.171523
  0
LINE
  8
_0-1_
  6
CONTINUOUS
 62
    2
 10
166.95214
 20
15.171523
 11
168.05214
 21
15.171523
  0
LINE
  8
_0-1_
  6
CONTINUOUS
 62
    2
 10
137.75568
 20
15.371523
 11
142.76937
 21
15.371523
  0
LINE
  8
_0-1_
  6
CONTINUOUS
 62
    2
 10
144.21042
 20
15.371523
 11
145.51042
 21
15.371523
  0
LINE
  8
_0-1_
  6
CONTINUOUS
 62
    2
 10
148.30871
 20
15.371523
 11
149.65161
 21
15.371523
  0
LINE
  8
_0-1_
  6
CONTINUOUS
 62
    2
 10
151.72228
 20
15.371523
 11
153.02228
 21
15.371523
  0
LINE
  8
_0-1_
  6
CONTINUOUS
 62
    2
 10
153.26588
 20
15.371523
 11
154.56588
 21
15.371523
  0
LINE
  8
_0-1_
  6
CONTINUOUS
 62
    2
 10
155.56588
 20
15.371523
 11
160.72503
 21
15.371523
  0
LINE
  8
_0-1_
  6
CONTINUOUS
 62
    2
 10
162.07338
 20
15.371523
 11
163.37338
 21
15.371523
  0
LINE
  8
_0-1_
  6
CONTINUOUS
 62
    2
 10
165.31048
 20
15.371523
 11
166.60757
 21
15.371523
  0
LINE
  8
_0-1_
  6
CONTINUOUS
 62
    2
 10
166.95214
 20
15.371523
 11
168.05214
 21
15.371523
  0
LINE
  8
_0-1_
  6
CONTINUOUS
 62
    2
 10
137.84894
 20
15.571523
 11
142.6761
 21
15.571523
  0
LINE
  8
_0-1_
  6
CONTINUOUS
 62
    2
 10
144.21042
 20
15.571523
 11
145.51042
 21
15.571523
  0
LINE
  8
_0-1_
  6
CONTINUOUS
 62
    2
 10
148.39567
 20
15.571523
 11
149.69881
 21
15.571523
  0
LINE
  8
_0-1_
  6
CONTINUOUS
 62
    2
 10
151.62902
 20
15.571523
 11
152.92902
 21
15.571523
  0
LINE
  8
_0-1_
  6
CONTINUOUS
 62
    2
 10
153.35914
 20
15.571523
 11
154.65914
 21
15.571523
  0
LINE
  8
_0-1_
  6
CONTINUOUS
 62
    2
 10
155.65914
 20
15.571523
 11
160.63177
 21
15.571523
  0
LINE
  8
_0-1_
  6
CONTINUOUS
 62
    2
 10
162.07338
 20
15.571523
 11
163.37338
 21
15.571523
  0
LINE
  8
_0-1_
  6
CONTINUOUS
 62
    2
 10
165.1855
 20
15.571523
 11
166.4826
 21
15.571523
  0
LINE
  8
_0-1_
  6
CONTINUOUS
 62
    2
 10
166.95214
 20
15.571523
 11
168.05214
 21
15.571523
  0
LINE
  8
_0-1_
  6
CONTINUOUS
 62
    2
 10
137.94221
 20
15.771523
 11
142.58284
 21
15.771523
  0
LINE
  8
_0-1_
  6
CONTINUOUS
 62
    2
 10
144.21042
 20
15.771523
 11
145.51042
 21
15.771523
  0
LINE
  8
_0-1_
  6
CONTINUOUS
 62
    2
 10
148.44993
 20
15.771523
 11
149.73736
 21
15.771523
  0
LINE
  8
_0-1_
  6
CONTINUOUS
 62
    2
 10
151.53576
 20
15.771523
 11
152.83576
 21
15.771523
  0
LINE
  8
_0-1_
  6
CONTINUOUS
 62
    2
 10
153.4524
 20
15.771523
 11
154.7524
 21
15.771523
  0
LINE
  8
_0-1_
  6
CONTINUOUS
 62
    2
 10
155.7524
 20
15.771523
 11
160.53851
 21
15.771523
  0
LINE
  8
_0-1_
  6
CONTINUOUS
 62
    2
 10
162.07338
 20
15.771523
 11
163.37338
 21
15.771523
  0
LINE
  8
_0-1_
  6
CONTINUOUS
 62
    2
 10
165.06053
 20
15.771523
 11
166.35762
 21
15.771523
  0
LINE
  8
_0-1_
  6
CONTINUOUS
 62
    2
 10
166.95214
 20
15.771523
 11
168.05214
 21
15.771523
  0
LINE
  8
_0-1_
  6
CONTINUOUS
 62
    2
 10
138.03547
 20
15.971523
 11
142.48958
 21
15.971523
  0
LINE
  8
_0-1_
  6
CONTINUOUS
 62
    2
 10
144.21042
 20
15.971523
 11
145.51042
 21
15.971523
  0
LINE
  8
_0-1_
  6
CONTINUOUS
 62
    2
 10
148.48291
 20
15.971523
 11
149.76768
 21
15.971523
  0
LINE
  8
_0-1_
  6
CONTINUOUS
 62
    2
 10
151.44249
 20
15.971523
 11
152.74249
 21
15.971523
  0
LINE
  8
_0-1_
  6
CONTINUOUS
 62
    2
 10
153.54566
 20
15.971523
 11
154.84566
 21
15.971523
  0
LINE
  8
_0-1_
  6
CONTINUOUS
 62
    2
 10
155.84566
 20
15.971523
 11
160.44525
 21
15.971523
  0
LINE
  8
_0-1_
  6
CONTINUOUS
 62
    2
 10
162.07338
 20
15.971523
 11
163.37338
 21
15.971523
  0
LINE
  8
_0-1_
  6
CONTINUOUS
 62
    2
 10
164.93555
 20
15.971523
 11
166.23265
 21
15.971523
  0
LINE
  8
_0-1_
  6
CONTINUOUS
 62
    2
 10
166.95214
 20
15.971523
 11
168.05214
 21
15.971523
  0
LINE
  8
_0-1_
  6
CONTINUOUS
 62
    2
 10
138.12873
 20
16.171523
 11
139.42873
 21
16.171523
  0
LINE
  8
_0-1_
  6
CONTINUOUS
 62
    2
 10
141.09632
 20
16.171523
 11
142.39632
 21
16.171523
  0
LINE
  8
_0-1_
  6
CONTINUOUS
 62
    2
 10
144.21042
 20
16.171523
 11
145.51042
 21
16.171523
  0
LINE
  8
_0-1_
  6
CONTINUOUS
 62
    2
 10
148.49982
 20
16.171523
 11
149.78983
 21
16.171523
  0
LINE
  8
_0-1_
  6
CONTINUOUS
 62
    2
 10
151.34923
 20
16.171523
 11
152.64923
 21
16.171523
  0
LINE
  8
_0-1_
  6
CONTINUOUS
 62
    2
 10
153.63892
 20
16.171523
 11
154.93892
 21
16.171523
  0
LINE
  8
_0-1_
  6
CONTINUOUS
 62
    2
 10
155.93892
 20
16.171523
 11
157.23892
 21
16.171523
  0
LINE
  8
_0-1_
  6
CONTINUOUS
 62
    2
 10
159.05199
 20
16.171523
 11
160.35199
 21
16.171523
  0
LINE
  8
_0-1_
  6
CONTINUOUS
 62
    2
 10
162.07338
 20
16.171523
 11
163.37338
 21
16.171523
  0
LINE
  8
_0-1_
  6
CONTINUOUS
 62
    2
 10
164.81058
 20
16.171523
 11
166.10768
 21
16.171523
  0
LINE
  8
_0-1_
  6
CONTINUOUS
 62
    2
 10
166.95214
 20
16.171523
 11
168.05214
 21
16.171523
  0
LINE
  8
_0-1_
  6
CONTINUOUS
 62
    2
 10
138.22199
 20
16.371523
 11
139.52199
 21
16.371523
  0
LINE
  8
_0-1_
  6
CONTINUOUS
 62
    2
 10
141.00306
 20
16.371523
 11
142.30306
 21
16.371523
  0
LINE
  8
_0-1_
  6
CONTINUOUS
 62
    2
 10
144.21042
 20
16.371523
 11
145.51042
 21
16.371523
  0
LINE
  8
_0-1_
  6
CONTINUOUS
 62
    2
 10
148.50734
 20
16.371523
 11
149.80365
 21
16.371523
  0
LINE
  8
_0-1_
  6
CONTINUOUS
 62
    2
 10
151.25597
 20
16.371523
 11
152.55597
 21
16.371523
  0
LINE
  8
_0-1_
  6
CONTINUOUS
 62
    2
 10
153.73218
 20
16.371523
 11
155.03218
 21
16.371523
  0
LINE
  8
_0-1_
  6
CONTINUOUS
 62
    2
 10
156.03218
 20
16.371523
 11
157.33218
 21
16.371523
  0
LINE
  8
_0-1_
  6
CONTINUOUS
 62
    2
 10
158.95873
 20
16.371523
 11
160.25873
 21
16.371523
  0
LINE
  8
_0-1_
  6
CONTINUOUS
 62
    2
 10
162.07338
 20
16.371523
 11
163.37338
 21
16.371523
  0
LINE
  8
_0-1_
  6
CONTINUOUS
 62
    2
 10
164.68561
 20
16.371523
 11
165.9827
 21
16.371523
  0
LINE
  8
_0-1_
  6
CONTINUOUS
 62
    2
 10
166.95214
 20
16.371523
 11
168.05214
 21
16.371523
  0
LINE
  8
_0-1_
  6
CONTINUOUS
 62
    2
 10
138.31525
 20
16.571523
 11
139.61525
 21
16.571523
  0
LINE
  8
_0-1_
  6
CONTINUOUS
 62
    2
 10
140.9098
 20
16.571523
 11
142.2098
 21
16.571523
  0
LINE
  8
_0-1_
  6
CONTINUOUS
 62
    2
 10
144.21042
 20
16.571523
 11
145.51042
 21
16.571523
  0
LINE
  8
_0-1_
  6
CONTINUOUS
 62
    2
 10
148.5103
 20
16.571523
 11
149.81009
 21
16.571523
  0
LINE
  8
_0-1_
  6
CONTINUOUS
 62
    2
 10
151.16271
 20
16.571523
 11
152.46271
 21
16.571523
  0
LINE
  8
_0-1_
  6
CONTINUOUS
 62
    2
 10
153.82545
 20
16.571523
 11
155.12545
 21
16.571523
  0
LINE
  8
_0-1_
  6
CONTINUOUS
 62
    2
 10
156.12545
 20
16.571523
 11
157.42545
 21
16.571523
  0
LINE
  8
_0-1_
  6
CONTINUOUS
 62
    2
 10
158.86546
 20
16.571523
 11
160.16546
 21
16.571523
  0
LINE
  8
_0-1_
  6
CONTINUOUS
 62
    2
 10
162.07338
 20
16.571523
 11
163.37338
 21
16.571523
  0
LINE
  8
_0-1_
  6
CONTINUOUS
 62
    2
 10
164.56063
 20
16.571523
 11
165.85773
 21
16.571523
  0
LINE
  8
_0-1_
  6
CONTINUOUS
 62
    2
 10
166.95214
 20
16.571523
 11
168.05214
 21
16.571523
  0
LINE
  8
_0-1_
  6
CONTINUOUS
 62
    2
 10
138.40851
 20
16.771523
 11
139.70851
 21
16.771523
  0
LINE
  8
_0-1_
  6
CONTINUOUS
 62
    2
 10
140.81654
 20
16.771523
 11
142.11654
 21
16.771523
  0
LINE
  8
_0-1_
  6
CONTINUOUS
 62
    2
 10
144.21042
 20
16.771523
 11
145.51042
 21
16.771523
  0
LINE
  8
_0-1_
  6
CONTINUOUS
 62
    2
 10
148.50869
 20
16.771523
 11
149.80603
 21
16.771523
  0
LINE
  8
_0-1_
  6
CONTINUOUS
 62
    2
 10
151.06945
 20
16.771523
 11
152.36945
 21
16.771523
  0
LINE
  8
_0-1_
  6
CONTINUOUS
 62
    2
 10
153.91871
 20
16.771523
 11
155.21871
 21
16.771523
  0
LINE
  8
_0-1_
  6
CONTINUOUS
 62
    2
 10
156.21871
 20
16.771523
 11
157.51871
 21
16.771523
  0
LINE
  8
_0-1_
  6
CONTINUOUS
 62
    2
 10
158.7722
 20
16.771523
 11
160.0722
 21
16.771523
  0
LINE
  8
_0-1_
  6
CONTINUOUS
 62
    2
 10
162.07338
 20
16.771523
 11
163.37338
 21
16.771523
  0
LINE
  8
_0-1_
  6
CONTINUOUS
 62
    2
 10
164.43566
 20
16.771523
 11
165.73275
 21
16.771523
  0
LINE
  8
_0-1_
  6
CONTINUOUS
 62
    2
 10
166.95214
 20
16.771523
 11
168.05214
 21
16.771523
  0
LINE
  8
_0-1_
  6
CONTINUOUS
 62
    2
 10
138.50178
 20
16.971523
 11
139.80178
 21
16.971523
  0
LINE
  8
_0-1_
  6
CONTINUOUS
 62
    2
 10
140.72327
 20
16.971523
 11
142.02327
 21
16.971523
  0
LINE
  8
_0-1_
  6
CONTINUOUS
 62
    2
 10
144.21042
 20
16.971523
 11
145.51042
 21
16.971523
  0
LINE
  8
_0-1_
  6
CONTINUOUS
 62
    2
 10
148.50267
 20
16.971523
 11
149.79435
 21
16.971523
  0
LINE
  8
_0-1_
  6
CONTINUOUS
 62
    2
 10
150.97619
 20
16.971523
 11
152.27619
 21
16.971523
  0
LINE
  8
_0-1_
  6
CONTINUOUS
 62
    2
 10
154.01197
 20
16.971523
 11
155.31197
 21
16.971523
  0
LINE
  8
_0-1_
  6
CONTINUOUS
 62
    2
 10
156.31197
 20
16.971523
 11
157.61197
 21
16.971523
  0
LINE
  8
_0-1_
  6
CONTINUOUS
 62
    2
 10
158.67894
 20
16.971523
 11
159.97894
 21
16.971523
  0
LINE
  8
_0-1_
  6
CONTINUOUS
 62
    2
 10
162.07338
 20
16.971523
 11
163.37338
 21
16.971523
  0
LINE
  8
_0-1_
  6
CONTINUOUS
 62
    2
 10
164.31068
 20
16.971523
 11
165.60778
 21
16.971523
  0
LINE
  8
_0-1_
  6
CONTINUOUS
 62
    2
 10
166.95214
 20
16.971523
 11
168.05214
 21
16.971523
  0
LINE
  8
_0-1_
  6
CONTINUOUS
 62
    2
 10
138.59504
 20
17.171523
 11
139.89504
 21
17.171523
  0
LINE
  8
_0-1_
  6
CONTINUOUS
 62
    2
 10
140.63001
 20
17.171523
 11
141.93001
 21
17.171523
  0
LINE
  8
_0-1_
  6
CONTINUOUS
 62
    2
 10
144.21042
 20
17.171523
 11
145.51042
 21
17.171523
  0
LINE
  8
_0-1_
  6
CONTINUOUS
 62
    2
 10
148.4867
 20
17.171523
 11
149.77417
 21
17.171523
  0
LINE
  8
_0-1_
  6
CONTINUOUS
 62
    2
 10
150.88293
 20
17.171523
 11
152.18293
 21
17.171523
  0
LINE
  8
_0-1_
  6
CONTINUOUS
 62
    2
 10
154.10523
 20
17.171523
 11
155.40523
 21
17.171523
  0
LINE
  8
_0-1_
  6
CONTINUOUS
 62
    2
 10
156.40523
 20
17.171523
 11
157.70523
 21
17.171523
  0
LINE
  8
_0-1_
  6
CONTINUOUS
 62
    2
 10
158.58568
 20
17.171523
 11
159.88568
 21
17.171523
  0
LINE
  8
_0-1_
  6
CONTINUOUS
 62
    2
 10
162.07338
 20
17.171523
 11
163.37338
 21
17.171523
  0
LINE
  8
_0-1_
  6
CONTINUOUS
 62
    2
 10
164.18571
 20
17.171523
 11
165.48281
 21
17.171523
  0
LINE
  8
_0-1_
  6
CONTINUOUS
 62
    2
 10
166.95214
 20
17.171523
 11
168.05214
 21
17.171523
  0
LINE
  8
_0-1_
  6
CONTINUOUS
 62
    2
 10
138.6883
 20
17.371523
 11
139.9883
 21
17.371523
  0
LINE
  8
_0-1_
  6
CONTINUOUS
 62
    2
 10
140.53675
 20
17.371523
 11
141.83675
 21
17.371523
  0
LINE
  8
_0-1_
  6
CONTINUOUS
 62
    2
 10
144.21042
 20
17.371523
 11
145.51042
 21
17.371523
  0
LINE
  8
_0-1_
  6
CONTINUOUS
 62
    2
 10
148.45761
 20
17.371523
 11
149.74481
 21
17.371523
  0
LINE
  8
_0-1_
  6
CONTINUOUS
 62
    2
 10
150.78966
 20
17.371523
 11
152.08966
 21
17.371523
  0
LINE
  8
_0-1_
  6
CONTINUOUS
 62
    2
 10
154.19849
 20
17.371523
 11
155.49849
 21
17.371523
  0
LINE
  8
_0-1_
  6
CONTINUOUS
 62
    2
 10
156.49849
 20
17.371523
 11
157.79849
 21
17.371523
  0
LINE
  8
_0-1_
  6
CONTINUOUS
 62
    2
 10
158.49242
 20
17.371523
 11
159.79242
 21
17.371523
  0
LINE
  8
_0-1_
  6
CONTINUOUS
 62
    2
 10
162.07338
 20
17.371523
 11
163.37338
 21
17.371523
  0
LINE
  8
_0-1_
  6
CONTINUOUS
 62
    2
 10
164.06074
 20
17.371523
 11
165.35783
 21
17.371523
  0
LINE
  8
_0-1_
  6
CONTINUOUS
 62
    2
 10
166.95214
 20
17.371523
 11
168.05214
 21
17.371523
  0
LINE
  8
_0-1_
  6
CONTINUOUS
 62
    2
 10
138.78156
 20
17.571523
 11
140.08156
 21
17.571523
  0
LINE
  8
_0-1_
  6
CONTINUOUS
 62
    2
 10
140.44349
 20
17.571523
 11
141.74349
 21
17.571523
  0
LINE
  8
_0-1_
  6
CONTINUOUS
 62
    2
 10
144.21042
 20
17.571523
 11
145.51042
 21
17.571523
  0
LINE
  8
_0-1_
  6
CONTINUOUS
 62
    2
 10
148.40914
 20
17.571523
 11
149.70746
 21
17.571523
  0
LINE
  8
_0-1_
  6
CONTINUOUS
 62
    2
 10
150.6964
 20
17.571523
 11
151.9964
 21
17.571523
  0
LINE
  8
_0-1_
  6
CONTINUOUS
 62
    2
 10
154.29175
 20
17.571523
 11
155.59175
 21
17.571523
  0
LINE
  8
_0-1_
  6
CONTINUOUS
 62
    2
 10
156.59175
 20
17.571523
 11
157.89175
 21
17.571523
  0
LINE
  8
_0-1_
  6
CONTINUOUS
 62
    2
 10
158.39916
 20
17.571523
 11
159.69916
 21
17.571523
  0
LINE
  8
_0-1_
  6
CONTINUOUS
 62
    2
 10
162.07338
 20
17.571523
 11
163.37338
 21
17.571523
  0
LINE
  8
_0-1_
  6
CONTINUOUS
 62
    2
 10
163.93576
 20
17.571523
 11
165.23286
 21
17.571523
  0
LINE
  8
_0-1_
  6
CONTINUOUS
 62
    2
 10
166.95214
 20
17.571523
 11
168.05214
 21
17.571523
  0
LINE
  8
_0-1_
  6
CONTINUOUS
 62
    2
 10
138.87482
 20
17.771523
 11
140.17482
 21
17.771523
  0
LINE
  8
_0-1_
  6
CONTINUOUS
 62
    2
 10
140.35023
 20
17.771523
 11
141.65023
 21
17.771523
  0
LINE
  8
_0-1_
  6
CONTINUOUS
 62
    2
 10
144.21042
 20
17.771523
 11
145.51042
 21
17.771523
  0
LINE
  8
_0-1_
  6
CONTINUOUS
 62
    2
 10
148.33077
 20
17.771523
 11
149.66225
 21
17.771523
  0
LINE
  8
_0-1_
  6
CONTINUOUS
 62
    2
 10
150.60314
 20
17.771523
 11
151.90314
 21
17.771523
  0
LINE
  8
_0-1_
  6
CONTINUOUS
 62
    2
 10
154.38502
 20
17.771523
 11
155.68502
 21
17.771523
  0
LINE
  8
_0-1_
  6
CONTINUOUS
 62
    2
 10
156.68502
 20
17.771523
 11
157.98502
 21
17.771523
  0
LINE
  8
_0-1_
  6
CONTINUOUS
 62
    2
 10
158.3059
 20
17.771523
 11
159.6059
 21
17.771523
  0
LINE
  8
_0-1_
  6
CONTINUOUS
 62
    2
 10
162.07338
 20
17.771523
 11
163.37338
 21
17.771523
  0
LINE
  8
_0-1_
  6
CONTINUOUS
 62
    2
 10
163.81079
 20
17.771523
 11
165.10789
 21
17.771523
  0
LINE
  8
_0-1_
  6
CONTINUOUS
 62
    2
 10
166.95214
 20
17.771523
 11
168.05214
 21
17.771523
  0
LINE
  8
_0-1_
  6
CONTINUOUS
 62
    2
 10
138.96808
 20
17.971523
 11
141.55697
 21
17.971523
  0
LINE
  8
_0-1_
  6
CONTINUOUS
 62
    2
 10
144.21042
 20
17.971523
 11
145.51042
 21
17.971523
  0
LINE
  8
_0-1_
  6
CONTINUOUS
 62
    2
 10
148.21042
 20
17.971523
 11
149.61042
 21
17.971523
  0
LINE
  8
_0-1_
  6
CONTINUOUS
 62
    2
 10
150.50988
 20
17.971523
 11
151.80988
 21
17.971523
  0
LINE
  8
_0-1_
  6
CONTINUOUS
 62
    2
 10
154.47828
 20
17.971523
 11
155.77828
 21
17.971523
  0
LINE
  8
_0-1_
  6
CONTINUOUS
 62
    2
 10
156.77828
 20
17.971523
 11
158.07828
 21
17.971523
  0
LINE
  8
_0-1_
  6
CONTINUOUS
 62
    2
 10
158.21263
 20
17.971523
 11
159.51263
 21
17.971523
  0
LINE
  8
_0-1_
  6
CONTINUOUS
 62
    2
 10
162.07338
 20
17.971523
 11
163.37338
 21
17.971523
  0
LINE
  8
_0-1_
  6
CONTINUOUS
 62
    2
 10
163.68582
 20
17.971523
 11
164.98291
 21
17.971523
  0
LINE
  8
_0-1_
  6
CONTINUOUS
 62
    2
 10
166.95214
 20
17.971523
 11
168.05214
 21
17.971523
  0
LINE
  8
_0-1_
  6
CONTINUOUS
 62
    2
 10
139.06134
 20
18.171523
 11
141.4637
 21
18.171523
  0
LINE
  8
_0-1_
  6
CONTINUOUS
 62
    2
 10
144.21042
 20
18.171523
 11
145.51042
 21
18.171523
  0
LINE
  8
_0-1_
  6
CONTINUOUS
 62
    2
 10
147.99797
 20
18.171523
 11
149.54762
 21
18.171523
  0
LINE
  8
_0-1_
  6
CONTINUOUS
 62
    2
 10
150.41662
 20
18.171523
 11
151.71662
 21
18.171523
  0
LINE
  8
_0-1_
  6
CONTINUOUS
 62
    2
 10
154.57154
 20
18.171523
 11
155.87154
 21
18.171523
  0
LINE
  8
_0-1_
  6
CONTINUOUS
 62
    2
 10
156.87154
 20
18.171523
 11
159.41937
 21
18.171523
  0
LINE
  8
_0-1_
  6
CONTINUOUS
 62
    2
 10
162.07338
 20
18.171523
 11
163.37338
 21
18.171523
  0
LINE
  8
_0-1_
  6
CONTINUOUS
 62
    2
 10
163.56084
 20
18.171523
 11
164.85794
 21
18.171523
  0
LINE
  8
_0-1_
  6
CONTINUOUS
 62
    2
 10
166.95214
 20
18.171523
 11
168.05214
 21
18.171523
  0
LINE
  8
_0-1_
  6
CONTINUOUS
 62
    2
 10
139.15461
 20
18.371523
 11
141.37044
 21
18.371523
  0
LINE
  8
_0-1_
  6
CONTINUOUS
 62
    2
 10
144.21042
 20
18.371523
 11
145.51042
 21
18.371523
  0
LINE
  8
_0-1_
  6
CONTINUOUS
 62
    2
 10
147.69008
 20
18.371523
 11
149.46455
 21
18.371523
  0
LINE
  8
_0-1_
  6
CONTINUOUS
 62
    2
 10
150.32336
 20
18.371523
 11
151.62336
 21
18.371523
  0
LINE
  8
_0-1_
  6
CONTINUOUS
 62
    2
 10
154.6648
 20
18.371523
 11
155.9648
 21
18.371523
  0
LINE
  8
_0-1_
  6
CONTINUOUS
 62
    2
 10
156.9648
 20
18.371523
 11
159.32611
 21
18.371523
  0
LINE
  8
_0-1_
  6
CONTINUOUS
 62
    2
 10
162.07338
 20
18.371523
 11
163.37338
 21
18.371523
  0
LINE
  8
_0-1_
  6
CONTINUOUS
 62
    2
 10
163.43587
 20
18.371523
 11
164.73296
 21
18.371523
  0
LINE
  8
_0-1_
  6
CONTINUOUS
 62
    2
 10
166.95214
 20
18.371523
 11
168.05214
 21
18.371523
  0
LINE
  8
_0-1_
  6
CONTINUOUS
 62
    2
 10
139.24787
 20
18.571523
 11
141.27718
 21
18.571523
  0
LINE
  8
_0-1_
  6
CONTINUOUS
 62
    2
 10
144.21042
 20
18.571523
 11
149.34147
 21
18.571523
  0
LINE
  8
_0-1_
  6
CONTINUOUS
 62
    2
 10
150.23009
 20
18.571523
 11
151.53009
 21
18.571523
  0
LINE
  8
_0-1_
  6
CONTINUOUS
 62
    2
 10
154.75806
 20
18.571523
 11
156.05806
 21
18.571523
  0
LINE
  8
_0-1_
  6
CONTINUOUS
 62
    2
 10
157.05806
 20
18.571523
 11
159.23285
 21
18.571523
  0
LINE
  8
_0-1_
  6
CONTINUOUS
 62
    2
 10
162.07338
 20
18.571523
 11
164.60799
 21
18.571523
  0
LINE
  8
_0-1_
  6
CONTINUOUS
 62
    2
 10
166.95214
 20
18.571523
 11
168.05214
 21
18.571523
  0
LINE
  8
_0-1_
  6
CONTINUOUS
 62
    2
 10
139.34113
 20
18.771523
 11
141.18392
 21
18.771523
  0
LINE
  8
_0-1_
  6
CONTINUOUS
 62
    2
 10
144.21042
 20
18.771523
 11
149.15231
 21
18.771523
  0
LINE
  8
_0-1_
  6
CONTINUOUS
 62
    2
 10
150.13683
 20
18.771523
 11
151.43683
 21
18.771523
  0
LINE
  8
_0-1_
  6
CONTINUOUS
 62
    2
 10
154.85132
 20
18.771523
 11
156.15132
 21
18.771523
  0
LINE
  8
_0-1_
  6
CONTINUOUS
 62
    2
 10
157.15132
 20
18.771523
 11
159.13959
 21
18.771523
  0
LINE
  8
_0-1_
  6
CONTINUOUS
 62
    2
 10
162.07338
 20
18.771523
 11
164.48302
 21
18.771523
  0
LINE
  8
_0-1_
  6
CONTINUOUS
 62
    2
 10
166.95214
 20
18.771523
 11
168.05214
 21
18.771523
  0
LINE
  8
_0-1_
  6
CONTINUOUS
 62
    2
 10
139.43439
 20
18.971523
 11
141.09066
 21
18.971523
  0
LINE
  8
_0-1_
  6
CONTINUOUS
 62
    2
 10
144.21042
 20
18.971523
 11
148.87455
 21
18.971523
  0
LINE
  8
_0-1_
  6
CONTINUOUS
 62
    2
 10
150.04357
 20
18.971523
 11
151.34357
 21
18.971523
  0
LINE
  8
_0-1_
  6
CONTINUOUS
 62
    2
 10
154.94458
 20
18.971523
 11
156.24458
 21
18.971523
  0
LINE
  8
_0-1_
  6
CONTINUOUS
 62
    2
 10
157.24458
 20
18.971523
 11
159.04633
 21
18.971523
  0
LINE
  8
_0-1_
  6
CONTINUOUS
 62
    2
 10
162.07338
 20
18.971523
 11
164.35804
 21
18.971523
  0
LINE
  8
_0-1_
  6
CONTINUOUS
 62
    2
 10
166.95214
 20
18.971523
 11
168.05214
 21
18.971523
  0
LINE
  8
_0-1_
  6
CONTINUOUS
 62
    2
 10
139.52765
 20
19.171523
 11
140.9974
 21
19.171523
  0
LINE
  8
_0-1_
  6
CONTINUOUS
 62
    2
 10
144.21042
 20
19.171523
 11
148.47348
 21
19.171523
  0
LINE
  8
_0-1_
  6
CONTINUOUS
 62
    2
 10
149.95031
 20
19.171523
 11
151.25031
 21
19.171523
  0
LINE
  8
_0-1_
  6
CONTINUOUS
 62
    2
 10
155.03785
 20
19.171523
 11
156.33785
 21
19.171523
  0
LINE
  8
_0-1_
  6
CONTINUOUS
 62
    2
 10
157.33785
 20
19.171523
 11
158.95306
 21
19.171523
  0
LINE
  8
_0-1_
  6
CONTINUOUS
 62
    2
 10
162.07338
 20
19.171523
 11
164.23307
 21
19.171523
  0
LINE
  8
_0-1_
  6
CONTINUOUS
 62
    2
 10
166.95214
 20
19.171523
 11
168.05214
 21
19.171523
  0
LINE
  8
_0-1_
  6
CONTINUOUS
 62
    2
 10
139.62091
 20
19.371523
 11
140.90414
 21
19.371523
  0
LINE
  8
_0-1_
  6
CONTINUOUS
 62
    2
 10
144.21042
 20
19.371523
 11
147.88508
 21
19.371523
  0
LINE
  8
_0-1_
  6
CONTINUOUS
 62
    2
 10
149.85705
 20
19.371523
 11
151.15705
 21
19.371523
  0
LINE
  8
_0-1_
  6
CONTINUOUS
 62
    2
 10
155.13111
 20
19.371523
 11
156.43111
 21
19.371523
  0
LINE
  8
_0-1_
  6
CONTINUOUS
 62
    2
 10
157.43111
 20
19.371523
 11
158.8598
 21
19.371523
  0
LINE
  8
_0-1_
  6
CONTINUOUS
 62
    2
 10
162.07338
 20
19.371523
 11
164.10809
 21
19.371523
  0
LINE
  8
_0-1_
  6
CONTINUOUS
 62
    2
 10
166.95214
 20
19.371523
 11
168.05214
 21
19.371523
  0
LINE
  8
_0-1_
  6
CONTINUOUS
 62
    7
 10
126.17665
 20
13.840458
 11
130.3805
 21
13.840458
  0
LINE
  8
_0-1_
  6
CONTINUOUS
 62
    7
 10
126.17665
 20
13.940458
 11
130.3805
 21
13.940458
  0
LINE
  8
_0-1_
  6
CONTINUOUS
 62
    7
 10
126.17665
 20
14.040458
 11
130.3805
 21
14.040458
  0
LINE
  8
_0-1_
  6
CONTINUOUS
 62
    7
 10
126.17665
 20
14.140458
 11
130.3805
 21
14.140458
  0
LINE
  8
_0-1_
  6
CONTINUOUS
 62
    7
 10
126.17665
 20
14.240458
 11
130.3805
 21
14.240458
  0
LINE
  8
_0-1_
  6
CONTINUOUS
 62
    7
 10
126.17665
 20
14.340458
 11
130.3805
 21
14.340458
  0
LINE
  8
_0-1_
  6
CONTINUOUS
 62
    7
 10
126.17665
 20
14.440458
 11
130.3805
 21
14.440458
  0
LINE
  8
_0-1_
  6
CONTINUOUS
 62
    7
 10
126.17665
 20
14.540458
 11
130.3805
 21
14.540458
  0
LINE
  8
_0-1_
  6
CONTINUOUS
 62
    7
 10
126.17665
 20
14.640458
 11
130.3805
 21
14.640458
  0
LINE
  8
_0-1_
  6
CONTINUOUS
 62
    7
 10
126.17665
 20
14.740458
 11
130.3805
 21
14.740458
  0
LINE
  8
_0-1_
  6
CONTINUOUS
 62
    7
 10
126.17665
 20
14.840458
 11
130.3805
 21
14.840458
  0
LINE
  8
_0-1_
  6
CONTINUOUS
 62
    7
 10
126.17665
 20
14.940458
 11
130.3805
 21
14.940458
  0
LINE
  8
_0-1_
  6
CONTINUOUS
 62
    7
 10
126.17665
 20
15.040458
 11
130.3805
 21
15.040458
  0
LINE
  8
_0-1_
  6
CONTINUOUS
 62
    7
 10
126.17665
 20
15.140458
 11
130.3805
 21
15.140458
  0
LINE
  8
_0-1_
  6
CONTINUOUS
 62
    7
 10
126.17665
 20
15.240458
 11
130.3805
 21
15.240458
  0
LINE
  8
_0-1_
  6
CONTINUOUS
 62
    7
 10
126.17665
 20
15.340458
 11
130.3805
 21
15.340458
  0
LINE
  8
_0-1_
  6
CONTINUOUS
 62
    7
 10
126.17665
 20
15.440458
 11
130.3805
 21
15.440458
  0
LINE
  8
_0-1_
  6
CONTINUOUS
 62
    7
 10
126.17665
 20
15.540458
 11
130.3805
 21
15.540458
  0
LINE
  8
_0-1_
  6
CONTINUOUS
 62
    7
 10
126.17665
 20
15.640458
 11
130.3805
 21
15.640458
  0
LINE
  8
_0-1_
  6
CONTINUOUS
 62
    7
 10
126.17665
 20
15.740458
 11
130.3805
 21
15.740458
  0
LINE
  8
_0-1_
  6
CONTINUOUS
 62
    7
 10
126.17665
 20
15.840458
 11
130.3805
 21
15.840458
  0
LINE
  8
_0-1_
  6
CONTINUOUS
 62
    7
 10
126.17665
 20
15.940458
 11
130.3805
 21
15.940458
  0
LINE
  8
_0-1_
  6
CONTINUOUS
 62
    7
 10
126.17665
 20
16.040458
 11
130.3805
 21
16.040458
  0
LINE
  8
_0-1_
  6
CONTINUOUS
 62
    7
 10
126.17665
 20
16.140458
 11
130.3805
 21
16.140458
  0
LINE
  8
_0-1_
  6
CONTINUOUS
 62
    7
 10
126.17665
 20
16.240458
 11
130.3805
 21
16.240458
  0
LINE
  8
_0-1_
  6
CONTINUOUS
 62
    7
 10
126.17665
 20
16.340458
 11
130.3805
 21
16.340458
  0
LINE
  8
_0-1_
  6
CONTINUOUS
 62
    7
 10
126.17665
 20
16.440458
 11
130.3805
 21
16.440458
  0
LINE
  8
_0-1_
  6
CONTINUOUS
 62
    7
 10
126.17665
 20
16.540458
 11
130.3805
 21
16.540458
  0
LINE
  8
_0-1_
  6
CONTINUOUS
 62
    7
 10
126.17665
 20
16.640458
 11
130.3805
 21
16.640458
  0
LINE
  8
_0-1_
  6
CONTINUOUS
 62
    7
 10
126.17665
 20
16.740458
 11
130.3805
 21
16.740458
  0
LINE
  8
_0-1_
  6
CONTINUOUS
 62
    7
 10
126.17665
 20
16.840458
 11
130.3805
 21
16.840458
  0
LINE
  8
_0-1_
  6
CONTINUOUS
 62
    7
 10
126.17665
 20
16.940458
 11
130.3805
 21
16.940458
  0
LINE
  8
_0-1_
  6
CONTINUOUS
 62
    7
 10
126.17665
 20
17.040458
 11
130.3805
 21
17.040458
  0
LINE
  8
_0-1_
  6
CONTINUOUS
 62
    7
 10
126.17665
 20
17.140458
 11
130.3805
 21
17.140458
  0
LINE
  8
_0-1_
  6
CONTINUOUS
 62
    7
 10
126.17665
 20
17.240458
 11
130.3805
 21
17.240458
  0
LINE
  8
_0-1_
  6
CONTINUOUS
 62
    7
 10
126.17665
 20
17.340458
 11
130.3805
 21
17.340458
  0
LINE
  8
_0-1_
  6
CONTINUOUS
 62
    7
 10
126.17665
 20
17.440458
 11
130.3805
 21
17.440458
  0
LINE
  8
_0-1_
  6
CONTINUOUS
 62
    7
 10
126.17665
 20
17.540458
 11
130.3805
 21
17.540458
  0
LINE
  8
_0-1_
  6
CONTINUOUS
 62
    7
 10
126.17665
 20
17.640458
 11
130.3805
 21
17.640458
  0
LINE
  8
_0-1_
  6
CONTINUOUS
 62
    7
 10
126.17665
 20
17.740458
 11
130.3805
 21
17.740458
  0
LINE
  8
_0-1_
  6
CONTINUOUS
 62
    7
 10
126.17665
 20
17.840458
 11
130.3805
 21
17.840458
  0
LINE
  8
_0-1_
  6
CONTINUOUS
 62
    7
 10
126.17665
 20
17.940458
 11
130.3805
 21
17.940458
  0
LINE
  8
_0-1_
  6
CONTINUOUS
 62
    7
 10
135.65782
 20
22.640458
 11
137.12138
 21
22.640458
  0
LINE
  8
_0-1_
  6
CONTINUOUS
 62
    7
 10
135.38552
 20
22.840458
 11
137.39367
 21
22.840458
  0
LINE
  8
_0-1_
  6
CONTINUOUS
 62
    7
 10
135.20602
 20
23.040458
 11
137.57317
 21
23.040458
  0
LINE
  8
_0-1_
  6
CONTINUOUS
 62
    7
 10
135.08058
 20
23.240458
 11
137.69861
 21
23.240458
  0
LINE
  8
_0-1_
  6
CONTINUOUS
 62
    7
 10
134.99454
 20
23.440458
 11
137.78465
 21
23.440458
  0
LINE
  8
_0-1_
  6
CONTINUOUS
 62
    7
 10
134.94085
 20
23.640458
 11
137.83834
 21
23.640458
  0
LINE
  8
_0-1_
  6
CONTINUOUS
 62
    7
 10
134.91599
 20
23.840458
 11
137.86321
 21
23.840458
  0
LINE
  8
_0-1_
  6
CONTINUOUS
 62
    7
 10
134.91848
 20
24.040458
 11
137.86072
 21
24.040458
  0
LINE
  8
_0-1_
  6
CONTINUOUS
 62
    7
 10
134.94846
 20
24.240458
 11
137.83073
 21
24.240458
  0
LINE
  8
_0-1_
  6
CONTINUOUS
 62
    7
 10
135.00774
 20
24.440458
 11
137.77146
 21
24.440458
  0
LINE
  8
_0-1_
  6
CONTINUOUS
 62
    7
 10
135.10033
 20
24.640458
 11
137.67886
 21
24.640458
  0
LINE
  8
_0-1_
  6
CONTINUOUS
 62
    7
 10
135.23423
 20
24.840458
 11
137.54497
 21
24.840458
  0
LINE
  8
_0-1_
  6
CONTINUOUS
 62
    7
 10
135.4265
 20
25.040458
 11
137.35269
 21
25.040458
  0
LINE
  8
_0-1_
  6
CONTINUOUS
 62
    7
 10
135.7261
 20
25.240458
 11
137.05309
 21
25.240458
  0
LINE
  8
_0-1_
  6
CONTINUOUS
 62
    7
 10
137.78781
 20
23.449695
 11
137.78781
 21
24.394575
  0
LINE
  8
_0-1_
  6
CONTINUOUS
 62
    7
 10
137.58781
 20
23.06046
 11
137.58781
 21
24.783811
  0
LINE
  8
_0-1_
  6
CONTINUOUS
 62
    7
 10
137.38781
 20
22.835043
 11
137.38781
 21
25.009227
  0
LINE
  8
_0-1_
  6
CONTINUOUS
 62
    7
 10
137.18781
 20
22.680743
 11
137.18781
 21
25.163527
  0
LINE
  8
_0-1_
  6
CONTINUOUS
 62
    7
 10
136.98781
 20
22.572936
 11
136.98781
 21
25.271335
  0
LINE
  8
_0-1_
  6
CONTINUOUS
 62
    7
 10
136.78781
 20
22.501
 11
136.78781
 21
25.34327
  0
LINE
  8
_0-1_
  6
CONTINUOUS
 62
    7
 10
136.58781
 20
22.459634
 11
136.58781
 21
25.384636
  0
LINE
  8
_0-1_
  6
CONTINUOUS
 62
    7
 10
136.38781
 20
22.446265
 11
136.38781
 21
25.398006
  0
LINE
  8
_0-1_
  6
CONTINUOUS
 62
    7
 10
135.09076
 20
19.402456
 11
135.13264
 21
19.444341
  0
LINE
  8
_0-1_
  6
CONTINUOUS
 62
    7
 10
134.80792
 20
19.402456
 11
135.02912
 21
19.623657
  0
LINE
  8
_0-1_
  6
CONTINUOUS
 62
    7
 10
134.52507
 20
19.402456
 11
134.92559
 21
19.802972
  0
LINE
  8
_0-1_
  6
CONTINUOUS
 62
    7
 10
134.24223
 20
19.402456
 11
134.82206
 21
19.982287
  0
LINE
  8
_0-1_
  6
CONTINUOUS
 62
    7
 10
133.95939
 20
19.402456
 11
134.71853
 21
20.161602
  0
LINE
  8
_0-1_
  6
CONTINUOUS
 62
    7
 10
133.67654
 20
19.402456
 11
134.61501
 21
20.340917
  0
LINE
  8
_0-1_
  6
CONTINUOUS
 62
    7
 10
133.3937
 20
19.402456
 11
134.51148
 21
20.520232
  0
LINE
  8
_0-1_
  6
CONTINUOUS
 62
    7
 10
133.11086
 20
19.402456
 11
134.40795
 21
20.699547
  0
LINE
  8
_0-1_
  6
CONTINUOUS
 62
    7
 10
132.82802
 20
19.402456
 11
134.30442
 21
20.878862
  0
LINE
  8
_0-1_
  6
CONTINUOUS
 62
    7
 10
132.54517
 20
19.402456
 11
134.2009
 21
21.058177
  0
LINE
  8
_0-1_
  6
CONTINUOUS
 62
    7
 10
132.26233
 20
19.402456
 11
134.09737
 21
21.237492
  0
LINE
  8
_0-1_
  6
CONTINUOUS
 62
    7
 10
131.97949
 20
19.402456
 11
133.99384
 21
21.416808
  0
LINE
  8
_0-1_
  6
CONTINUOUS
 62
    7
 10
131.69665
 20
19.402456
 11
133.89031
 21
21.596123
  0
LINE
  8
_0-1_
  6
CONTINUOUS
 62
    7
 10
131.4138
 20
19.402456
 11
133.78678
 21
21.775438
  0
LINE
  8
_0-1_
  6
CONTINUOUS
 62
    7
 10
131.13096
 20
19.402456
 11
133.68326
 21
21.954753
  0
LINE
  8
_0-1_
  6
CONTINUOUS
 62
    7
 10
130.86872
 20
19.423061
 11
133.57973
 21
22.134068
  0
LINE
  8
_0-1_
  6
CONTINUOUS
 62
    7
 10
131.25509
 20
20.092274
 11
133.4762
 21
22.313383
  0
LINE
  8
_0-1_
  6
CONTINUOUS
 62
    7
 10
131.64146
 20
20.761487
 11
133.37267
 21
22.492698
  0
LINE
  8
_0-1_
  6
CONTINUOUS
 62
    7
 10
132.02783
 20
21.430701
 11
133.26915
 21
22.672013
  0
LINE
  8
_0-1_
  6
CONTINUOUS
 62
    7
 10
132.4142
 20
22.099914
 11
133.16562
 21
22.851328
  0
LINE
  8
_0-1_
  6
CONTINUOUS
 62
    7
 10
132.80057
 20
22.769127
 11
133.06209
 21
23.030643
  0
LINE
  8
_0-1_
  6
CONTINUOUS
 62
    7
 10
130.89778
 20
19.473388
 11
130.96871
 21
19.402456
  0
LINE
  8
_0-1_
  6
CONTINUOUS
 62
    7
 10
131.00131
 20
19.652703
 11
131.25155
 21
19.402456
  0
LINE
  8
_0-1_
  6
CONTINUOUS
 62
    7
 10
131.10483
 20
19.832018
 11
131.5344
 21
19.402456
  0
LINE
  8
_0-1_
  6
CONTINUOUS
 62
    7
 10
131.20836
 20
20.011333
 11
131.81724
 21
19.402456
  0
LINE
  8
_0-1_
  6
CONTINUOUS
 62
    7
 10
131.31189
 20
20.190648
 11
132.10008
 21
19.402456
  0
LINE
  8
_0-1_
  6
CONTINUOUS
 62
    7
 10
131.41542
 20
20.369963
 11
132.38292
 21
19.402456
  0
LINE
  8
_0-1_
  6
CONTINUOUS
 62
    7
 10
131.51894
 20
20.549278
 11
132.66577
 21
19.402456
  0
LINE
  8
_0-1_
  6
CONTINUOUS
 62
    7
 10
131.62247
 20
20.728593
 11
132.94861
 21
19.402456
  0
LINE
  8
_0-1_
  6
CONTINUOUS
 62
    7
 10
131.726
 20
20.907908
 11
133.23145
 21
19.402456
  0
LINE
  8
_0-1_
  6
CONTINUOUS
 62
    7
 10
131.82953
 20
21.087223
 11
133.5143
 21
19.402456
  0
LINE
  8
_0-1_
  6
CONTINUOUS
 62
    7
 10
131.93306
 20
21.266539
 11
133.79714
 21
19.402456
  0
LINE
  8
_0-1_
  6
CONTINUOUS
 62
    7
 10
132.03658
 20
21.445854
 11
134.07998
 21
19.402456
  0
LINE
  8
_0-1_
  6
CONTINUOUS
 62
    7
 10
132.14011
 20
21.625169
 11
134.36282
 21
19.402456
  0
LINE
  8
_0-1_
  6
CONTINUOUS
 62
    7
 10
132.24364
 20
21.804484
 11
134.64567
 21
19.402456
  0
LINE
  8
_0-1_
  6
CONTINUOUS
 62
    7
 10
132.34717
 20
21.983799
 11
134.92851
 21
19.402456
  0
LINE
  8
_0-1_
  6
CONTINUOUS
 62
    7
 10
132.45069
 20
22.163114
 11
135.08234
 21
19.531463
  0
LINE
  8
_0-1_
  6
CONTINUOUS
 62
    7
 10
132.55422
 20
22.342429
 11
134.69597
 21
20.200676
  0
LINE
  8
_0-1_
  6
CONTINUOUS
 62
    7
 10
132.65775
 20
22.521744
 11
134.3096
 21
20.869889
  0
LINE
  8
_0-1_
  6
CONTINUOUS
 62
    7
 10
132.76128
 20
22.701059
 11
133.92323
 21
21.539102
  0
LINE
  8
_0-1_
  6
CONTINUOUS
 62
    7
 10
132.8648
 20
22.880374
 11
133.53686
 21
22.208315
  0
LINE
  8
_0-1_
  6
CONTINUOUS
 62
    7
 10
132.96833
 20
23.059689
 11
133.15049
 21
22.877528
  0
LINE
  8
_0-1_
  6
CONTINUOUS
 62
    7
 10
130.28781
 20
13.819895
 11
130.28781
 21
18.029664
  0
LINE
  8
_0-1_
  6
CONTINUOUS
 62
    7
 10
130.18781
 20
13.819895
 11
130.18781
 21
18.029664
  0
LINE
  8
_0-1_
  6
CONTINUOUS
 62
    7
 10
130.08781
 20
13.819895
 11
130.08781
 21
18.029664
  0
LINE
  8
_0-1_
  6
CONTINUOUS
 62
    7
 10
129.98781
 20
13.819895
 11
129.98781
 21
18.029664
  0
LINE
  8
_0-1_
  6
CONTINUOUS
 62
    7
 10
129.88781
 20
13.819895
 11
129.88781
 21
18.029664
  0
LINE
  8
_0-1_
  6
CONTINUOUS
 62
    7
 10
129.78781
 20
13.819895
 11
129.78781
 21
18.029664
  0
LINE
  8
_0-1_
  6
CONTINUOUS
 62
    7
 10
129.68781
 20
13.819895
 11
129.68781
 21
18.029664
  0
LINE
  8
_0-1_
  6
CONTINUOUS
 62
    7
 10
129.58781
 20
13.819895
 11
129.58781
 21
18.029664
  0
LINE
  8
_0-1_
  6
CONTINUOUS
 62
    7
 10
129.48781
 20
13.819895
 11
129.48781
 21
18.029664
  0
LINE
  8
_0-1_
  6
CONTINUOUS
 62
    7
 10
129.38781
 20
13.819895
 11
129.38781
 21
18.029664
  0
LINE
  8
_0-1_
  6
CONTINUOUS
 62
    7
 10
129.28781
 20
13.819895
 11
129.28781
 21
18.029664
  0
LINE
  8
_0-1_
  6
CONTINUOUS
 62
    7
 10
129.18781
 20
13.819895
 11
129.18781
 21
18.029664
  0
LINE
  8
_0-1_
  6
CONTINUOUS
 62
    7
 10
129.08781
 20
13.819895
 11
129.08781
 21
18.029664
  0
LINE
  8
_0-1_
  6
CONTINUOUS
 62
    7
 10
128.98781
 20
13.819895
 11
128.98781
 21
18.029664
  0
LINE
  8
_0-1_
  6
CONTINUOUS
 62
    7
 10
128.88781
 20
13.819895
 11
128.88781
 21
18.029664
  0
LINE
  8
_0-1_
  6
CONTINUOUS
 62
    7
 10
128.78781
 20
13.819895
 11
128.78781
 21
18.029664
  0
LINE
  8
_0-1_
  6
CONTINUOUS
 62
    7
 10
128.68781
 20
13.819895
 11
128.68781
 21
18.029664
  0
LINE
  8
_0-1_
  6
CONTINUOUS
 62
    7
 10
128.58781
 20
13.819895
 11
128.58781
 21
18.029664
  0
LINE
  8
_0-1_
  6
CONTINUOUS
 62
    7
 10
128.48781
 20
13.819895
 11
128.48781
 21
18.029664
  0
LINE
  8
_0-1_
  6
CONTINUOUS
 62
    7
 10
128.38781
 20
13.819895
 11
128.38781
 21
18.029664
  0
LINE
  8
_0-1_
  6
CONTINUOUS
 62
    7
 10
128.28781
 20
13.819895
 11
128.28781
 21
18.029664
  0
LINE
  8
_0-1_
  6
CONTINUOUS
 62
    7
 10
128.18781
 20
13.819895
 11
128.18781
 21
18.029664
  0
LINE
  8
_0-1_
  6
CONTINUOUS
 62
    7
 10
128.08781
 20
13.819895
 11
128.08781
 21
18.029664
  0
LINE
  8
_0-1_
  6
CONTINUOUS
 62
    7
 10
127.98781
 20
13.819895
 11
127.98781
 21
18.029664
  0
LINE
  8
_0-1_
  6
CONTINUOUS
 62
    7
 10
127.88781
 20
13.819895
 11
127.88781
 21
18.029664
  0
LINE
  8
_0-1_
  6
CONTINUOUS
 62
    7
 10
127.78781
 20
13.819895
 11
127.78781
 21
18.029664
  0
LINE
  8
_0-1_
  6
CONTINUOUS
 62
    7
 10
127.68781
 20
13.819895
 11
127.68781
 21
18.029664
  0
LINE
  8
_0-1_
  6
CONTINUOUS
 62
    7
 10
127.58781
 20
13.819895
 11
127.58781
 21
18.029664
  0
LINE
  8
_0-1_
  6
CONTINUOUS
 62
    7
 10
127.48781
 20
13.819895
 11
127.48781
 21
18.029664
  0
LINE
  8
_0-1_
  6
CONTINUOUS
 62
    7
 10
127.38781
 20
13.819895
 11
127.38781
 21
18.029664
  0
LINE
  8
_0-1_
  6
CONTINUOUS
 62
    7
 10
127.28781
 20
13.819895
 11
127.28781
 21
18.029664
  0
LINE
  8
_0-1_
  6
CONTINUOUS
 62
    7
 10
127.18781
 20
13.819895
 11
127.18781
 21
18.029664
  0
LINE
  8
_0-1_
  6
CONTINUOUS
 62
    7
 10
127.08781
 20
13.819895
 11
127.08781
 21
18.029664
  0
LINE
  8
_0-1_
  6
CONTINUOUS
 62
    7
 10
126.98781
 20
13.819895
 11
126.98781
 21
18.029664
  0
LINE
  8
_0-1_
  6
CONTINUOUS
 62
    7
 10
126.88781
 20
13.819895
 11
126.88781
 21
18.029664
  0
LINE
  8
_0-1_
  6
CONTINUOUS
 62
    7
 10
126.78781
 20
13.819895
 11
126.78781
 21
18.029664
  0
LINE
  8
_0-1_
  6
CONTINUOUS
 62
    7
 10
126.68781
 20
13.819895
 11
126.68781
 21
18.029664
  0
LINE
  8
_0-1_
  6
CONTINUOUS
 62
    7
 10
126.58781
 20
13.819895
 11
126.58781
 21
18.029664
  0
LINE
  8
_0-1_
  6
CONTINUOUS
 62
    7
 10
126.48781
 20
13.819895
 11
126.48781
 21
18.029664
  0
LINE
  8
_0-1_
  6
CONTINUOUS
 62
    7
 10
126.38781
 20
13.819895
 11
126.38781
 21
18.029664
  0
LINE
  8
_0-1_
  6
CONTINUOUS
 62
    7
 10
126.28781
 20
13.819895
 11
126.28781
 21
18.029664
  0
LINE
  8
_0-1_
  6
CONTINUOUS
 62
    7
 10
126.18781
 20
13.819895
 11
126.18781
 21
18.029664
  0
LINE
  8
_0-1_
  6
CONTINUOUS
 62
    4
 10
128.48756
 20
21.106798
 11
122.7974
 21
13.697979
  0
LINE
  8
_0-1_
  6
CONTINUOUS
 62
    4
 10
122.7974
 20
13.697979
 11
122.23999
 21
13.465728
  0
LINE
  8
_0-1_
  6
CONTINUOUS
 62
    4
 10
122.23999
 20
13.465728
 11
121.72904
 21
13.279927
  0
LINE
  8
_0-1_
  6
CONTINUOUS
 62
    4
 10
121.72904
 20
13.279927
 11
121.45034
 21
13.535403
  0
LINE
  8
_0-1_
  6
CONTINUOUS
 62
    4
 10
121.45034
 20
13.535403
 11
121.21809
 21
13.860555
  0
LINE
  8
_0-1_
  6
CONTINUOUS
 62
    4
 10
121.21809
 20
13.860555
 11
121.03229
 21
14.487634
  0
LINE
  8
_0-1_
  6
CONTINUOUS
 62
    4
 10
121.03229
 20
14.487634
 11
121.21809
 21
15.068262
  0
LINE
  8
_0-1_
  6
CONTINUOUS
 62
    4
 10
121.21809
 20
15.068262
 11
121.91484
 21
16.066943
  0
LINE
  8
_0-1_
  6
CONTINUOUS
 62
    4
 10
121.91484
 20
16.066943
 11
127.16372
 21
23.173835
  0
LINE
  8
_0-1_
  6
CONTINUOUS
 62
    4
 10
127.16372
 20
23.173835
 11
127.16372
 21
23.684788
  0
LINE
  8
_0-1_
  6
CONTINUOUS
 62
    4
 10
127.16372
 20
23.684788
 11
127.30307
 21
24.00994
  0
LINE
  8
_0-1_
  6
CONTINUOUS
 62
    4
 10
127.30307
 20
24.00994
 11
127.67468
 21
24.427992
  0
LINE
  8
_0-1_
  6
CONTINUOUS
 62
    4
 10
127.67468
 20
24.427992
 11
127.7908
 21
24.544118
  0
LINE
  8
_0-1_
  6
CONTINUOUS
 62
    4
 10
127.7908
 20
24.544118
 11
127.99983
 21
24.846044
  0
LINE
  8
_0-1_
  6
CONTINUOUS
 62
    4
 10
127.99983
 20
24.846044
 11
128.3482
 21
24.892495
  0
LINE
  8
_0-1_
  6
CONTINUOUS
 62
    4
 10
128.3482
 20
24.892495
 11
128.95206
 21
25.00862
  0
LINE
  8
_0-1_
  6
CONTINUOUS
 62
    4
 10
128.95206
 20
25.00862
 11
129.18431
 21
24.985395
  0
LINE
  8
_0-1_
  6
CONTINUOUS
 62
    4
 10
129.18431
 20
24.985395
 11
129.67204
 21
24.822819
  0
LINE
  8
_0-1_
  6
CONTINUOUS
 62
    4
 10
129.67204
 20
24.822819
 11
129.85784
 21
24.590568
  0
LINE
  8
_0-1_
  6
CONTINUOUS
 62
    4
 10
129.85784
 20
24.590568
 11
130.36879
 21
23.917039
  0
LINE
  8
_0-1_
  6
CONTINUOUS
 62
    4
 10
130.36879
 20
23.917039
 11
131.9481
 21
21.292599
  0
LINE
  8
_0-1_
  6
CONTINUOUS
 62
    4
 10
133.06696
 20
19.402456
 11
135.31484
 21
15.522102
  0
LINE
  8
_0-1_
  6
CONTINUOUS
 62
    4
 10
135.31484
 20
15.522102
 11
135.53039
 21
14.967819
  0
LINE
  8
_0-1_
  6
CONTINUOUS
 62
    4
 10
135.53039
 20
14.967819
 11
135.43801
 21
14.690678
  0
LINE
  8
_0-1_
  6
CONTINUOUS
 62
    4
 10
135.43801
 20
14.690678
 11
135.16087
 21
14.30576
  0
LINE
  8
_0-1_
  6
CONTINUOUS
 62
    4
 10
135.16087
 20
14.30576
 11
134.0831
 21
13.982428
  0
LINE
  8
_0-1_
  6
CONTINUOUS
 62
    4
 10
134.0831
 20
13.982428
 11
133.43643
 21
13.751477
  0
LINE
  8
_0-1_
  6
CONTINUOUS
 62
    4
 10
133.43643
 20
13.751477
 11
132.86676
 21
13.982428
  0
LINE
  8
_0-1_
  6
CONTINUOUS
 62
    4
 10
132.86676
 20
13.982428
 11
131.98914
 21
14.921629
  0
LINE
  8
_0-1_
  6
CONTINUOUS
 62
    4
 10
131.98914
 20
14.921629
 11
131.95835
 21
15.429721
  0
LINE
  8
_0-1_
  6
CONTINUOUS
 62
    4
 10
131.95835
 20
15.429721
 11
128.48756
 21
21.106798
  0
LINE
  8
_0-1_
  6
CONTINUOUS
 62
    4
 10
135.05282
 20
14.273344
 11
135.35536
 21
14.575892
  0
LINE
  8
_0-1_
  6
CONTINUOUS
 62
    4
 10
134.64875
 20
14.152126
 11
135.51193
 21
15.015297
  0
LINE
  8
_0-1_
  6
CONTINUOUS
 62
    4
 10
134.24469
 20
14.030907
 11
135.43273
 21
15.218944
  0
LINE
  8
_0-1_
  6
CONTINUOUS
 62
    4
 10
133.81908
 20
13.888137
 11
135.35353
 21
15.422591
  0
LINE
  8
_0-1_
  6
CONTINUOUS
 62
    4
 10
133.41021
 20
13.762109
 11
135.26178
 21
15.613683
  0
LINE
  8
_0-1_
  6
CONTINUOUS
 62
    4
 10
133.20896
 20
13.843698
 11
135.15803
 21
15.792777
  0
LINE
  8
_0-1_
  6
CONTINUOUS
 62
    4
 10
133.0077
 20
13.925288
 11
135.05429
 21
15.971871
  0
LINE
  8
_0-1_
  6
CONTINUOUS
 62
    4
 10
132.82581
 20
14.026242
 11
134.95054
 21
16.150965
  0
LINE
  8
_0-1_
  6
CONTINUOUS
 62
    4
 10
132.68919
 20
14.172458
 11
134.84679
 21
16.330059
  0
LINE
  8
_0-1_
  6
CONTINUOUS
 62
    4
 10
132.55256
 20
14.318673
 11
134.74304
 21
16.509154
  0
LINE
  8
_0-1_
  6
CONTINUOUS
 62
    4
 10
132.41593
 20
14.464888
 11
134.63929
 21
16.688248
  0
LINE
  8
_0-1_
  6
CONTINUOUS
 62
    4
 10
132.2793
 20
14.611103
 11
134.53554
 21
16.867342
  0
LINE
  8
_0-1_
  6
CONTINUOUS
 62
    4
 10
132.14268
 20
14.757319
 11
134.4318
 21
17.046436
  0
LINE
  8
_0-1_
  6
CONTINUOUS
 62
    4
 10
132.00605
 20
14.903534
 11
134.32805
 21
17.225531
  0
LINE
  8
_0-1_
  6
CONTINUOUS
 62
    4
 10
131.97498
 20
15.155306
 11
134.2243
 21
17.404625
  0
LINE
  8
_0-1_
  6
CONTINUOUS
 62
    4
 10
131.95882
 20
15.421986
 11
134.12055
 21
17.583719
  0
LINE
  8
_0-1_
  6
CONTINUOUS
 62
    4
 10
131.85415
 20
15.600159
 11
134.0168
 21
17.762813
  0
LINE
  8
_0-1_
  6
CONTINUOUS
 62
    4
 10
131.74683
 20
15.775689
 11
133.91305
 21
17.941908
  0
LINE
  8
_0-1_
  6
CONTINUOUS
 62
    4
 10
131.63952
 20
15.951218
 11
133.8093
 21
18.121002
  0
LINE
  8
_0-1_
  6
CONTINUOUS
 62
    4
 10
131.53221
 20
16.126748
 11
133.70556
 21
18.300096
  0
LINE
  8
_0-1_
  6
CONTINUOUS
 62
    4
 10
131.42489
 20
16.302277
 11
133.60181
 21
18.47919
  0
LINE
  8
_0-1_
  6
CONTINUOUS
 62
    4
 10
131.31758
 20
16.477806
 11
133.49806
 21
18.658285
  0
LINE
  8
_0-1_
  6
CONTINUOUS
 62
    4
 10
131.21027
 20
16.653336
 11
133.39431
 21
18.837379
  0
LINE
  8
_0-1_
  6
CONTINUOUS
 62
    4
 10
131.10295
 20
16.828865
 11
133.29056
 21
19.016473
  0
LINE
  8
_0-1_
  6
CONTINUOUS
 62
    4
 10
130.99564
 20
17.004394
 11
133.18681
 21
19.195567
  0
LINE
  8
_0-1_
  6
CONTINUOUS
 62
    4
 10
130.88833
 20
17.179924
 11
133.08307
 21
19.374661
  0
LINE
  8
_0-1_
  6
CONTINUOUS
 62
    4
 10
130.78101
 20
17.355453
 11
132.82802
 21
19.402456
  0
LINE
  8
_0-1_
  6
CONTINUOUS
 62
    4
 10
130.6737
 20
17.530983
 11
132.54517
 21
19.402456
  0
LINE
  8
_0-1_
  6
CONTINUOUS
 62
    4
 10
130.56639
 20
17.706512
 11
132.26233
 21
19.402456
  0
LINE
  8
_0-1_
  6
CONTINUOUS
 62
    4
 10
130.45907
 20
17.882041
 11
131.97949
 21
19.402456
  0
LINE
  8
_0-1_
  6
CONTINUOUS
 62
    4
 10
130.35176
 20
18.057571
 11
131.69665
 21
19.402456
  0
LINE
  8
_0-1_
  6
CONTINUOUS
 62
    4
 10
130.24445
 20
18.2331
 11
131.4138
 21
19.402456
  0
LINE
  8
_0-1_
  6
CONTINUOUS
 62
    4
 10
130.13713
 20
18.408629
 11
131.13096
 21
19.402456
  0
LINE
  8
_0-1_
  6
CONTINUOUS
 62
    4
 10
130.02982
 20
18.584159
 11
130.86872
 21
19.423061
  0
LINE
  8
_0-1_
  6
CONTINUOUS
 62
    4
 10
129.92251
 20
18.759688
 11
131.25509
 21
20.092274
  0
LINE
  8
_0-1_
  6
CONTINUOUS
 62
    4
 10
129.81519
 20
18.935218
 11
131.64146
 21
20.761487
  0
LINE
  8
_0-1_
  6
CONTINUOUS
 62
    4
 10
129.70788
 20
19.110747
 11
131.92617
 21
21.329039
  0
LINE
  8
_0-1_
  6
CONTINUOUS
 62
    4
 10
129.60057
 20
19.286276
 11
131.81991
 21
21.50562
  0
LINE
  8
_0-1_
  6
CONTINUOUS
 62
    4
 10
129.49325
 20
19.461806
 11
131.71365
 21
21.682201
  0
LINE
  8
_0-1_
  6
CONTINUOUS
 62
    4
 10
129.38594
 20
19.637335
 11
131.60739
 21
21.858783
  0
LINE
  8
_0-1_
  6
CONTINUOUS
 62
    4
 10
129.27863
 20
19.812864
 11
131.50113
 21
22.035364
  0
LINE
  8
_0-1_
  6
CONTINUOUS
 62
    4
 10
129.17131
 20
19.988394
 11
131.39487
 21
22.211946
  0
LINE
  8
_0-1_
  6
CONTINUOUS
 62
    4
 10
122.45567
 20
13.555593
 11
123.45738
 21
14.5573
  0
LINE
  8
_0-1_
  6
CONTINUOUS
 62
    4
 10
129.064
 20
20.163923
 11
131.2886
 21
22.388527
  0
LINE
  8
_0-1_
  6
CONTINUOUS
 62
    4
 10
121.99323
 20
13.375995
 11
124.39382
 21
15.776581
  0
LINE
  8
_0-1_
  6
CONTINUOUS
 62
    4
 10
128.95669
 20
20.339453
 11
131.18234
 21
22.565108
  0
LINE
  8
_0-1_
  6
CONTINUOUS
 62
    4
 10
121.66919
 20
13.334794
 11
125.33025
 21
16.995863
  0
LINE
  8
_0-1_
  6
CONTINUOUS
 62
    4
 10
128.84937
 20
20.514982
 11
131.07608
 21
22.74169
  0
LINE
  8
_0-1_
  6
CONTINUOUS
 62
    4
 10
121.52162
 20
13.470066
 11
126.26669
 21
18.215144
  0
LINE
  8
_0-1_
  6
CONTINUOUS
 62
    4
 10
128.74206
 20
20.690511
 11
130.96982
 21
22.918271
  0
LINE
  8
_0-1_
  6
CONTINUOUS
 62
    4
 10
121.38941
 20
13.620704
 11
127.20313
 21
19.434426
  0
LINE
  8
_0-1_
  6
CONTINUOUS
 62
    4
 10
128.63475
 20
20.866041
 11
130.86356
 21
23.094852
  0
LINE
  8
_0-1_
  6
CONTINUOUS
 62
    4
 10
121.27156
 20
13.785695
 11
128.13957
 21
20.653707
  0
LINE
  8
_0-1_
  6
CONTINUOUS
 62
    4
 10
128.52743
 20
21.04157
 11
130.7573
 21
23.271434
  0
LINE
  8
_0-1_
  6
CONTINUOUS
 62
    4
 10
121.18277
 20
13.97975
 11
130.65104
 21
23.448015
  0
LINE
  8
_0-1_
  6
CONTINUOUS
 62
    4
 10
121.11812
 20
14.197943
 11
130.54477
 21
23.624596
  0
LINE
  8
_0-1_
  6
CONTINUOUS
 62
    4
 10
121.05347
 20
14.416136
 11
130.43851
 21
23.801178
  0
LINE
  8
_0-1_
  6
CONTINUOUS
 62
    4
 10
121.12177
 20
14.767281
 11
130.32684
 21
23.972344
  0
LINE
  8
_0-1_
  6
CONTINUOUS
 62
    4
 10
121.39849
 20
15.326843
 11
130.20483
 21
24.133176
  0
LINE
  8
_0-1_
  6
CONTINUOUS
 62
    4
 10
122.08178
 20
16.292968
 11
130.08282
 21
24.294008
  0
LINE
  8
_0-1_
  6
CONTINUOUS
 62
    4
 10
122.88081
 20
17.374842
 11
129.9608
 21
24.45484
  0
LINE
  8
_0-1_
  6
CONTINUOUS
 62
    4
 10
123.67984
 20
18.456715
 11
129.83822
 21
24.615095
  0
LINE
  8
_0-1_
  6
CONTINUOUS
 62
    4
 10
124.47887
 20
19.538589
 11
129.71251
 21
24.77223
  0
LINE
  8
_0-1_
  6
CONTINUOUS
 62
    4
 10
125.2779
 20
20.620462
 11
129.5282
 21
24.870765
  0
LINE
  8
_0-1_
  6
CONTINUOUS
 62
    4
 10
126.07693
 20
21.702335
 11
129.31607
 21
24.941475
  0
LINE
  8
_0-1_
  6
CONTINUOUS
 62
    4
 10
126.87596
 20
22.784209
 11
129.08689
 21
24.995137
  0
LINE
  8
_0-1_
  6
CONTINUOUS
 62
    4
 10
127.16372
 20
23.354814
 11
128.7855
 21
24.97659
  0
LINE
  8
_0-1_
  6
CONTINUOUS
 62
    4
 10
127.16372
 20
23.637657
 11
128.43531
 21
24.909246
  0
LINE
  8
_0-1_
  6
CONTINUOUS
 62
    4
 10
127.79859
 20
24.555365
 11
128.10303
 21
24.859804
  0
LINE
  8
_0-1_
  6
CONTINUOUS
 62
    4
 10
121.21008
 20
13.887579
 11
121.79408
 21
13.303578
  0
LINE
  8
_0-1_
  6
CONTINUOUS
 62
    4
 10
121.09099
 20
14.289514
 11
122.0015
 21
13.379003
  0
LINE
  8
_0-1_
  6
CONTINUOUS
 62
    4
 10
121.06706
 20
14.596289
 11
122.20892
 21
13.454427
  0
LINE
  8
_0-1_
  6
CONTINUOUS
 62
    4
 10
121.13562
 20
14.810564
 11
122.40974
 21
13.536453
  0
LINE
  8
_0-1_
  6
CONTINUOUS
 62
    4
 10
121.20419
 20
15.024839
 11
122.60939
 21
13.619642
  0
LINE
  8
_0-1_
  6
CONTINUOUS
 62
    4
 10
121.31077
 20
15.201105
 11
122.80456
 21
13.70731
  0
LINE
  8
_0-1_
  6
CONTINUOUS
 62
    4
 10
121.42701
 20
15.367711
 11
122.92743
 21
13.867287
  0
LINE
  8
_0-1_
  6
CONTINUOUS
 62
    4
 10
121.54324
 20
15.534317
 11
123.0503
 21
14.027263
  0
LINE
  8
_0-1_
  6
CONTINUOUS
 62
    4
 10
121.65948
 20
15.700923
 11
123.17316
 21
14.18724
  0
LINE
  8
_0-1_
  6
CONTINUOUS
 62
    4
 10
121.77572
 20
15.867529
 11
123.29603
 21
14.347217
  0
LINE
  8
_0-1_
  6
CONTINUOUS
 62
    4
 10
121.89195
 20
16.034135
 11
123.41889
 21
14.507193
  0
LINE
  8
_0-1_
  6
CONTINUOUS
 62
    4
 10
122.01134
 20
16.197594
 11
123.54176
 21
14.66717
  0
LINE
  8
_0-1_
  6
CONTINUOUS
 62
    4
 10
122.13149
 20
16.360282
 11
123.66463
 21
14.827146
  0
LINE
  8
_0-1_
  6
CONTINUOUS
 62
    4
 10
122.25165
 20
16.522969
 11
123.78749
 21
14.987123
  0
LINE
  8
_0-1_
  6
CONTINUOUS
 62
    4
 10
122.3718
 20
16.685657
 11
123.91036
 21
15.1471
  0
LINE
  8
_0-1_
  6
CONTINUOUS
 62
    4
 10
122.49196
 20
16.848345
 11
124.03322
 21
15.307076
  0
LINE
  8
_0-1_
  6
CONTINUOUS
 62
    4
 10
122.61211
 20
17.011033
 11
124.15609
 21
15.467053
  0
LINE
  8
_0-1_
  6
CONTINUOUS
 62
    4
 10
122.73227
 20
17.17372
 11
124.27896
 21
15.62703
  0
LINE
  8
_0-1_
  6
CONTINUOUS
 62
    4
 10
122.85242
 20
17.336408
 11
124.40182
 21
15.787006
  0
LINE
  8
_0-1_
  6
CONTINUOUS
 62
    4
 10
122.97258
 20
17.499096
 11
124.52469
 21
15.946983
  0
LINE
  8
_0-1_
  6
CONTINUOUS
 62
    4
 10
123.09273
 20
17.661784
 11
124.64755
 21
16.10696
  0
LINE
  8
_0-1_
  6
CONTINUOUS
 62
    4
 10
123.21289
 20
17.824471
 11
124.77042
 21
16.266936
  0
LINE
  8
_0-1_
  6
CONTINUOUS
 62
    4
 10
123.33304
 20
17.987159
 11
124.89329
 21
16.426913
  0
LINE
  8
_0-1_
  6
CONTINUOUS
 62
    4
 10
123.4532
 20
18.149847
 11
125.01615
 21
16.58689
  0
LINE
  8
_0-1_
  6
CONTINUOUS
 62
    4
 10
123.57335
 20
18.312534
 11
125.13902
 21
16.746866
  0
LINE
  8
_0-1_
  6
CONTINUOUS
 62
    4
 10
123.69351
 20
18.475222
 11
125.26189
 21
16.906843
  0
LINE
  8
_0-1_
  6
CONTINUOUS
 62
    4
 10
123.81366
 20
18.63791
 11
125.38475
 21
17.066819
  0
LINE
  8
_0-1_
  6
CONTINUOUS
 62
    4
 10
123.93382
 20
18.800598
 11
125.50762
 21
17.226796
  0
LINE
  8
_0-1_
  6
CONTINUOUS
 62
    4
 10
124.05397
 20
18.963285
 11
125.63048
 21
17.386773
  0
LINE
  8
_0-1_
  6
CONTINUOUS
 62
    4
 10
124.17413
 20
19.125973
 11
125.75335
 21
17.546749
  0
LINE
  8
_0-1_
  6
CONTINUOUS
 62
    4
 10
124.29428
 20
19.288661
 11
125.87622
 21
17.706726
  0
LINE
  8
_0-1_
  6
CONTINUOUS
 62
    4
 10
124.41444
 20
19.451348
 11
125.99908
 21
17.866703
  0
LINE
  8
_0-1_
  6
CONTINUOUS
 62
    4
 10
124.53459
 20
19.614036
 11
126.12195
 21
18.026679
  0
LINE
  8
_0-1_
  6
CONTINUOUS
 62
    4
 10
124.65475
 20
19.776724
 11
126.24481
 21
18.186656
  0
LINE
  8
_0-1_
  6
CONTINUOUS
 62
    4
 10
124.7749
 20
19.939412
 11
126.36768
 21
18.346633
  0
LINE
  8
_0-1_
  6
CONTINUOUS
 62
    4
 10
124.89506
 20
20.102099
 11
126.49055
 21
18.506609
  0
LINE
  8
_0-1_
  6
CONTINUOUS
 62
    4
 10
125.01521
 20
20.264787
 11
126.61341
 21
18.666586
  0
LINE
  8
_0-1_
  6
CONTINUOUS
 62
    4
 10
125.13537
 20
20.427475
 11
126.73628
 21
18.826563
  0
LINE
  8
_0-1_
  6
CONTINUOUS
 62
    4
 10
125.25552
 20
20.590163
 11
126.85914
 21
18.986539
  0
LINE
  8
_0-1_
  6
CONTINUOUS
 62
    4
 10
125.37568
 20
20.75285
 11
126.98201
 21
19.146516
  0
LINE
  8
_0-1_
  6
CONTINUOUS
 62
    4
 10
125.49583
 20
20.915538
 11
127.10488
 21
19.306492
  0
LINE
  8
_0-1_
  6
CONTINUOUS
 62
    4
 10
125.61599
 20
21.078226
 11
127.22774
 21
19.466469
  0
LINE
  8
_0-1_
  6
CONTINUOUS
 62
    4
 10
125.73614
 20
21.240913
 11
127.35061
 21
19.626446
  0
LINE
  8
_0-1_
  6
CONTINUOUS
 62
    4
 10
131.98487
 20
14.992189
 11
133.08181
 21
13.895244
  0
LINE
  8
_0-1_
  6
CONTINUOUS
 62
    4
 10
125.8563
 20
21.403601
 11
127.47347
 21
19.786422
  0
LINE
  8
_0-1_
  6
CONTINUOUS
 62
    4
 10
131.96662
 20
15.293279
 11
133.48948
 21
13.770421
  0
LINE
  8
_0-1_
  6
CONTINUOUS
 62
    4
 10
125.97645
 20
21.566289
 11
127.59634
 21
19.946399
  0
LINE
  8
_0-1_
  6
CONTINUOUS
 62
    4
 10
131.71503
 20
15.827709
 11
133.69789
 21
13.844853
  0
LINE
  8
_0-1_
  6
CONTINUOUS
 62
    4
 10
126.09661
 20
21.728977
 11
127.71921
 21
20.106376
  0
LINE
  8
_0-1_
  6
CONTINUOUS
 62
    4
 10
131.27008
 20
16.555503
 11
133.9063
 21
13.919285
  0
LINE
  8
_0-1_
  6
CONTINUOUS
 62
    4
 10
126.21676
 20
21.891664
 11
127.84207
 21
20.266352
  0
LINE
  8
_0-1_
  6
CONTINUOUS
 62
    4
 10
130.82513
 20
17.283297
 11
134.1161
 21
13.992328
  0
LINE
  8
_0-1_
  6
CONTINUOUS
 62
    4
 10
126.33692
 20
22.054352
 11
127.96494
 21
20.426329
  0
LINE
  8
_0-1_
  6
CONTINUOUS
 62
    4
 10
130.38018
 20
18.011091
 11
134.33367
 21
14.0576
  0
LINE
  8
_0-1_
  6
CONTINUOUS
 62
    4
 10
126.45707
 20
22.21704
 11
128.0878
 21
20.586306
  0
LINE
  8
_0-1_
  6
CONTINUOUS
 62
    4
 10
129.93523
 20
18.738884
 11
134.55124
 21
14.122871
  0
LINE
  8
_0-1_
  6
CONTINUOUS
 62
    4
 10
126.57723
 20
22.379728
 11
128.21067
 21
20.746282
  0
LINE
  8
_0-1_
  6
CONTINUOUS
 62
    4
 10
129.49028
 20
19.466678
 11
134.76881
 21
14.188143
  0
LINE
  8
_0-1_
  6
CONTINUOUS
 62
    4
 10
126.69738
 20
22.542415
 11
128.33354
 21
20.906259
  0
LINE
  8
_0-1_
  6
CONTINUOUS
 62
    4
 10
129.04532
 20
20.194472
 11
134.98638
 21
14.253414
  0
LINE
  8
_0-1_
  6
CONTINUOUS
 62
    4
 10
126.81754
 20
22.705103
 11
128.4564
 21
21.066235
  0
LINE
  8
_0-1_
  6
CONTINUOUS
 62
    4
 10
128.60037
 20
20.922266
 11
135.18431
 21
14.338324
  0
LINE
  8
_0-1_
  6
CONTINUOUS
 62
    4
 10
126.93769
 20
22.867791
 11
135.30271
 21
14.502768
  0
LINE
  8
_0-1_
  6
CONTINUOUS
 62
    4
 10
127.05785
 20
23.030478
 11
135.42111
 21
14.667211
  0
LINE
  8
_0-1_
  6
CONTINUOUS
 62
    4
 10
127.16372
 20
23.207444
 11
130.89778
 21
19.473388
  0
LINE
  8
_0-1_
  6
CONTINUOUS
 62
    4
 10
130.96871
 20
19.402456
 11
135.49863
 21
14.872538
  0
LINE
  8
_0-1_
  6
CONTINUOUS
 62
    4
 10
127.16372
 20
23.490286
 11
131.00131
 21
19.652703
  0
LINE
  8
_0-1_
  6
CONTINUOUS
 62
    4
 10
131.25155
 20
19.402456
 11
135.43124
 21
15.222765
  0
LINE
  8
_0-1_
  6
CONTINUOUS
 62
    4
 10
127.19023
 20
23.746627
 11
131.10483
 21
19.832018
  0
LINE
  8
_0-1_
  6
CONTINUOUS
 62
    4
 10
131.5344
 20
19.402456
 11
135.17726
 21
15.759596
  0
LINE
  8
_0-1_
  6
CONTINUOUS
 62
    4
 10
127.27508
 20
23.944617
 11
131.20836
 21
20.011333
  0
LINE
  8
_0-1_
  6
CONTINUOUS
 62
    4
 10
131.81724
 20
19.402456
 11
134.78779
 21
16.431903
  0
LINE
  8
_0-1_
  6
CONTINUOUS
 62
    4
 10
127.39226
 20
24.110276
 11
131.31189
 21
20.190648
  0
LINE
  8
_0-1_
  6
CONTINUOUS
 62
    4
 10
132.10008
 20
19.402456
 11
134.39833
 21
17.104211
  0
LINE
  8
_0-1_
  6
CONTINUOUS
 62
    4
 10
127.52536
 20
24.260016
 11
131.41542
 21
20.369963
  0
LINE
  8
_0-1_
  6
CONTINUOUS
 62
    4
 10
132.38292
 20
19.402456
 11
134.00886
 21
17.776518
  0
LINE
  8
_0-1_
  6
CONTINUOUS
 62
    4
 10
127.65847
 20
24.409756
 11
131.51894
 21
20.549278
  0
LINE
  8
_0-1_
  6
CONTINUOUS
 62
    4
 10
132.66577
 20
19.402456
 11
133.6194
 21
18.448825
  0
LINE
  8
_0-1_
  6
CONTINUOUS
 62
    4
 10
127.79741
 20
24.553659
 11
131.62247
 21
20.728593
  0
LINE
  8
_0-1_
  6
CONTINUOUS
 62
    4
 10
132.94861
 20
19.402456
 11
133.22993
 21
19.121132
  0
LINE
  8
_0-1_
  6
CONTINUOUS
 62
    4
 10
127.91312
 20
24.720793
 11
131.726
 21
20.907908
  0
LINE
  8
_0-1_
  6
CONTINUOUS
 62
    4
 10
128.06237
 20
24.854383
 11
131.82953
 21
21.087223
  0
LINE
  8
_0-1_
  6
CONTINUOUS
 62
    4
 10
128.31194
 20
24.887659
 11
131.93306
 21
21.266539
  0
LINE
  8
_0-1_
  6
CONTINUOUS
 62
    4
 10
128.55095
 20
24.931485
 11
131.58281
 21
21.899627
  0
LINE
  8
_0-1_
  6
CONTINUOUS
 62
    4
 10
128.78817
 20
24.977104
 11
131.1554
 21
22.609876
  0
LINE
  8
_0-1_
  6
CONTINUOUS
 62
    4
 10
129.04922
 20
24.998905
 11
130.728
 21
23.320126
  0
LINE
  8
_0-1_
  6
CONTINUOUS
 62
    4
 10
129.4262
 20
24.904765
 11
130.22694
 21
24.104022
  0
LINE
  8
_0-1_
  6
CONTINUOUS
 62
    7
 10
136.18781
 20
22.460123
 11
136.18781
 21
25.384147
  0
LINE
  8
_0-1_
  6
CONTINUOUS
 62
    7
 10
135.98781
 20
22.502007
 11
135.98781
 21
25.342263
  0
LINE
  8
_0-1_
  6
CONTINUOUS
 62
    7
 10
135.78781
 20
22.574527
 11
135.78781
 21
25.269743
  0
LINE
  8
_0-1_
  6
CONTINUOUS
 62
    7
 10
135.58781
 20
22.68305
 11
135.58781
 21
25.161221
  0
LINE
  8
_0-1_
  6
CONTINUOUS
 62
    7
 10
135.38781
 20
22.838337
 11
135.38781
 21
25.005933
  0
LINE
  8
_0-1_
  6
CONTINUOUS
 62
    7
 10
135.18781
 20
23.065454
 11
135.18781
 21
24.778816
  0
LINE
  8
_0-1_
  6
CONTINUOUS
 62
    7
 10
134.98781
 20
23.460413
 11
134.98781
 21
24.383858
  0
TEXT
  8
_0-1_
 62
    3
 10
196.77357
 20
17.95337
 40
6
 41
1
 50
0
  1
アドヴァン
  0
TEXT
  8
_0-1_
 62
    7
 10
172.27357
 20
13.93838
 40
3
 41
1
 50
0
  1
TEL 03-3475-0281　　FAX 03-3475-0429
  0
TEXT
  8
_0-1_
 62
    3
 10
173.27357
 20
18.45337
 40
5
 41
1
 50
0
  1
株式会社
  0
LINE
  8
_0-1_
  6
CONTINUOUS
 62
    2
 10
306.75121
 20
19.338966
 11
241.75121
 21
19.338966
  0
LINE
  8
_0-0_
  6
CONTINUOUS
 62
    7
 10
208.36011
 20
101.45512
 11
208.36011
 21
94.470197
  0
LINE
  8
_0-0_
  6
CONTINUOUS
 62
    7
 10
208.36011
 20
93.454238
 11
208.36011
 21
92.459295
  0
LINE
  8
_0-0_
  6
CONTINUOUS
 62
    7
 10
208.36011
 20
91.443336
 11
208.36011
 21
84.458405
  0
LINE
  8
_0-0_
  6
CONTINUOUS
 62
    7
 10
208.36011
 20
83.442446
 11
208.36011
 21
82.447503
  0
LINE
  8
_0-0_
  6
CONTINUOUS
 62
    7
 10
208.36011
 20
81.431544
 11
208.36011
 21
74.446613
  0
LINE
  8
_0-0_
  6
CONTINUOUS
 62
    7
 10
208.36011
 20
73.43031
 11
208.36011
 21
72.435711
  0
LINE
  8
_0-0_
  6
CONTINUOUS
 62
    7
 10
208.36011
 20
71.419752
 11
208.36011
 21
66.699627
  0
LINE
  8
_0-0_
  6
CONTINUOUS
 62
    7
 10
211.68325
 20
68.202377
 11
211.64087
 21
68.689169
  0
LINE
  8
_0-0_
  6
CONTINUOUS
 62
    7
 10
211.64087
 20
68.689169
 11
211.53511
 21
69.175961
  0
LINE
  8
_0-0_
  6
CONTINUOUS
 62
    7
 10
211.53511
 20
69.175961
 11
211.3446
 21
69.641738
  0
LINE
  8
_0-0_
  6
CONTINUOUS
 62
    7
 10
211.3446
 20
69.641738
 11
211.09035
 21
70.086156
  0
LINE
  8
_0-0_
  6
CONTINUOUS
 62
    7
 10
211.09035
 20
70.086156
 11
210.79407
 21
70.467183
  0
LINE
  8
_0-0_
  6
CONTINUOUS
 62
    7
 10
210.79407
 20
70.467183
 11
210.4344
 21
70.805836
  0
LINE
  8
_0-0_
  6
CONTINUOUS
 62
    7
 10
210.4344
 20
70.805836
 11
210.011
 21
71.081099
  0
LINE
  8
_0-0_
  6
CONTINUOUS
 62
    7
 10
210.011
 20
71.081099
 11
209.56658
 21
71.292628
  0
LINE
  8
_0-0_
  6
CONTINUOUS
 62
    7
 10
209.56658
 20
71.292628
 11
209.1008
 21
71.440767
  0
LINE
  8
_0-0_
  6
CONTINUOUS
 62
    7
 10
209.1008
 20
71.440767
 11
208.59265
 21
71.525517
  0
LINE
  8
_0-0_
  6
CONTINUOUS
 62
    7
 10
208.59265
 20
71.525517
 11
208.10586
 21
71.525517
  0
LINE
  8
_0-0_
  6
CONTINUOUS
 62
    7
 10
208.10586
 20
71.525517
 11
207.61907
 21
71.440767
  0
LINE
  8
_0-0_
  6
CONTINUOUS
 62
    7
 10
207.61907
 20
71.440767
 11
207.13228
 21
71.292628
  0
LINE
  8
_0-0_
  6
CONTINUOUS
 62
    7
 10
207.13228
 20
71.292628
 11
206.68786
 21
71.081099
  0
LINE
  8
_0-0_
  6
CONTINUOUS
 62
    7
 10
206.68786
 20
71.081099
 11
206.28564
 21
70.805836
  0
LINE
  8
_0-0_
  6
CONTINUOUS
 62
    7
 10
206.28564
 20
70.805836
 11
205.90462
 21
70.467183
  0
LINE
  8
_0-0_
  6
CONTINUOUS
 62
    7
 10
205.90462
 20
70.467183
 11
205.60834
 21
70.086156
  0
LINE
  8
_0-0_
  6
CONTINUOUS
 62
    7
 10
205.60834
 20
70.086156
 11
205.35426
 21
69.641738
  0
LINE
  8
_0-0_
  6
CONTINUOUS
 62
    7
 10
205.35426
 20
69.641738
 11
205.16375
 21
69.175961
  0
LINE
  8
_0-0_
  6
CONTINUOUS
 62
    7
 10
205.16375
 20
69.175961
 11
205.05799
 21
68.689169
  0
LINE
  8
_0-0_
  6
CONTINUOUS
 62
    7
 10
205.05799
 20
68.689169
 11
205.01561
 21
68.202377
  0
LINE
  8
_0-0_
  6
CONTINUOUS
 62
    7
 10
246.60825
 20
68.202377
 11
239.62332
 21
68.202377
  0
LINE
  8
_0-0_
  6
CONTINUOUS
 62
    7
 10
238.60701
 20
68.202377
 11
237.61241
 21
68.202377
  0
LINE
  8
_0-0_
  6
CONTINUOUS
 62
    7
 10
236.59646
 20
68.202377
 11
229.61118
 21
68.202377
  0
LINE
  8
_0-0_
  6
CONTINUOUS
 62
    7
 10
228.59522
 20
68.202377
 11
227.60062
 21
68.202377
  0
LINE
  8
_0-0_
  6
CONTINUOUS
 62
    7
 10
226.58432
 20
68.202377
 11
219.59939
 21
68.202377
  0
LINE
  8
_0-0_
  6
CONTINUOUS
 62
    7
 10
218.58343
 20
68.202377
 11
217.58849
 21
68.202377
  0
LINE
  8
_0-0_
  6
CONTINUOUS
 62
    7
 10
216.57253
 20
68.202377
 11
209.5876
 21
68.202377
  0
LINE
  8
_0-0_
  6
CONTINUOUS
 62
    7
 10
208.57164
 20
68.202377
 11
207.57687
 21
68.202377
  0
LINE
  8
_0-0_
  6
CONTINUOUS
 62
    7
 10
206.56074
 20
68.202377
 11
199.5758
 21
68.202377
  0
LINE
  8
_0-0_
  6
CONTINUOUS
 62
    7
 10
198.55985
 20
68.202377
 11
197.5649
 21
68.202377
  0
LINE
  8
_0-0_
  6
CONTINUOUS
 62
    7
 10
196.54894
 20
68.202377
 11
189.56401
 21
68.202377
  0
LINE
  8
_0-0_
  6
CONTINUOUS
 62
    7
 10
188.54805
 20
68.202377
 11
187.55311
 21
68.202377
  0
LINE
  8
_0-0_
  6
CONTINUOUS
 62
    7
 10
186.53715
 20
68.202377
 11
179.55222
 21
68.202377
  0
LINE
  8
_0-0_
  6
CONTINUOUS
 62
    7
 10
178.53609
 20
68.202377
 11
177.54132
 21
68.202377
  0
LINE
  8
_0-0_
  6
CONTINUOUS
 62
    7
 10
176.52536
 20
68.202377
 11
170.59859
 21
68.202377
  0
LINE
  8
_0-0_
  6
CONTINUOUS
 62
    7
 10
227.07146
 20
68.202377
 11
227.02908
 21
69.40885
  0
LINE
  8
_0-0_
  6
CONTINUOUS
 62
    7
 10
227.02908
 20
69.40885
 11
226.92332
 21
70.594307
  0
LINE
  8
_0-0_
  6
CONTINUOUS
 62
    7
 10
226.92332
 20
70.594307
 11
226.7328
 21
71.77942
  0
LINE
  8
_0-0_
  6
CONTINUOUS
 62
    7
 10
226.7328
 20
71.77942
 11
226.45754
 21
72.943518
  0
LINE
  8
_0-0_
  6
CONTINUOUS
 62
    7
 10
226.45754
 20
72.943518
 11
226.11889
 21
74.10796
  0
LINE
  8
_0-0_
  6
CONTINUOUS
 62
    7
 10
226.11889
 20
74.10796
 11
225.69549
 21
75.229683
  0
LINE
  8
_0-0_
  6
CONTINUOUS
 62
    7
 10
225.69549
 20
75.229683
 11
225.20869
 21
76.330391
  0
LINE
  8
_0-0_
  6
CONTINUOUS
 62
    7
 10
225.20869
 20
76.330391
 11
224.65817
 21
77.388725
  0
LINE
  8
_0-0_
  6
CONTINUOUS
 62
    7
 10
224.65817
 20
77.388725
 11
224.0446
 21
78.425698
  0
LINE
  8
_0-0_
  6
CONTINUOUS
 62
    7
 10
224.0446
 20
78.425698
 11
223.34593
 21
79.399627
  0
LINE
  8
_0-0_
  6
CONTINUOUS
 62
    7
 10
223.34593
 20
79.399627
 11
222.60523
 21
80.330836
  0
LINE
  8
_0-0_
  6
CONTINUOUS
 62
    7
 10
222.60523
 20
80.330836
 11
221.8008
 21
81.219671
  0
LINE
  8
_0-0_
  6
CONTINUOUS
 62
    7
 10
221.8008
 20
81.219671
 11
220.93299
 21
82.066475
  0
LINE
  8
_0-0_
  6
CONTINUOUS
 62
    7
 10
220.93299
 20
82.066475
 11
220.02279
 21
82.849545
  0
LINE
  8
_0-0_
  6
CONTINUOUS
 62
    7
 10
220.02279
 20
82.849545
 11
219.07022
 21
83.548211
  0
LINE
  8
_0-0_
  6
CONTINUOUS
 62
    7
 10
219.07022
 20
83.548211
 11
218.05426
 21
84.204157
  0
LINE
  8
_0-0_
  6
CONTINUOUS
 62
    7
 10
218.05426
 20
84.204157
 11
217.01729
 21
84.797058
  0
LINE
  8
_0-0_
  6
CONTINUOUS
 62
    7
 10
217.01729
 20
84.797058
 11
215.9376
 21
85.326225
  0
LINE
  8
_0-0_
  6
CONTINUOUS
 62
    7
 10
215.9376
 20
85.326225
 11
214.81587
 21
85.770642
  0
LINE
  8
_0-0_
  6
CONTINUOUS
 62
    7
 10
214.81587
 20
85.770642
 11
213.67279
 21
86.151669
  0
LINE
  8
_0-0_
  6
CONTINUOUS
 62
    7
 10
213.67279
 20
86.151669
 11
212.50869
 21
86.447948
  0
LINE
  8
_0-0_
  6
CONTINUOUS
 62
    7
 10
212.50869
 20
86.447948
 11
211.3446
 21
86.680836
  0
LINE
  8
_0-0_
  6
CONTINUOUS
 62
    7
 10
211.3446
 20
86.680836
 11
210.13812
 21
86.828975
  0
LINE
  8
_0-0_
  6
CONTINUOUS
 62
    7
 10
210.13812
 20
86.828975
 11
208.95267
 21
86.913725
  0
LINE
  8
_0-0_
  6
CONTINUOUS
 62
    7
 10
208.95267
 20
86.913725
 11
207.74619
 21
86.913725
  0
LINE
  8
_0-0_
  6
CONTINUOUS
 62
    7
 10
207.74619
 20
86.913725
 11
206.56074
 21
86.828975
  0
LINE
  8
_0-0_
  6
CONTINUOUS
 62
    7
 10
206.56074
 20
86.828975
 11
205.35426
 21
86.680836
  0
LINE
  8
_0-0_
  6
CONTINUOUS
 62
    7
 10
205.35426
 20
86.680836
 11
204.19017
 21
86.447948
  0
LINE
  8
_0-0_
  6
CONTINUOUS
 62
    7
 10
204.19017
 20
86.447948
 11
203.02607
 21
86.151669
  0
LINE
  8
_0-0_
  6
CONTINUOUS
 62
    7
 10
203.02607
 20
86.151669
 11
201.88299
 21
85.770642
  0
LINE
  8
_0-0_
  6
CONTINUOUS
 62
    7
 10
201.88299
 20
85.770642
 11
200.78228
 21
85.326225
  0
LINE
  8
_0-0_
  6
CONTINUOUS
 62
    7
 10
200.78228
 20
85.326225
 11
199.68157
 21
84.797058
  0
LINE
  8
_0-0_
  6
CONTINUOUS
 62
    7
 10
199.68157
 20
84.797058
 11
198.64442
 21
84.204157
  0
LINE
  8
_0-0_
  6
CONTINUOUS
 62
    7
 10
198.64442
 20
84.204157
 11
197.64965
 21
83.548211
  0
LINE
  8
_0-0_
  6
CONTINUOUS
 62
    7
 10
197.64965
 20
83.548211
 11
196.67607
 21
82.849545
  0
LINE
  8
_0-0_
  6
CONTINUOUS
 62
    7
 10
196.67607
 20
82.849545
 11
195.76587
 21
82.066475
  0
LINE
  8
_0-0_
  6
CONTINUOUS
 62
    7
 10
195.76587
 20
82.066475
 11
194.89805
 21
81.219671
  0
LINE
  8
_0-0_
  6
CONTINUOUS
 62
    7
 10
194.89805
 20
81.219671
 11
194.09362
 21
80.330836
  0
LINE
  8
_0-0_
  6
CONTINUOUS
 62
    7
 10
194.09362
 20
80.330836
 11
193.35276
 21
79.399627
  0
LINE
  8
_0-0_
  6
CONTINUOUS
 62
    7
 10
193.35276
 20
79.399627
 11
192.65426
 21
78.425698
  0
LINE
  8
_0-0_
  6
CONTINUOUS
 62
    7
 10
192.65426
 20
78.425698
 11
192.04052
 21
77.388725
  0
LINE
  8
_0-0_
  6
CONTINUOUS
 62
    7
 10
192.04052
 20
77.388725
 11
191.49017
 21
76.330391
  0
LINE
  8
_0-0_
  6
CONTINUOUS
 62
    7
 10
191.49017
 20
76.330391
 11
191.00337
 21
75.229683
  0
LINE
  8
_0-0_
  6
CONTINUOUS
 62
    7
 10
191.00337
 20
75.229683
 11
190.57997
 21
74.10796
  0
LINE
  8
_0-0_
  6
CONTINUOUS
 62
    7
 10
190.57997
 20
74.10796
 11
190.24132
 21
72.943518
  0
LINE
  8
_0-0_
  6
CONTINUOUS
 62
    7
 10
190.24132
 20
72.943518
 11
189.96623
 21
71.77942
  0
LINE
  8
_0-0_
  6
CONTINUOUS
 62
    7
 10
189.96623
 20
71.77942
 11
189.77571
 21
70.594307
  0
LINE
  8
_0-0_
  6
CONTINUOUS
 62
    7
 10
189.77571
 20
70.594307
 11
189.66978
 21
69.40885
  0
LINE
  8
_0-0_
  6
CONTINUOUS
 62
    7
 10
189.66978
 20
69.40885
 11
189.6274
 21
68.202377
  0
LINE
  8
_0-0_
  6
CONTINUOUS
 62
    7
 10
225.37785
 20
68.202377
 11
225.33582
 21
69.366475
  0
LINE
  8
_0-0_
  6
CONTINUOUS
 62
    7
 10
225.33582
 20
69.366475
 11
225.20869
 21
70.509558
  0
LINE
  8
_0-0_
  6
CONTINUOUS
 62
    7
 10
225.20869
 20
70.509558
 11
225.01818
 21
71.673656
  0
LINE
  8
_0-0_
  6
CONTINUOUS
 62
    7
 10
225.01818
 20
71.673656
 11
224.74292
 21
72.795379
  0
LINE
  8
_0-0_
  6
CONTINUOUS
 62
    7
 10
224.74292
 20
72.795379
 11
224.38325
 21
73.896087
  0
LINE
  8
_0-0_
  6
CONTINUOUS
 62
    7
 10
224.38325
 20
73.896087
 11
223.95985
 21
74.97578
  0
LINE
  8
_0-0_
  6
CONTINUOUS
 62
    7
 10
223.95985
 20
74.97578
 11
223.45169
 21
76.034113
  0
LINE
  8
_0-0_
  6
CONTINUOUS
 62
    7
 10
223.45169
 20
76.034113
 11
222.90151
 21
77.050072
  0
LINE
  8
_0-0_
  6
CONTINUOUS
 62
    7
 10
222.90151
 20
77.050072
 11
222.24522
 21
78.023656
  0
LINE
  8
_0-0_
  6
CONTINUOUS
 62
    7
 10
222.24522
 20
78.023656
 11
221.5469
 21
78.93385
  0
LINE
  8
_0-0_
  6
CONTINUOUS
 62
    7
 10
221.5469
 20
78.93385
 11
220.78485
 21
79.822685
  0
LINE
  8
_0-0_
  6
CONTINUOUS
 62
    7
 10
220.78485
 20
79.822685
 11
219.9594
 21
80.648474
  0
LINE
  8
_0-0_
  6
CONTINUOUS
 62
    7
 10
219.9594
 20
80.648474
 11
219.09158
 21
81.410185
  0
LINE
  8
_0-0_
  6
CONTINUOUS
 62
    7
 10
219.09158
 20
81.410185
 11
218.16003
 21
82.10885
  0
LINE
  8
_0-0_
  6
CONTINUOUS
 62
    7
 10
218.16003
 20
82.10885
 11
217.18644
 21
82.743781
  0
LINE
  8
_0-0_
  6
CONTINUOUS
 62
    7
 10
217.18644
 20
82.743781
 11
216.17049
 21
83.315322
  0
LINE
  8
_0-0_
  6
CONTINUOUS
 62
    7
 10
216.17049
 20
83.315322
 11
215.13317
 21
83.802114
  0
LINE
  8
_0-0_
  6
CONTINUOUS
 62
    7
 10
215.13317
 20
83.802114
 11
214.05382
 21
84.246532
  0
LINE
  8
_0-0_
  6
CONTINUOUS
 62
    7
 10
214.05382
 20
84.246532
 11
212.9321
 21
84.585185
  0
LINE
  8
_0-0_
  6
CONTINUOUS
 62
    7
 10
212.9321
 20
84.585185
 11
211.81003
 21
84.860448
  0
LINE
  8
_0-0_
  6
CONTINUOUS
 62
    7
 10
211.81003
 20
84.860448
 11
210.66729
 21
85.071977
  0
LINE
  8
_0-0_
  6
CONTINUOUS
 62
    7
 10
210.66729
 20
85.071977
 11
209.50285
 21
85.178085
  0
LINE
  8
_0-0_
  6
CONTINUOUS
 62
    7
 10
209.50285
 20
85.178085
 11
208.36011
 21
85.22046
  0
LINE
  8
_0-0_
  6
CONTINUOUS
 62
    7
 10
208.36011
 20
85.22046
 11
207.19584
 21
85.178085
  0
LINE
  8
_0-0_
  6
CONTINUOUS
 62
    7
 10
207.19584
 20
85.178085
 11
206.03157
 21
85.071977
  0
LINE
  8
_0-0_
  6
CONTINUOUS
 62
    7
 10
206.03157
 20
85.071977
 11
204.88866
 21
84.860448
  0
LINE
  8
_0-0_
  6
CONTINUOUS
 62
    7
 10
204.88866
 20
84.860448
 11
203.76676
 21
84.585185
  0
LINE
  8
_0-0_
  6
CONTINUOUS
 62
    7
 10
203.76676
 20
84.585185
 11
202.64504
 21
84.246532
  0
LINE
  8
_0-0_
  6
CONTINUOUS
 62
    7
 10
202.64504
 20
84.246532
 11
201.56552
 21
83.802114
  0
LINE
  8
_0-0_
  6
CONTINUOUS
 62
    7
 10
201.56552
 20
83.802114
 11
200.52837
 21
83.315322
  0
LINE
  8
_0-0_
  6
CONTINUOUS
 62
    7
 10
200.52837
 20
83.315322
 11
199.51224
 21
82.743781
  0
LINE
  8
_0-0_
  6
CONTINUOUS
 62
    7
 10
199.51224
 20
82.743781
 11
198.53866
 21
82.10885
  0
LINE
  8
_0-0_
  6
CONTINUOUS
 62
    7
 10
198.53866
 20
82.10885
 11
197.60728
 21
81.410185
  0
LINE
  8
_0-0_
  6
CONTINUOUS
 62
    7
 10
197.60728
 20
81.410185
 11
196.73946
 21
80.648474
  0
LINE
  8
_0-0_
  6
CONTINUOUS
 62
    7
 10
196.73946
 20
80.648474
 11
195.91401
 21
79.822685
  0
LINE
  8
_0-0_
  6
CONTINUOUS
 62
    7
 10
195.91401
 20
79.822685
 11
195.15196
 21
78.93385
  0
LINE
  8
_0-0_
  6
CONTINUOUS
 62
    7
 10
195.15196
 20
78.93385
 11
194.45346
 21
78.023656
  0
LINE
  8
_0-0_
  6
CONTINUOUS
 62
    7
 10
194.45346
 20
78.023656
 11
193.81853
 21
77.050072
  0
LINE
  8
_0-0_
  6
CONTINUOUS
 62
    7
 10
193.81853
 20
77.050072
 11
193.24699
 21
76.034113
  0
LINE
  8
_0-0_
  6
CONTINUOUS
 62
    7
 10
193.24699
 20
76.034113
 11
192.73901
 21
74.97578
  0
LINE
  8
_0-0_
  6
CONTINUOUS
 62
    7
 10
192.73901
 20
74.97578
 11
192.31561
 21
73.896087
  0
LINE
  8
_0-0_
  6
CONTINUOUS
 62
    7
 10
192.31561
 20
73.896087
 11
191.95577
 21
72.795379
  0
LINE
  8
_0-0_
  6
CONTINUOUS
 62
    7
 10
191.95577
 20
72.795379
 11
191.68068
 21
71.673656
  0
LINE
  8
_0-0_
  6
CONTINUOUS
 62
    7
 10
191.68068
 20
71.673656
 11
191.49017
 21
70.509558
  0
LINE
  8
_0-0_
  6
CONTINUOUS
 62
    7
 10
191.49017
 20
70.509558
 11
191.36321
 21
69.366475
  0
LINE
  8
_0-0_
  6
CONTINUOUS
 62
    7
 10
191.36321
 20
69.366475
 11
191.32084
 21
68.202377
  0
LINE
  8
_0-0_
  6
CONTINUOUS
 62
    7
 10
198.36933
 20
79.484032
 11
197.58609
 21
78.743336
  0
LINE
  8
_0-0_
  6
CONTINUOUS
 62
    7
 10
197.58609
 20
78.743336
 11
196.84539
 21
77.938906
  0
LINE
  8
_0-0_
  6
CONTINUOUS
 62
    7
 10
196.84539
 20
77.938906
 11
196.1891
 21
77.092446
  0
LINE
  8
_0-0_
  6
CONTINUOUS
 62
    7
 10
196.1891
 20
77.092446
 11
195.57536
 21
76.203267
  0
LINE
  8
_0-0_
  6
CONTINUOUS
 62
    7
 10
195.57536
 20
76.203267
 11
195.04619
 21
75.272058
  0
LINE
  8
_0-0_
  6
CONTINUOUS
 62
    7
 10
195.04619
 20
75.272058
 11
194.58042
 21
74.298474
  0
LINE
  8
_0-0_
  6
CONTINUOUS
 62
    7
 10
194.58042
 20
74.298474
 11
194.17837
 21
73.282171
  0
LINE
  8
_0-0_
  6
CONTINUOUS
 62
    7
 10
194.17837
 20
73.282171
 11
193.83972
 21
72.266212
  0
LINE
  8
_0-0_
  6
CONTINUOUS
 62
    7
 10
193.83972
 20
72.266212
 11
193.58564
 21
71.207879
  0
LINE
  8
_0-0_
  6
CONTINUOUS
 62
    7
 10
200.14735
 20
68.202377
 11
200.12616
 21
68.752559
  0
LINE
  8
_0-0_
  6
CONTINUOUS
 62
    7
 10
200.12616
 20
68.752559
 11
199.99921
 21
69.281726
  0
LINE
  8
_0-0_
  6
CONTINUOUS
 62
    7
 10
199.99921
 20
69.281726
 11
199.82988
 21
69.789877
  0
LINE
  8
_0-0_
  6
CONTINUOUS
 62
    7
 10
199.82988
 20
69.789877
 11
199.5758
 21
70.276669
  0
LINE
  8
_0-0_
  6
CONTINUOUS
 62
    7
 10
199.5758
 20
70.276669
 11
199.25834
 21
70.700072
  0
LINE
  8
_0-0_
  6
CONTINUOUS
 62
    7
 10
199.25834
 20
70.700072
 11
198.8985
 21
71.102114
  0
LINE
  8
_0-0_
  6
CONTINUOUS
 62
    7
 10
198.8985
 20
71.102114
 11
198.4751
 21
71.440767
  0
LINE
  8
_0-0_
  6
CONTINUOUS
 62
    7
 10
198.4751
 20
71.440767
 11
198.00949
 21
71.737045
  0
LINE
  8
_0-0_
  6
CONTINUOUS
 62
    7
 10
198.00949
 20
71.737045
 11
197.5227
 21
71.948919
  0
LINE
  8
_0-0_
  6
CONTINUOUS
 62
    7
 10
197.5227
 20
71.948919
 11
196.99353
 21
72.097058
  0
LINE
  8
_0-0_
  6
CONTINUOUS
 62
    7
 10
196.99353
 20
72.097058
 11
196.46437
 21
72.160448
  0
LINE
  8
_0-0_
  6
CONTINUOUS
 62
    7
 10
196.46437
 20
72.160448
 11
195.91401
 21
72.160448
  0
LINE
  8
_0-0_
  6
CONTINUOUS
 62
    7
 10
195.91401
 20
72.160448
 11
195.38485
 21
72.097058
  0
LINE
  8
_0-0_
  6
CONTINUOUS
 62
    7
 10
195.38485
 20
72.097058
 11
194.85568
 21
71.948919
  0
LINE
  8
_0-0_
  6
CONTINUOUS
 62
    7
 10
194.85568
 20
71.948919
 11
194.3477
 21
71.737045
  0
LINE
  8
_0-0_
  6
CONTINUOUS
 62
    7
 10
194.3477
 20
71.737045
 11
193.88192
 21
71.440767
  0
LINE
  8
_0-0_
  6
CONTINUOUS
 62
    7
 10
193.88192
 20
71.440767
 11
193.47988
 21
71.102114
  0
LINE
  8
_0-0_
  6
CONTINUOUS
 62
    7
 10
193.47988
 20
71.102114
 11
193.09885
 21
70.700072
  0
LINE
  8
_0-0_
  6
CONTINUOUS
 62
    7
 10
193.09885
 20
70.700072
 11
192.78139
 21
70.276669
  0
LINE
  8
_0-0_
  6
CONTINUOUS
 62
    7
 10
192.78139
 20
70.276669
 11
192.5485
 21
69.789877
  0
LINE
  8
_0-0_
  6
CONTINUOUS
 62
    7
 10
192.5485
 20
69.789877
 11
192.35799
 21
69.281726
  0
LINE
  8
_0-0_
  6
CONTINUOUS
 62
    7
 10
192.35799
 20
69.281726
 11
192.25222
 21
68.752559
  0
LINE
  8
_0-0_
  6
CONTINUOUS
 62
    7
 10
192.25222
 20
68.752559
 11
192.20985
 21
68.202377
  0
LINE
  8
_0-0_
  6
CONTINUOUS
 62
    7
 10
224.48901
 20
68.202377
 11
224.44664
 21
68.752559
  0
LINE
  8
_0-0_
  6
CONTINUOUS
 62
    7
 10
224.44664
 20
68.752559
 11
224.34087
 21
69.281726
  0
LINE
  8
_0-0_
  6
CONTINUOUS
 62
    7
 10
224.34087
 20
69.281726
 11
224.17137
 21
69.789877
  0
LINE
  8
_0-0_
  6
CONTINUOUS
 62
    7
 10
224.17137
 20
69.789877
 11
223.91747
 21
70.276669
  0
LINE
  8
_0-0_
  6
CONTINUOUS
 62
    7
 10
223.91747
 20
70.276669
 11
223.59983
 21
70.700072
  0
LINE
  8
_0-0_
  6
CONTINUOUS
 62
    7
 10
223.59983
 20
70.700072
 11
223.21915
 21
71.102114
  0
LINE
  8
_0-0_
  6
CONTINUOUS
 62
    7
 10
223.21915
 20
71.102114
 11
222.81676
 21
71.440767
  0
LINE
  8
_0-0_
  6
CONTINUOUS
 62
    7
 10
222.81676
 20
71.440767
 11
222.35099
 21
71.737045
  0
LINE
  8
_0-0_
  6
CONTINUOUS
 62
    7
 10
222.35099
 20
71.737045
 11
221.84318
 21
71.948919
  0
LINE
  8
_0-0_
  6
CONTINUOUS
 62
    7
 10
221.84318
 20
71.948919
 11
221.33503
 21
72.097058
  0
LINE
  8
_0-0_
  6
CONTINUOUS
 62
    7
 10
221.33503
 20
72.097058
 11
220.78485
 21
72.160448
  0
LINE
  8
_0-0_
  6
CONTINUOUS
 62
    7
 10
220.78485
 20
72.160448
 11
220.25568
 21
72.160448
  0
LINE
  8
_0-0_
  6
CONTINUOUS
 62
    7
 10
220.25568
 20
72.160448
 11
219.70515
 21
72.097058
  0
LINE
  8
_0-0_
  6
CONTINUOUS
 62
    7
 10
219.70515
 20
72.097058
 11
219.19735
 21
71.948919
  0
LINE
  8
_0-0_
  6
CONTINUOUS
 62
    7
 10
219.19735
 20
71.948919
 11
218.68919
 21
71.737045
  0
LINE
  8
_0-0_
  6
CONTINUOUS
 62
    7
 10
218.68919
 20
71.737045
 11
218.22376
 21
71.440767
  0
LINE
  8
_0-0_
  6
CONTINUOUS
 62
    7
 10
218.22376
 20
71.440767
 11
217.80036
 21
71.102114
  0
LINE
  8
_0-0_
  6
CONTINUOUS
 62
    7
 10
217.80036
 20
71.102114
 11
217.44035
 21
70.700072
  0
LINE
  8
_0-0_
  6
CONTINUOUS
 62
    7
 10
217.44035
 20
70.700072
 11
217.12305
 21
70.276669
  0
LINE
  8
_0-0_
  6
CONTINUOUS
 62
    7
 10
217.12305
 20
70.276669
 11
216.86915
 21
69.789877
  0
LINE
  8
_0-0_
  6
CONTINUOUS
 62
    7
 10
216.86915
 20
69.789877
 11
216.69965
 21
69.281726
  0
LINE
  8
_0-0_
  6
CONTINUOUS
 62
    7
 10
216.69965
 20
69.281726
 11
216.57253
 21
68.752559
  0
LINE
  8
_0-0_
  6
CONTINUOUS
 62
    7
 10
216.57253
 20
68.752559
 11
216.55151
 21
68.202377
  0
LINE
  8
_0-0_
  6
CONTINUOUS
 62
    7
 10
210.98458
 20
80.732879
 11
210.75169
 21
80.225072
  0
LINE
  8
_0-0_
  6
CONTINUOUS
 62
    7
 10
210.75169
 20
80.225072
 11
210.58254
 21
79.695905
  0
LINE
  8
_0-0_
  6
CONTINUOUS
 62
    7
 10
210.58254
 20
79.695905
 11
210.47678
 21
79.145379
  0
LINE
  8
_0-0_
  6
CONTINUOUS
 62
    7
 10
210.47678
 20
79.145379
 11
210.45542
 21
78.595197
  0
LINE
  8
_0-0_
  6
CONTINUOUS
 62
    7
 10
210.45542
 20
78.595197
 11
210.51915
 21
78.044671
  0
LINE
  8
_0-0_
  6
CONTINUOUS
 62
    7
 10
210.51915
 20
78.044671
 11
210.64593
 21
77.515504
  0
LINE
  8
_0-0_
  6
CONTINUOUS
 62
    7
 10
210.64593
 20
77.515504
 11
210.8578
 21
77.007697
  0
LINE
  8
_0-0_
  6
CONTINUOUS
 62
    7
 10
210.8578
 20
77.007697
 11
211.13272
 21
76.520905
  0
LINE
  8
_0-0_
  6
CONTINUOUS
 62
    7
 10
211.13272
 20
76.520905
 11
211.47137
 21
76.076143
  0
LINE
  8
_0-0_
  6
CONTINUOUS
 62
    7
 10
211.47137
 20
76.076143
 11
211.87376
 21
75.69546
  0
LINE
  8
_0-0_
  6
CONTINUOUS
 62
    7
 10
211.87376
 20
75.69546
 11
212.31818
 21
75.377822
  0
LINE
  8
_0-0_
  6
CONTINUOUS
 62
    7
 10
212.31818
 20
75.377822
 11
212.82599
 21
75.102559
  0
LINE
  8
_0-0_
  6
CONTINUOUS
 62
    7
 10
212.82599
 20
75.102559
 11
213.33414
 21
74.912045
  0
LINE
  8
_0-0_
  6
CONTINUOUS
 62
    7
 10
213.33414
 20
74.912045
 11
213.88432
 21
74.806281
  0
LINE
  8
_0-0_
  6
CONTINUOUS
 62
    7
 10
213.88432
 20
74.806281
 11
214.43485
 21
74.763906
  0
LINE
  8
_0-0_
  6
CONTINUOUS
 62
    7
 10
214.43485
 20
74.763906
 11
214.98503
 21
74.806281
  0
LINE
  8
_0-0_
  6
CONTINUOUS
 62
    7
 10
214.98503
 20
74.806281
 11
215.53555
 21
74.912045
  0
LINE
  8
_0-0_
  6
CONTINUOUS
 62
    7
 10
215.53555
 20
74.912045
 11
216.04336
 21
75.102559
  0
LINE
  8
_0-0_
  6
CONTINUOUS
 62
    7
 10
216.04336
 20
75.102559
 11
216.53015
 21
75.377822
  0
LINE
  8
_0-0_
  6
CONTINUOUS
 62
    7
 10
216.53015
 20
75.377822
 11
216.99593
 21
75.69546
  0
LINE
  8
_0-0_
  6
CONTINUOUS
 62
    7
 10
216.99593
 20
75.69546
 11
217.37696
 21
76.076143
  0
LINE
  8
_0-0_
  6
CONTINUOUS
 62
    7
 10
217.37696
 20
76.076143
 11
217.73697
 21
76.520905
  0
LINE
  8
_0-0_
  6
CONTINUOUS
 62
    7
 10
217.73697
 20
76.520905
 11
218.01189
 21
77.007697
  0
LINE
  8
_0-0_
  6
CONTINUOUS
 62
    7
 10
218.01189
 20
77.007697
 11
218.2024
 21
77.515504
  0
LINE
  8
_0-0_
  6
CONTINUOUS
 62
    7
 10
218.2024
 20
77.515504
 11
218.35054
 21
78.044671
  0
LINE
  8
_0-0_
  6
CONTINUOUS
 62
    7
 10
218.35054
 20
78.044671
 11
218.41428
 21
78.595197
  0
LINE
  8
_0-0_
  6
CONTINUOUS
 62
    7
 10
218.41428
 20
78.595197
 11
218.39292
 21
79.145379
  0
LINE
  8
_0-0_
  6
CONTINUOUS
 62
    7
 10
218.39292
 20
79.145379
 11
218.28715
 21
79.695905
  0
LINE
  8
_0-0_
  6
CONTINUOUS
 62
    7
 10
218.28715
 20
79.695905
 11
218.11765
 21
80.225072
  0
LINE
  8
_0-0_
  6
CONTINUOUS
 62
    7
 10
218.11765
 20
80.225072
 11
217.86375
 21
80.732879
  0
LINE
  8
_0-0_
  6
CONTINUOUS
 62
    7
 10
217.86375
 20
80.732879
 11
217.56747
 21
81.177641
  0
LINE
  8
_0-0_
  6
CONTINUOUS
 62
    7
 10
217.56747
 20
81.177641
 11
217.18644
 21
81.600698
  0
LINE
  8
_0-0_
  6
CONTINUOUS
 62
    7
 10
217.18644
 20
81.600698
 11
216.76304
 21
81.960711
  0
LINE
  8
_0-0_
  6
CONTINUOUS
 62
    7
 10
216.76304
 20
81.960711
 11
216.29761
 21
82.256989
  0
LINE
  8
_0-0_
  6
CONTINUOUS
 62
    7
 10
216.29761
 20
82.256989
 11
215.78946
 21
82.468518
  0
LINE
  8
_0-0_
  6
CONTINUOUS
 62
    7
 10
215.78946
 20
82.468518
 11
215.26029
 21
82.616657
  0
LINE
  8
_0-0_
  6
CONTINUOUS
 62
    7
 10
215.26029
 20
82.616657
 11
214.71011
 21
82.701406
  0
LINE
  8
_0-0_
  6
CONTINUOUS
 62
    7
 10
214.71011
 20
82.701406
 11
214.15958
 21
82.701406
  0
LINE
  8
_0-0_
  6
CONTINUOUS
 62
    7
 10
214.15958
 20
82.701406
 11
213.6094
 21
82.616657
  0
LINE
  8
_0-0_
  6
CONTINUOUS
 62
    7
 10
213.6094
 20
82.616657
 11
213.08023
 21
82.468518
  0
LINE
  8
_0-0_
  6
CONTINUOUS
 62
    7
 10
213.08023
 20
82.468518
 11
212.57208
 21
82.256989
  0
LINE
  8
_0-0_
  6
CONTINUOUS
 62
    7
 10
212.57208
 20
82.256989
 11
212.10665
 21
81.960711
  0
LINE
  8
_0-0_
  6
CONTINUOUS
 62
    7
 10
212.10665
 20
81.960711
 11
211.68325
 21
81.600698
  0
LINE
  8
_0-0_
  6
CONTINUOUS
 62
    7
 10
211.68325
 20
81.600698
 11
211.30222
 21
81.177641
  0
LINE
  8
_0-0_
  6
CONTINUOUS
 62
    7
 10
211.30222
 20
81.177641
 11
210.98458
 21
80.732879
  0
LINE
  8
_0-0_
  6
CONTINUOUS
 62
    7
 10
198.83494
 20
76.753793
 11
199.13139
 21
76.288017
  0
LINE
  8
_0-0_
  6
CONTINUOUS
 62
    7
 10
199.13139
 20
76.288017
 11
199.51224
 21
75.885974
  0
LINE
  8
_0-0_
  6
CONTINUOUS
 62
    7
 10
199.51224
 20
75.885974
 11
199.93564
 21
75.525961
  0
LINE
  8
_0-0_
  6
CONTINUOUS
 62
    7
 10
199.93564
 20
75.525961
 11
200.40125
 21
75.229683
  0
LINE
  8
_0-0_
  6
CONTINUOUS
 62
    7
 10
200.40125
 20
75.229683
 11
200.9094
 21
74.996795
  0
LINE
  8
_0-0_
  6
CONTINUOUS
 62
    7
 10
200.9094
 20
74.996795
 11
201.43857
 21
74.848656
  0
LINE
  8
_0-0_
  6
CONTINUOUS
 62
    7
 10
201.43857
 20
74.848656
 11
201.98875
 21
74.785266
  0
LINE
  8
_0-0_
  6
CONTINUOUS
 62
    7
 10
201.98875
 20
74.785266
 11
202.5391
 21
74.785266
  0
LINE
  8
_0-0_
  6
CONTINUOUS
 62
    7
 10
202.5391
 20
74.785266
 11
203.08946
 21
74.848656
  0
LINE
  8
_0-0_
  6
CONTINUOUS
 62
    7
 10
203.08946
 20
74.848656
 11
203.61862
 21
74.996795
  0
LINE
  8
_0-0_
  6
CONTINUOUS
 62
    7
 10
203.61862
 20
74.996795
 11
204.1266
 21
75.229683
  0
LINE
  8
_0-0_
  6
CONTINUOUS
 62
    7
 10
204.1266
 20
75.229683
 11
204.59238
 21
75.525961
  0
LINE
  8
_0-0_
  6
CONTINUOUS
 62
    7
 10
204.59238
 20
75.525961
 11
205.0368
 21
75.885974
  0
LINE
  8
_0-0_
  6
CONTINUOUS
 62
    7
 10
205.0368
 20
75.885974
 11
205.39664
 21
76.288017
  0
LINE
  8
_0-0_
  6
CONTINUOUS
 62
    7
 10
205.39664
 20
76.288017
 11
205.7141
 21
76.753793
  0
LINE
  8
_0-0_
  6
CONTINUOUS
 62
    7
 10
205.7141
 20
76.753793
 11
205.94699
 21
77.240585
  0
LINE
  8
_0-0_
  6
CONTINUOUS
 62
    7
 10
205.94699
 20
77.240585
 11
206.11632
 21
77.769752
  0
LINE
  8
_0-0_
  6
CONTINUOUS
 62
    7
 10
206.11632
 20
77.769752
 11
206.22208
 21
78.319934
  0
LINE
  8
_0-0_
  6
CONTINUOUS
 62
    7
 10
206.22208
 20
78.319934
 11
206.24327
 21
78.87046
  0
LINE
  8
_0-0_
  6
CONTINUOUS
 62
    7
 10
206.24327
 20
78.87046
 11
206.17988
 21
79.420642
  0
LINE
  8
_0-0_
  6
CONTINUOUS
 62
    7
 10
206.17988
 20
79.420642
 11
206.05276
 21
79.970824
  0
LINE
  8
_0-0_
  6
CONTINUOUS
 62
    7
 10
206.05276
 20
79.970824
 11
205.84123
 21
80.478975
  0
LINE
  8
_0-0_
  6
CONTINUOUS
 62
    7
 10
205.84123
 20
80.478975
 11
205.56596
 21
80.965767
  0
LINE
  8
_0-0_
  6
CONTINUOUS
 62
    7
 10
205.56596
 20
80.965767
 11
205.22731
 21
81.389169
  0
LINE
  8
_0-0_
  6
CONTINUOUS
 62
    7
 10
205.22731
 20
81.389169
 11
204.8251
 21
81.791212
  0
LINE
  8
_0-0_
  6
CONTINUOUS
 62
    7
 10
204.8251
 20
81.791212
 11
204.38068
 21
82.10885
  0
LINE
  8
_0-0_
  6
CONTINUOUS
 62
    7
 10
204.38068
 20
82.10885
 11
203.8727
 21
82.362753
  0
LINE
  8
_0-0_
  6
CONTINUOUS
 62
    7
 10
203.8727
 20
82.362753
 11
203.36472
 21
82.553267
  0
LINE
  8
_0-0_
  6
CONTINUOUS
 62
    7
 10
203.36472
 20
82.553267
 11
202.81437
 21
82.680391
  0
LINE
  8
_0-0_
  6
CONTINUOUS
 62
    7
 10
202.81437
 20
82.680391
 11
202.26401
 21
82.701406
  0
LINE
  8
_0-0_
  6
CONTINUOUS
 62
    7
 10
202.26401
 20
82.701406
 11
201.71366
 21
82.680391
  0
LINE
  8
_0-0_
  6
CONTINUOUS
 62
    7
 10
201.71366
 20
82.680391
 11
201.1633
 21
82.553267
  0
LINE
  8
_0-0_
  6
CONTINUOUS
 62
    7
 10
201.1633
 20
82.553267
 11
200.65533
 21
82.362753
  0
LINE
  8
_0-0_
  6
CONTINUOUS
 62
    7
 10
200.65533
 20
82.362753
 11
200.16853
 21
82.10885
  0
LINE
  8
_0-0_
  6
CONTINUOUS
 62
    7
 10
200.16853
 20
82.10885
 11
199.70276
 21
81.791212
  0
LINE
  8
_0-0_
  6
CONTINUOUS
 62
    7
 10
199.70276
 20
81.791212
 11
199.3219
 21
81.389169
  0
LINE
  8
_0-0_
  6
CONTINUOUS
 62
    7
 10
199.3219
 20
81.389169
 11
198.98308
 21
80.965767
  0
LINE
  8
_0-0_
  6
CONTINUOUS
 62
    7
 10
198.98308
 20
80.965767
 11
198.6868
 21
80.478975
  0
LINE
  8
_0-0_
  6
CONTINUOUS
 62
    7
 10
198.6868
 20
80.478975
 11
198.49628
 21
79.970824
  0
LINE
  8
_0-0_
  6
CONTINUOUS
 62
    7
 10
198.49628
 20
79.970824
 11
198.34814
 21
79.420642
  0
LINE
  8
_0-0_
  6
CONTINUOUS
 62
    7
 10
198.34814
 20
79.420642
 11
198.30577
 21
78.87046
  0
LINE
  8
_0-0_
  6
CONTINUOUS
 62
    7
 10
198.30577
 20
78.87046
 11
198.30577
 21
78.319934
  0
LINE
  8
_0-0_
  6
CONTINUOUS
 62
    7
 10
198.30577
 20
78.319934
 11
198.41171
 21
77.769752
  0
LINE
  8
_0-0_
  6
CONTINUOUS
 62
    7
 10
198.41171
 20
77.769752
 11
198.58103
 21
77.240585
  0
LINE
  8
_0-0_
  6
CONTINUOUS
 62
    7
 10
198.58103
 20
77.240585
 11
198.83494
 21
76.753793
  0
LINE
  8
_0-0_
  6
CONTINUOUS
 62
    7
 10
223.11304
 20
71.207879
 11
222.85914
 21
72.266212
  0
LINE
  8
_0-0_
  6
CONTINUOUS
 62
    7
 10
222.85914
 20
72.266212
 11
222.52049
 21
73.282171
  0
LINE
  8
_0-0_
  6
CONTINUOUS
 62
    7
 10
222.52049
 20
73.282171
 11
222.11844
 21
74.298474
  0
LINE
  8
_0-0_
  6
CONTINUOUS
 62
    7
 10
222.11844
 20
74.298474
 11
221.65267
 21
75.272058
  0
LINE
  8
_0-0_
  6
CONTINUOUS
 62
    7
 10
221.65267
 20
75.272058
 11
221.1235
 21
76.203267
  0
LINE
  8
_0-0_
  6
CONTINUOUS
 62
    7
 10
221.1235
 20
76.203267
 11
220.50958
 21
77.092446
  0
LINE
  8
_0-0_
  6
CONTINUOUS
 62
    7
 10
220.50958
 20
77.092446
 11
219.85364
 21
77.938906
  0
LINE
  8
_0-0_
  6
CONTINUOUS
 62
    7
 10
219.85364
 20
77.938906
 11
219.1126
 21
78.743336
  0
LINE
  8
_0-0_
  6
CONTINUOUS
 62
    7
 10
219.1126
 20
78.743336
 11
218.32953
 21
79.484032
  0
LINE
  8
_0-0_
  6
CONTINUOUS
 62
    7
 10
213.12261
 20
82.489877
 11
212.08529
 21
82.786156
  0
LINE
  8
_0-0_
  6
CONTINUOUS
 62
    7
 10
212.08529
 20
82.786156
 11
211.02696
 21
83.019044
  0
LINE
  8
_0-0_
  6
CONTINUOUS
 62
    7
 10
211.02696
 20
83.019044
 11
209.96862
 21
83.188198
  0
LINE
  8
_0-0_
  6
CONTINUOUS
 62
    7
 10
209.96862
 20
83.188198
 11
208.88928
 21
83.251933
  0
LINE
  8
_0-0_
  6
CONTINUOUS
 62
    7
 10
208.88928
 20
83.251933
 11
207.80958
 21
83.251933
  0
LINE
  8
_0-0_
  6
CONTINUOUS
 62
    7
 10
207.80958
 20
83.251933
 11
206.73023
 21
83.188198
  0
LINE
  8
_0-0_
  6
CONTINUOUS
 62
    7
 10
206.73023
 20
83.188198
 11
205.6719
 21
83.019044
  0
LINE
  8
_0-0_
  6
CONTINUOUS
 62
    7
 10
205.6719
 20
83.019044
 11
204.61357
 21
82.786156
  0
LINE
  8
_0-0_
  6
CONTINUOUS
 62
    7
 10
204.61357
 20
82.786156
 11
203.57625
 21
82.489877
  0
LINE
  8
_0-0_
  6
CONTINUOUS
 62
    7
 10
239.64433
 20
68.202377
 11
239.60196
 21
69.768518
  0
LINE
  8
_0-0_
  6
CONTINUOUS
 62
    7
 10
239.60196
 20
69.768518
 11
239.47483
 21
71.313643
  0
LINE
  8
_0-0_
  6
CONTINUOUS
 62
    7
 10
239.47483
 20
71.313643
 11
239.28432
 21
72.859113
  0
LINE
  8
_0-0_
  6
CONTINUOUS
 62
    7
 10
239.28432
 20
72.859113
 11
239.0094
 21
74.404238
  0
LINE
  8
_0-0_
  6
CONTINUOUS
 62
    7
 10
239.0094
 20
74.404238
 11
238.67075
 21
75.928004
  0
LINE
  8
_0-0_
  6
CONTINUOUS
 62
    7
 10
238.67075
 20
75.928004
 11
238.24735
 21
77.431099
  0
LINE
  8
_0-0_
  6
CONTINUOUS
 62
    7
 10
238.24735
 20
77.431099
 11
237.73919
 21
78.91249
  0
LINE
  8
_0-0_
  6
CONTINUOUS
 62
    7
 10
237.73919
 20
78.91249
 11
237.18901
 21
80.351851
  0
LINE
  8
_0-0_
  6
CONTINUOUS
 62
    7
 10
237.18901
 20
80.351851
 11
236.53272
 21
81.770197
  0
LINE
  8
_0-0_
  6
CONTINUOUS
 62
    7
 10
236.53272
 20
81.770197
 11
235.8344
 21
83.167183
  0
LINE
  8
_0-0_
  6
CONTINUOUS
 62
    7
 10
235.8344
 20
83.167183
 11
235.05099
 21
84.521795
  0
LINE
  8
_0-0_
  6
CONTINUOUS
 62
    7
 10
235.05099
 20
84.521795
 11
234.20453
 21
85.834032
  0
LINE
  8
_0-0_
  6
CONTINUOUS
 62
    7
 10
234.20453
 20
85.834032
 11
233.29433
 21
87.082879
  0
LINE
  8
_0-0_
  6
CONTINUOUS
 62
    7
 10
233.29433
 20
87.082879
 11
232.32075
 21
88.310711
  0
LINE
  8
_0-0_
  6
CONTINUOUS
 62
    7
 10
232.32075
 20
88.310711
 11
231.28343
 21
89.474809
  0
LINE
  8
_0-0_
  6
CONTINUOUS
 62
    7
 10
231.28343
 20
89.474809
 11
230.20408
 21
90.596532
  0
LINE
  8
_0-0_
  6
CONTINUOUS
 62
    7
 10
230.20408
 20
90.596532
 11
229.061
 21
91.654865
  0
LINE
  8
_0-0_
  6
CONTINUOUS
 62
    7
 10
229.061
 20
91.654865
 11
227.85453
 21
92.670824
  0
LINE
  8
_0-0_
  6
CONTINUOUS
 62
    7
 10
227.85453
 20
92.670824
 11
226.60568
 21
93.602377
  0
LINE
  8
_0-0_
  6
CONTINUOUS
 62
    7
 10
226.60568
 20
93.602377
 11
225.31446
 21
94.491212
  0
LINE
  8
_0-0_
  6
CONTINUOUS
 62
    7
 10
225.31446
 20
94.491212
 11
224.00222
 21
95.295642
  0
LINE
  8
_0-0_
  6
CONTINUOUS
 62
    7
 10
224.00222
 20
95.295642
 11
222.62625
 21
96.036337
  0
LINE
  8
_0-0_
  6
CONTINUOUS
 62
    7
 10
222.62625
 20
96.036337
 11
221.20825
 21
96.713643
  0
LINE
  8
_0-0_
  6
CONTINUOUS
 62
    7
 10
221.20825
 20
96.713643
 11
219.7899
 21
97.327559
  0
LINE
  8
_0-0_
  6
CONTINUOUS
 62
    7
 10
219.7899
 20
97.327559
 11
218.30817
 21
97.856726
  0
LINE
  8
_0-0_
  6
CONTINUOUS
 62
    7
 10
218.30817
 20
97.856726
 11
216.82678
 21
98.322503
  0
LINE
  8
_0-0_
  6
CONTINUOUS
 62
    7
 10
216.82678
 20
98.322503
 11
215.30267
 21
98.70353
  0
LINE
  8
_0-0_
  6
CONTINUOUS
 62
    7
 10
215.30267
 20
98.70353
 11
213.77856
 21
99.020824
  0
LINE
  8
_0-0_
  6
CONTINUOUS
 62
    7
 10
213.77856
 20
99.020824
 11
212.23343
 21
99.253712
  0
LINE
  8
_0-0_
  6
CONTINUOUS
 62
    7
 10
212.23343
 20
99.253712
 11
210.6883
 21
99.401851
  0
LINE
  8
_0-0_
  6
CONTINUOUS
 62
    7
 10
210.6883
 20
99.401851
 11
209.12182
 21
99.486601
  0
LINE
  8
_0-0_
  6
CONTINUOUS
 62
    7
 10
209.12182
 20
99.486601
 11
207.57687
 21
99.486601
  0
LINE
  8
_0-0_
  6
CONTINUOUS
 62
    7
 10
207.57687
 20
99.486601
 11
206.01055
 21
99.401851
  0
LINE
  8
_0-0_
  6
CONTINUOUS
 62
    7
 10
206.01055
 20
99.401851
 11
204.46526
 21
99.253712
  0
LINE
  8
_0-0_
  6
CONTINUOUS
 62
    7
 10
204.46526
 20
99.253712
 11
202.92013
 21
99.020824
  0
LINE
  8
_0-0_
  6
CONTINUOUS
 62
    7
 10
202.92013
 20
99.020824
 11
201.39619
 21
98.70353
  0
LINE
  8
_0-0_
  6
CONTINUOUS
 62
    7
 10
201.39619
 20
98.70353
 11
199.87208
 21
98.322503
  0
LINE
  8
_0-0_
  6
CONTINUOUS
 62
    7
 10
199.87208
 20
98.322503
 11
198.39052
 21
97.856726
  0
LINE
  8
_0-0_
  6
CONTINUOUS
 62
    7
 10
198.39052
 20
97.856726
 11
196.92997
 21
97.327559
  0
LINE
  8
_0-0_
  6
CONTINUOUS
 62
    7
 10
196.92997
 20
97.327559
 11
195.49061
 21
96.713643
  0
LINE
  8
_0-0_
  6
CONTINUOUS
 62
    7
 10
195.49061
 20
96.713643
 11
194.07244
 21
96.036337
  0
LINE
  8
_0-0_
  6
CONTINUOUS
 62
    7
 10
194.07244
 20
96.036337
 11
192.71783
 21
95.295642
  0
LINE
  8
_0-0_
  6
CONTINUOUS
 62
    7
 10
192.71783
 20
95.295642
 11
191.3844
 21
94.491212
  0
LINE
  8
_0-0_
  6
CONTINUOUS
 62
    7
 10
191.3844
 20
94.491212
 11
190.09318
 21
93.602377
  0
LINE
  8
_0-0_
  6
CONTINUOUS
 62
    7
 10
190.09318
 20
93.602377
 11
188.84433
 21
92.670824
  0
LINE
  8
_0-0_
  6
CONTINUOUS
 62
    7
 10
188.84433
 20
92.670824
 11
187.65905
 21
91.654865
  0
LINE
  8
_0-0_
  6
CONTINUOUS
 62
    7
 10
187.65905
 20
91.654865
 11
186.49478
 21
90.596532
  0
LINE
  8
_0-0_
  6
CONTINUOUS
 62
    7
 10
186.49478
 20
90.596532
 11
185.41526
 21
89.474809
  0
LINE
  8
_0-0_
  6
CONTINUOUS
 62
    7
 10
185.41526
 20
89.474809
 11
184.37811
 21
88.310711
  0
LINE
  8
_0-0_
  6
CONTINUOUS
 62
    7
 10
184.37811
 20
88.310711
 11
183.40453
 21
87.082879
  0
LINE
  8
_0-0_
  6
CONTINUOUS
 62
    7
 10
183.40453
 20
87.082879
 11
182.49433
 21
85.834032
  0
LINE
  8
_0-0_
  6
CONTINUOUS
 62
    7
 10
182.49433
 20
85.834032
 11
181.6477
 21
84.521795
  0
LINE
  8
_0-0_
  6
CONTINUOUS
 62
    7
 10
181.6477
 20
84.521795
 11
180.86446
 21
83.167183
  0
LINE
  8
_0-0_
  6
CONTINUOUS
 62
    7
 10
180.86446
 20
83.167183
 11
180.16596
 21
81.770197
  0
LINE
  8
_0-0_
  6
CONTINUOUS
 62
    7
 10
180.16596
 20
81.770197
 11
179.53103
 21
80.351851
  0
LINE
  8
_0-0_
  6
CONTINUOUS
 62
    7
 10
179.53103
 20
80.351851
 11
178.95949
 21
78.91249
  0
LINE
  8
_0-0_
  6
CONTINUOUS
 62
    7
 10
178.95949
 20
78.91249
 11
178.45151
 21
77.431099
  0
LINE
  8
_0-0_
  6
CONTINUOUS
 62
    7
 10
178.45151
 20
77.431099
 11
178.02811
 21
75.928004
  0
LINE
  8
_0-0_
  6
CONTINUOUS
 62
    7
 10
178.02811
 20
75.928004
 11
177.68946
 21
74.404238
  0
LINE
  8
_0-0_
  6
CONTINUOUS
 62
    7
 10
177.68946
 20
74.404238
 11
177.41437
 21
72.859113
  0
LINE
  8
_0-0_
  6
CONTINUOUS
 62
    7
 10
177.41437
 20
72.859113
 11
177.22385
 21
71.313643
  0
LINE
  8
_0-0_
  6
CONTINUOUS
 62
    7
 10
177.22385
 20
71.313643
 11
177.0969
 21
69.768518
  0
LINE
  8
_0-0_
  6
CONTINUOUS
 62
    7
 10
177.0969
 20
69.768518
 11
177.05453
 21
68.202377
  0
LINE
  8
_0-0_
  6
CONTINUOUS
 62
    7
 10
228.53183
 20
68.202377
 11
228.48946
 21
69.451225
  0
LINE
  8
_0-0_
  6
CONTINUOUS
 62
    7
 10
228.48946
 20
69.451225
 11
228.38369
 21
70.678712
  0
LINE
  8
_0-0_
  6
CONTINUOUS
 62
    7
 10
228.38369
 20
70.678712
 11
228.19318
 21
71.906544
  0
LINE
  8
_0-0_
  6
CONTINUOUS
 62
    7
 10
228.19318
 20
71.906544
 11
227.91792
 21
73.134032
  0
LINE
  8
_0-0_
  6
CONTINUOUS
 62
    7
 10
227.91792
 20
73.134032
 11
227.57926
 21
74.319489
  0
LINE
  8
_0-0_
  6
CONTINUOUS
 62
    7
 10
227.57926
 20
74.319489
 11
227.17722
 21
75.483587
  0
LINE
  8
_0-0_
  6
CONTINUOUS
 62
    7
 10
227.17722
 20
75.483587
 11
226.69043
 21
76.626669
  0
LINE
  8
_0-0_
  6
CONTINUOUS
 62
    7
 10
226.69043
 20
76.626669
 11
226.1399
 21
77.748393
  0
LINE
  8
_0-0_
  6
CONTINUOUS
 62
    7
 10
226.1399
 20
77.748393
 11
225.50497
 21
78.828085
  0
LINE
  8
_0-0_
  6
CONTINUOUS
 62
    7
 10
225.50497
 20
78.828085
 11
224.82767
 21
79.865059
  0
LINE
  8
_0-0_
  6
CONTINUOUS
 62
    7
 10
224.82767
 20
79.865059
 11
224.06561
 21
80.860003
  0
LINE
  8
_0-0_
  6
CONTINUOUS
 62
    7
 10
224.06561
 20
80.860003
 11
223.26118
 21
81.791212
  0
LINE
  8
_0-0_
  6
CONTINUOUS
 62
    7
 10
223.26118
 20
81.791212
 11
222.39336
 21
82.680391
  0
LINE
  8
_0-0_
  6
CONTINUOUS
 62
    7
 10
222.39336
 20
82.680391
 11
221.48317
 21
83.526851
  0
LINE
  8
_0-0_
  6
CONTINUOUS
 62
    7
 10
221.48317
 20
83.526851
 11
220.50958
 21
84.310266
  0
LINE
  8
_0-0_
  6
CONTINUOUS
 62
    7
 10
220.50958
 20
84.310266
 11
219.49362
 21
85.029946
  0
LINE
  8
_0-0_
  6
CONTINUOUS
 62
    7
 10
219.49362
 20
85.029946
 11
218.43529
 21
85.685893
  0
LINE
  8
_0-0_
  6
CONTINUOUS
 62
    7
 10
218.43529
 20
85.685893
 11
217.35594
 21
86.278793
  0
LINE
  8
_0-0_
  6
CONTINUOUS
 62
    7
 10
217.35594
 20
86.278793
 11
216.21286
 21
86.786601
  0
LINE
  8
_0-0_
  6
CONTINUOUS
 62
    7
 10
216.21286
 20
86.786601
 11
215.04876
 21
87.231018
  0
LINE
  8
_0-0_
  6
CONTINUOUS
 62
    7
 10
215.04876
 20
87.231018
 11
213.8633
 21
87.612045
  0
LINE
  8
_0-0_
  6
CONTINUOUS
 62
    7
 10
213.8633
 20
87.612045
 11
212.67785
 21
87.908324
  0
LINE
  8
_0-0_
  6
CONTINUOUS
 62
    7
 10
212.67785
 20
87.908324
 11
211.45036
 21
88.141212
  0
LINE
  8
_0-0_
  6
CONTINUOUS
 62
    7
 10
211.45036
 20
88.141212
 11
210.22253
 21
88.289351
  0
LINE
  8
_0-0_
  6
CONTINUOUS
 62
    7
 10
210.22253
 20
88.289351
 11
208.97368
 21
88.374101
  0
LINE
  8
_0-0_
  6
CONTINUOUS
 62
    7
 10
208.97368
 20
88.374101
 11
207.72501
 21
88.374101
  0
LINE
  8
_0-0_
  6
CONTINUOUS
 62
    7
 10
207.72501
 20
88.374101
 11
206.49735
 21
88.289351
  0
LINE
  8
_0-0_
  6
CONTINUOUS
 62
    7
 10
206.49735
 20
88.289351
 11
205.2485
 21
88.141212
  0
LINE
  8
_0-0_
  6
CONTINUOUS
 62
    7
 10
205.2485
 20
88.141212
 11
204.04203
 21
87.908324
  0
LINE
  8
_0-0_
  6
CONTINUOUS
 62
    7
 10
204.04203
 20
87.908324
 11
202.83555
 21
87.612045
  0
LINE
  8
_0-0_
  6
CONTINUOUS
 62
    7
 10
202.83555
 20
87.612045
 11
201.6501
 21
87.231018
  0
LINE
  8
_0-0_
  6
CONTINUOUS
 62
    7
 10
201.6501
 20
87.231018
 11
200.486
 21
86.786601
  0
LINE
  8
_0-0_
  6
CONTINUOUS
 62
    7
 10
200.486
 20
86.786601
 11
199.3641
 21
86.278793
  0
LINE
  8
_0-0_
  6
CONTINUOUS
 62
    7
 10
199.3641
 20
86.278793
 11
198.26357
 21
85.685893
  0
LINE
  8
_0-0_
  6
CONTINUOUS
 62
    7
 10
198.26357
 20
85.685893
 11
197.20523
 21
85.029946
  0
LINE
  8
_0-0_
  6
CONTINUOUS
 62
    7
 10
197.20523
 20
85.029946
 11
196.1891
 21
84.310266
  0
LINE
  8
_0-0_
  6
CONTINUOUS
 62
    7
 10
196.1891
 20
84.310266
 11
195.21552
 21
83.526851
  0
LINE
  8
_0-0_
  6
CONTINUOUS
 62
    7
 10
195.21552
 20
83.526851
 11
194.30533
 21
82.680391
  0
LINE
  8
_0-0_
  6
CONTINUOUS
 62
    7
 10
194.30533
 20
82.680391
 11
193.43751
 21
81.791212
  0
LINE
  8
_0-0_
  6
CONTINUOUS
 62
    7
 10
193.43751
 20
81.791212
 11
192.63308
 21
80.860003
  0
LINE
  8
_0-0_
  6
CONTINUOUS
 62
    7
 10
192.63308
 20
80.860003
 11
191.87119
 21
79.865059
  0
LINE
  8
_0-0_
  6
CONTINUOUS
 62
    7
 10
191.87119
 20
79.865059
 11
191.19389
 21
78.828085
  0
LINE
  8
_0-0_
  6
CONTINUOUS
 62
    7
 10
191.19389
 20
78.828085
 11
190.57997
 21
77.748393
  0
LINE
  8
_0-0_
  6
CONTINUOUS
 62
    7
 10
190.57997
 20
77.748393
 11
190.00843
 21
76.626669
  0
LINE
  8
_0-0_
  6
CONTINUOUS
 62
    7
 10
190.00843
 20
76.626669
 11
189.52164
 21
75.483587
  0
LINE
  8
_0-0_
  6
CONTINUOUS
 62
    7
 10
189.52164
 20
75.483587
 11
189.11942
 21
74.319489
  0
LINE
  8
_0-0_
  6
CONTINUOUS
 62
    7
 10
189.11942
 20
74.319489
 11
188.78077
 21
73.134032
  0
LINE
  8
_0-0_
  6
CONTINUOUS
 62
    7
 10
188.78077
 20
73.134032
 11
188.50568
 21
71.906544
  0
LINE
  8
_0-0_
  6
CONTINUOUS
 62
    7
 10
188.50568
 20
71.906544
 11
188.31517
 21
70.678712
  0
LINE
  8
_0-0_
  6
CONTINUOUS
 62
    7
 10
188.31517
 20
70.678712
 11
188.2094
 21
69.451225
  0
LINE
  8
_0-0_
  6
CONTINUOUS
 62
    7
 10
188.2094
 20
69.451225
 11
188.16703
 21
68.202377
  0
LINE
  8
_0-0_
  6
CONTINUOUS
 62
    7
 10
237.59106
 20
168.02436
 11
228.95523
 21
168.02436
  0
LINE
  8
_0-0_
  6
CONTINUOUS
 62
    7
 10
228.95523
 20
163.07135
 11
237.59106
 21
163.07135
  0
LINE
  8
_0-0_
  6
CONTINUOUS
 62
    7
 10
178.98068
 20
163.07135
 11
178.98068
 21
168.02436
  0
LINE
  8
_0-0_
  6
CONTINUOUS
 62
    7
 10
229.65356
 20
163.07135
 11
229.65356
 21
168.02436
  0
LINE
  8
_0-0_
  6
CONTINUOUS
 62
    7
 10
178.98068
 20
168.02436
 11
187.61667
 21
168.02436
  0
LINE
  8
_0-0_
  6
CONTINUOUS
 62
    7
 10
187.63786
 20
163.07135
 11
178.98068
 21
163.07135
  0
LINE
  8
_0-0_
  6
CONTINUOUS
 62
    7
 10
178.98068
 20
163.07135
 11
178.98068
 21
168.02436
  0
LINE
  8
_0-0_
  6
CONTINUOUS
 62
    7
 10
235.02997
 20
163.07135
 11
230.05594
 21
168.02436
  0
LINE
  8
_0-0_
  6
CONTINUOUS
 62
    7
 10
229.65356
 20
165.63243
 11
232.21498
 21
163.07135
  0
LINE
  8
_0-0_
  6
CONTINUOUS
 62
    7
 10
237.59106
 20
163.30423
 11
232.87093
 21
168.02436
  0
LINE
  8
_0-0_
  6
CONTINUOUS
 62
    7
 10
235.68626
 20
168.02436
 11
237.59106
 21
166.11922
  0
LINE
  8
_0-0_
  6
CONTINUOUS
 62
    7
 10
237.59106
 20
165.03987
 11
235.62253
 21
163.07135
  0
LINE
  8
_0-0_
  6
CONTINUOUS
 62
    7
 10
232.80754
 20
163.07135
 11
237.59106
 21
167.83385
  0
LINE
  8
_0-0_
  6
CONTINUOUS
 62
    7
 10
234.96658
 20
168.02436
 11
230.01357
 21
163.07135
  0
LINE
  8
_0-0_
  6
CONTINUOUS
 62
    7
 10
229.65356
 20
165.50548
 11
232.15125
 21
168.02436
  0
LINE
  8
_0-0_
  6
CONTINUOUS
 62
    7
 10
238.8399
 20
159.13429
 11
228.95523
 21
159.13429
  0
LINE
  8
_0-0_
  6
CONTINUOUS
 62
    7
 10
238.8399
 20
159.13429
 11
238.8399
 21
156.6366
  0
LINE
  8
_0-0_
  6
CONTINUOUS
 62
    7
 10
238.07785
 20
156.6366
 11
238.8399
 21
156.6366
  0
LINE
  8
_0-0_
  6
CONTINUOUS
 62
    7
 10
234.11978
 20
154.66807
 11
228.95523
 21
154.66807
  0
LINE
  8
_0-0_
  6
CONTINUOUS
 62
    7
 10
229.39965
 20
159.13429
 11
229.39965
 21
156.6366
  0
LINE
  8
_0-0_
  6
CONTINUOUS
 62
    7
 10
238.07785
 20
156.6366
 11
237.69682
 21
156.17099
  0
LINE
  8
_0-0_
  6
CONTINUOUS
 62
    7
 10
237.69682
 20
156.17099
 11
237.23139
 21
155.76878
  0
LINE
  8
_0-0_
  6
CONTINUOUS
 62
    7
 10
237.23139
 20
155.76878
 11
236.7446
 21
155.40894
  0
LINE
  8
_0-0_
  6
CONTINUOUS
 62
    7
 10
236.7446
 20
155.40894
 11
236.19407
 21
155.11266
  0
LINE
  8
_0-0_
  6
CONTINUOUS
 62
    7
 10
236.19407
 20
155.11266
 11
235.62253
 21
154.90096
  0
LINE
  8
_0-0_
  6
CONTINUOUS
 62
    7
 10
235.62253
 20
154.90096
 11
235.02997
 21
154.75282
  0
LINE
  8
_0-0_
  6
CONTINUOUS
 62
    7
 10
235.02997
 20
154.75282
 11
234.41606
 21
154.66807
  0
LINE
  8
_0-0_
  6
CONTINUOUS
 62
    7
 10
234.41606
 20
154.66807
 11
233.80248
 21
154.66807
  0
LINE
  8
_0-0_
  6
CONTINUOUS
 62
    7
 10
233.80248
 20
154.66807
 11
233.18857
 21
154.75282
  0
LINE
  8
_0-0_
  6
CONTINUOUS
 62
    7
 10
233.18857
 20
154.75282
 11
232.59567
 21
154.90096
  0
LINE
  8
_0-0_
  6
CONTINUOUS
 62
    7
 10
232.59567
 20
154.90096
 11
232.02447
 21
155.11266
  0
LINE
  8
_0-0_
  6
CONTINUOUS
 62
    7
 10
232.02447
 20
155.11266
 11
231.4953
 21
155.40894
  0
LINE
  8
_0-0_
  6
CONTINUOUS
 62
    7
 10
231.4953
 20
155.40894
 11
230.98715
 21
155.76878
  0
LINE
  8
_0-0_
  6
CONTINUOUS
 62
    7
 10
230.98715
 20
155.76878
 11
230.54273
 21
156.17099
  0
LINE
  8
_0-0_
  6
CONTINUOUS
 62
    7
 10
230.54273
 20
156.17099
 11
230.14035
 21
156.6366
  0
LINE
  8
_0-0_
  6
CONTINUOUS
 62
    7
 10
228.95523
 20
156.6366
 11
230.14035
 21
156.6366
  0
LINE
  8
_0-0_
  6
CONTINUOUS
 62
    7
 10
187.63786
 20
156.6366
 11
176.2501
 21
156.6366
  0
LINE
  8
_0-0_
  6
CONTINUOUS
 62
    7
 10
176.2501
 20
159.13429
 11
176.2501
 21
156.6366
  0
LINE
  8
_0-0_
  6
CONTINUOUS
 62
    7
 10
176.2501
 20
159.13429
 11
187.63786
 21
159.13429
  0
LINE
  8
_0-0_
  6
CONTINUOUS
 62
    7
 10
177.01215
 20
156.6366
 11
177.37199
 21
156.21337
  0
LINE
  8
_0-0_
  6
CONTINUOUS
 62
    7
 10
177.37199
 20
156.21337
 11
177.79539
 21
155.81115
  0
LINE
  8
_0-0_
  6
CONTINUOUS
 62
    7
 10
177.79539
 20
155.81115
 11
178.261
 21
155.4725
  0
LINE
  8
_0-0_
  6
CONTINUOUS
 62
    7
 10
178.261
 20
155.4725
 11
178.74779
 21
155.17622
  0
LINE
  8
_0-0_
  6
CONTINUOUS
 62
    7
 10
178.74779
 20
155.17622
 11
179.27696
 21
154.96452
  0
LINE
  8
_0-0_
  6
CONTINUOUS
 62
    7
 10
179.27696
 20
154.96452
 11
179.82731
 21
154.79519
  0
LINE
  8
_0-0_
  6
CONTINUOUS
 62
    7
 10
179.82731
 20
154.79519
 11
180.39885
 21
154.68926
  0
LINE
  8
_0-0_
  6
CONTINUOUS
 62
    7
 10
180.39885
 20
154.68926
 11
180.97039
 21
154.66807
  0
LINE
  8
_0-0_
  6
CONTINUOUS
 62
    7
 10
180.97039
 20
154.66807
 11
187.63786
 21
154.66807
  0
LINE
  8
_0-0_
  6
CONTINUOUS
 62
    7
 10
237.04087
 20
155.62064
 11
233.52722
 21
159.13429
  0
LINE
  8
_0-0_
  6
CONTINUOUS
 62
    7
 10
232.13023
 20
159.13429
 11
236.15169
 21
155.09147
  0
LINE
  8
_0-0_
  6
CONTINUOUS
 62
    7
 10
235.09336
 20
154.75282
 11
230.71189
 21
159.13429
  0
LINE
  8
_0-0_
  6
CONTINUOUS
 62
    7
 10
229.39965
 20
159.04954
 11
233.76011
 21
154.66807
  0
LINE
  8
_0-0_
  6
CONTINUOUS
 62
    7
 10
231.8126
 20
155.21842
 11
229.39965
 21
157.63154
  0
LINE
  8
_0-0_
  6
CONTINUOUS
 62
    7
 10
234.92421
 20
159.13429
 11
237.78157
 21
156.27676
  0
LINE
  8
_0-0_
  6
CONTINUOUS
 62
    7
 10
238.81889
 20
156.6366
 11
236.34221
 21
159.13429
  0
LINE
  8
_0-0_
  6
CONTINUOUS
 62
    7
 10
237.73919
 20
159.13429
 11
238.8399
 21
158.03358
  0
LINE
  8
_0-0_
  6
CONTINUOUS
 62
    7
 10
238.8399
 20
156.70016
 11
238.75515
 21
156.6366
  0
LINE
  8
_0-0_
  6
CONTINUOUS
 62
    7
 10
235.60151
 20
154.87977
 11
238.8399
 21
158.11833
  0
LINE
  8
_0-0_
  6
CONTINUOUS
 62
    7
 10
238.43786
 20
159.13429
 11
233.97164
 21
154.66807
  0
LINE
  8
_0-0_
  6
CONTINUOUS
 62
    7
 10
232.74415
 20
154.83739
 11
237.04087
 21
159.13429
  0
LINE
  8
_0-0_
  6
CONTINUOUS
 62
    7
 10
235.62253
 20
159.13429
 11
231.74921
 21
155.2608
  0
LINE
  8
_0-0_
  6
CONTINUOUS
 62
    7
 10
230.92376
 20
155.81115
 11
234.22554
 21
159.13429
  0
LINE
  8
_0-0_
  6
CONTINUOUS
 62
    7
 10
232.82856
 20
159.13429
 11
230.2251
 21
156.53083
  0
LINE
  8
_0-0_
  6
CONTINUOUS
 62
    7
 10
229.39965
 20
157.10237
 11
231.41055
 21
159.13429
  0
LINE
  8
_0-0_
  6
CONTINUOUS
 62
    7
 10
230.01357
 20
159.13429
 11
229.39965
 21
158.52037
  0
LINE
  8
_0-0_
  6
CONTINUOUS
 62
    7
 10
177.01215
 20
156.6366
 11
176.2501
 21
156.6366
  0
LINE
  8
_0-0_
  6
CONTINUOUS
 62
    7
 10
230.14035
 20
156.6366
 11
229.39965
 21
156.6366
  0
LINE
  8
_0-0_
  6
CONTINUOUS
 62
    7
 10
208.29637
 20
175.36913
 11
226.66907
 21
175.36913
  0
LINE
  8
_0-0_
  6
CONTINUOUS
 62
    7
 10
208.29637
 20
172.87144
 11
225.6321
 21
172.87144
  0
LINE
  8
_0-0_
  6
CONTINUOUS
 62
    7
 10
208.29637
 20
172.38464
 11
225.6321
 21
172.38464
  0
LINE
  8
_0-0_
  6
CONTINUOUS
 62
    7
 10
212.06428
 20
172.38464
 11
212.06428
 21
172.87144
  0
LINE
  8
_0-0_
  6
CONTINUOUS
 62
    7
 10
216.31862
 20
172.38464
 11
216.31862
 21
172.87144
  0
LINE
  8
_0-0_
  6
CONTINUOUS
 62
    7
 10
223.8751
 20
172.38464
 11
223.8751
 21
172.87144
  0
LINE
  8
_0-0_
  6
CONTINUOUS
 62
    7
 10
226.66907
 20
173.4006
 11
226.62669
 21
173.1467
  0
LINE
  8
_0-0_
  6
CONTINUOUS
 62
    7
 10
226.62669
 20
173.1467
 11
226.52093
 21
172.89262
  0
LINE
  8
_0-0_
  6
CONTINUOUS
 62
    7
 10
226.52093
 20
172.89262
 11
226.37279
 21
172.68092
  0
LINE
  8
_0-0_
  6
CONTINUOUS
 62
    7
 10
226.37279
 20
172.68092
 11
226.1399
 21
172.5116
  0
LINE
  8
_0-0_
  6
CONTINUOUS
 62
    7
 10
226.1399
 20
172.5116
 11
225.90701
 21
172.40583
  0
LINE
  8
_0-0_
  6
CONTINUOUS
 62
    7
 10
225.90701
 20
172.40583
 11
225.6321
 21
172.38464
  0
LINE
  8
_0-0_
  6
CONTINUOUS
 62
    7
 10
226.16126
 20
173.4006
 11
226.1399
 21
173.25246
  0
LINE
  8
_0-0_
  6
CONTINUOUS
 62
    7
 10
226.1399
 20
173.25246
 11
226.05515
 21
173.10432
  0
LINE
  8
_0-0_
  6
CONTINUOUS
 62
    7
 10
226.05515
 20
173.10432
 11
225.94939
 21
172.97737
  0
LINE
  8
_0-0_
  6
CONTINUOUS
 62
    7
 10
225.94939
 20
172.97737
 11
225.80125
 21
172.91381
  0
LINE
  8
_0-0_
  6
CONTINUOUS
 62
    7
 10
225.80125
 20
172.91381
 11
225.6321
 21
172.87144
  0
LINE
  8
_0-0_
  6
CONTINUOUS
 62
    7
 10
226.16126
 20
173.4006
 11
226.16126
 21
175.36913
  0
LINE
  8
_0-0_
  6
CONTINUOUS
 62
    7
 10
225.27208
 20
172.38464
 11
224.76428
 21
172.87144
  0
LINE
  8
_0-0_
  6
CONTINUOUS
 62
    7
 10
224.06561
 20
172.87144
 11
224.57376
 21
172.38464
  0
LINE
  8
_0-0_
  6
CONTINUOUS
 62
    7
 10
226.37279
 20
172.68092
 11
226.01312
 21
173.04076
  0
LINE
  8
_0-0_
  6
CONTINUOUS
 62
    7
 10
226.16126
 20
173.59112
 11
226.62669
 21
173.12551
  0
LINE
  8
_0-0_
  6
CONTINUOUS
 62
    7
 10
226.66907
 20
174.50131
 11
226.16126
 21
174.9881
  0
LINE
  8
_0-0_
  6
CONTINUOUS
 62
    7
 10
226.49991
 20
175.36913
 11
226.66907
 21
175.1998
  0
LINE
  8
_0-0_
  6
CONTINUOUS
 62
    7
 10
215.42979
 20
172.38464
 11
214.94265
 21
172.87144
  0
LINE
  8
_0-0_
  6
CONTINUOUS
 62
    7
 10
214.24433
 20
172.87144
 11
214.73112
 21
172.38464
  0
LINE
  8
_0-0_
  6
CONTINUOUS
 62
    7
 10
213.33414
 20
172.38464
 11
212.82599
 21
172.87144
  0
LINE
  8
_0-0_
  6
CONTINUOUS
 62
    7
 10
212.12767
 20
172.87144
 11
212.63582
 21
172.38464
  0
LINE
  8
_0-0_
  6
CONTINUOUS
 62
    7
 10
226.66907
 20
175.36913
 11
226.66907
 21
173.4006
  0
LINE
  8
_0-0_
  6
CONTINUOUS
 62
    7
 10
208.29637
 20
175.36913
 11
208.29637
 21
172.38464
  0
LINE
  8
_0-0_
  6
CONTINUOUS
 62
    7
 10
208.29637
 20
205.1506
 11
177.20267
 21
205.1506
  0
LINE
  8
_0-0_
  6
CONTINUOUS
 62
    7
 10
177.01215
 20
204.96009
 11
177.01215
 21
204.15583
  0
LINE
  8
_0-0_
  6
CONTINUOUS
 62
    7
 10
187.63786
 20
192.74705
 11
187.63786
 21
151.81071
  0
LINE
  8
_0-0_
  6
CONTINUOUS
 62
    7
 10
177.20267
 20
205.1506
 11
177.01215
 21
204.96009
  0
LINE
  8
_0-0_
  6
CONTINUOUS
 62
    7
 10
208.29637
 20
205.1506
 11
239.36907
 21
205.1506
  0
LINE
  8
_0-0_
  6
CONTINUOUS
 62
    7
 10
228.95523
 20
192.74705
 11
228.95523
 21
134.64448
  0
LINE
  8
_0-0_
  6
CONTINUOUS
 62
    7
 10
239.36907
 20
205.1506
 11
239.58094
 21
204.96009
  0
LINE
  8
_0-0_
  6
CONTINUOUS
 62
    7
 10
208.29637
 20
208.79121
 11
208.29637
 21
201.80628
  0
LINE
  8
_0-0_
  6
CONTINUOUS
 62
    7
 10
208.29637
 20
200.79032
 11
208.29637
 21
199.79537
  0
LINE
  8
_0-0_
  6
CONTINUOUS
 62
    7
 10
208.29637
 20
198.77942
 11
208.29637
 21
191.79448
  0
LINE
  8
_0-0_
  6
CONTINUOUS
 62
    7
 10
208.29637
 20
190.77853
 11
208.29637
 21
189.78358
  0
LINE
  8
_0-0_
  6
CONTINUOUS
 62
    7
 10
208.29637
 20
188.76762
 11
208.29637
 21
181.78269
  0
LINE
  8
_0-0_
  6
CONTINUOUS
 62
    7
 10
208.29637
 20
180.76673
 11
208.29637
 21
179.77179
  0
LINE
  8
_0-0_
  6
CONTINUOUS
 62
    7
 10
208.29637
 20
178.75583
 11
208.29637
 21
171.7709
  0
LINE
  8
_0-0_
  6
CONTINUOUS
 62
    7
 10
208.29637
 20
170.75477
 11
208.29637
 21
169.76
  0
LINE
  8
_0-0_
  6
CONTINUOUS
 62
    7
 10
208.29637
 20
168.74404
 11
208.29637
 21
161.75894
  0
LINE
  8
_0-0_
  6
CONTINUOUS
 62
    7
 10
208.29637
 20
160.74298
 11
208.29637
 21
159.74821
  0
LINE
  8
_0-0_
  6
CONTINUOUS
 62
    7
 10
208.29637
 20
158.73208
 11
208.29637
 21
151.74714
  0
LINE
  8
_0-0_
  6
CONTINUOUS
 62
    7
 10
208.29637
 20
150.73119
 11
208.29637
 21
149.73624
  0
LINE
  8
_0-0_
  6
CONTINUOUS
 62
    7
 10
208.29637
 20
148.72028
 11
208.29637
 21
141.73535
  0
LINE
  8
_0-0_
  6
CONTINUOUS
 62
    7
 10
208.29637
 20
140.71922
 11
208.29637
 21
139.72445
  0
LINE
  8
_0-0_
  6
CONTINUOUS
 62
    7
 10
208.29637
 20
138.70849
 11
208.29637
 21
131.72339
  0
LINE
  8
_0-0_
  6
CONTINUOUS
 62
    7
 10
208.29637
 20
130.70743
 11
208.29637
 21
129.71266
  0
LINE
  8
_0-0_
  6
CONTINUOUS
 62
    7
 10
208.29637
 20
128.6967
 11
208.29637
 21
121.7116
  0
LINE
  8
_0-0_
  6
CONTINUOUS
 62
    7
 10
208.29637
 20
120.69564
 11
208.29637
 21
119.70069
  0
LINE
  8
_0-0_
  6
CONTINUOUS
 62
    7
 10
208.29637
 20
118.68474
 11
208.29637
 21
115.44635
  0
LINE
  8
_0-0_
  6
CONTINUOUS
 62
    7
 10
178.7266
 20
203.16089
 11
177.01215
 21
204.15583
  0
LINE
  8
_0-0_
  6
CONTINUOUS
 62
    7
 10
239.58094
 20
204.96009
 11
239.58094
 21
204.15583
  0
LINE
  8
_0-0_
  6
CONTINUOUS
 62
    7
 10
227.96029
 20
133.64971
 11
227.96029
 21
192.74705
  0
LINE
  8
_0-0_
  6
CONTINUOUS
 62
    7
 10
227.96029
 20
192.74705
 11
228.95523
 21
192.74705
  0
LINE
  8
_0-0_
  6
CONTINUOUS
 62
    7
 10
227.96029
 20
133.64971
 11
228.95523
 21
134.64448
  0
LINE
  8
_0-0_
  6
CONTINUOUS
 62
    7
 10
208.29637
 20
133.64971
 11
227.96029
 21
133.64971
  0
LINE
  8
_0-0_
  6
CONTINUOUS
 62
    7
 10
178.7266
 20
203.16089
 11
185.30949
 21
201.02321
  0
LINE
  8
_0-0_
  6
CONTINUOUS
 62
    7
 10
226.75382
 20
133.64971
 11
226.45754
 21
133.94599
  0
LINE
  8
_0-0_
  6
CONTINUOUS
 62
    7
 10
208.29637
 20
133.94599
 11
226.45754
 21
133.94599
  0
LINE
  8
_0-0_
  6
CONTINUOUS
 62
    7
 10
227.41011
 20
201.70051
 11
229.33626
 21
202.46257
  0
LINE
  8
_0-0_
  6
CONTINUOUS
 62
    7
 10
229.33626
 20
202.46257
 11
231.30479
 21
203.16089
  0
LINE
  8
_0-0_
  6
CONTINUOUS
 62
    7
 10
231.30479
 20
203.16089
 11
233.29433
 21
203.7748
  0
LINE
  8
_0-0_
  6
CONTINUOUS
 62
    7
 10
233.29433
 20
203.7748
 11
235.30523
 21
204.30397
  0
LINE
  8
_0-0_
  6
CONTINUOUS
 62
    7
 10
235.30523
 20
204.30397
 11
237.33715
 21
204.76958
  0
LINE
  8
_0-0_
  6
CONTINUOUS
 62
    7
 10
237.33715
 20
204.76958
 11
239.36907
 21
205.1506
  0
LINE
  8
_0-0_
  6
CONTINUOUS
 62
    7
 10
227.41011
 20
201.70051
 11
208.29637
 21
201.70051
  0
LINE
  8
_0-0_
  6
CONTINUOUS
 62
    7
 10
226.45754
 20
172.38464
 11
226.45754
 21
133.94599
  0
LINE
  8
_0-0_
  6
CONTINUOUS
 62
    7
 10
226.71144
 20
172.38464
 11
208.29637
 21
172.38464
  0
LINE
  8
_0-0_
  6
CONTINUOUS
 62
    7
 10
226.71144
 20
172.38464
 11
226.71144
 21
192.04839
  0
LINE
  8
_0-0_
  6
CONTINUOUS
 62
    7
 10
227.41011
 20
201.70051
 11
226.92332
 21
192.55654
  0
LINE
  8
_0-0_
  6
CONTINUOUS
 62
    7
 10
208.29637
 20
192.04839
 11
226.71144
 21
192.04839
  0
LINE
  8
_0-0_
  6
CONTINUOUS
 62
    7
 10
208.29637
 20
192.36603
 11
226.64805
 21
192.36603
  0
LINE
  8
_0-0_
  6
CONTINUOUS
 62
    7
 10
226.92332
 20
192.55654
 11
226.90196
 21
192.36603
  0
LINE
  8
_0-0_
  6
CONTINUOUS
 62
    7
 10
226.90196
 20
192.36603
 11
226.81721
 21
192.1967
  0
LINE
  8
_0-0_
  6
CONTINUOUS
 62
    7
 10
226.81721
 20
192.1967
 11
226.71144
 21
192.04839
  0
LINE
  8
_0-0_
  6
CONTINUOUS
 62
    7
 10
186.68529
 20
199.20282
 11
187.63786
 21
192.74705
  0
LINE
  8
_0-0_
  6
CONTINUOUS
 62
    7
 10
186.68529
 20
199.20282
 11
186.64292
 21
199.54147
  0
LINE
  8
_0-0_
  6
CONTINUOUS
 62
    7
 10
186.64292
 20
199.54147
 11
186.53715
 21
199.88012
  0
LINE
  8
_0-0_
  6
CONTINUOUS
 62
    7
 10
186.53715
 20
199.88012
 11
186.38901
 21
200.1764
  0
LINE
  8
_0-0_
  6
CONTINUOUS
 62
    7
 10
186.38901
 20
200.1764
 11
186.17731
 21
200.47285
  0
LINE
  8
_0-0_
  6
CONTINUOUS
 62
    7
 10
186.17731
 20
200.47285
 11
185.92324
 21
200.70557
  0
LINE
  8
_0-0_
  6
CONTINUOUS
 62
    7
 10
185.92324
 20
200.70557
 11
185.62696
 21
200.89608
  0
LINE
  8
_0-0_
  6
CONTINUOUS
 62
    7
 10
185.62696
 20
200.89608
 11
185.30949
 21
201.02321
  0
LINE
  8
_0-0_
  6
CONTINUOUS
 62
    7
 10
229.88644
 20
199.20282
 11
228.95523
 21
192.74705
  0
LINE
  8
_0-0_
  6
CONTINUOUS
 62
    7
 10
229.88644
 20
199.20282
 11
229.92882
 21
199.54147
  0
LINE
  8
_0-0_
  6
CONTINUOUS
 62
    7
 10
229.92882
 20
199.54147
 11
230.03458
 21
199.88012
  0
LINE
  8
_0-0_
  6
CONTINUOUS
 62
    7
 10
230.03458
 20
199.88012
 11
230.18272
 21
200.1764
  0
LINE
  8
_0-0_
  6
CONTINUOUS
 62
    7
 10
230.18272
 20
200.1764
 11
230.3946
 21
200.47285
  0
LINE
  8
_0-0_
  6
CONTINUOUS
 62
    7
 10
230.3946
 20
200.47285
 11
230.6485
 21
200.70557
  0
LINE
  8
_0-0_
  6
CONTINUOUS
 62
    7
 10
230.6485
 20
200.70557
 11
230.94478
 21
200.89608
  0
LINE
  8
_0-0_
  6
CONTINUOUS
 62
    7
 10
230.94478
 20
200.89608
 11
231.26241
 21
201.02321
  0
LINE
  8
_0-0_
  6
CONTINUOUS
 62
    7
 10
237.8453
 20
203.16089
 11
231.26241
 21
201.02321
  0
LINE
  8
_0-0_
  6
CONTINUOUS
 62
    7
 10
237.8453
 20
203.16089
 11
239.58094
 21
204.15583
  0
LINE
  8
_0-0_
  6
CONTINUOUS
 62
    7
 10
188.67501
 20
199.20282
 11
208.29637
 21
199.20282
  0
LINE
  8
_0-0_
  6
CONTINUOUS
 62
    7
 10
187.29921
 20
201.02321
 11
208.29637
 21
201.02321
  0
LINE
  8
_0-0_
  6
CONTINUOUS
 62
    7
 10
208.29637
 20
204.15583
 11
177.01215
 21
204.15583
  0
LINE
  8
_0-0_
  6
CONTINUOUS
 62
    7
 10
208.29637
 20
192.74705
 11
187.63786
 21
192.74705
  0
LINE
  8
_0-0_
  6
CONTINUOUS
 62
    7
 10
177.01215
 20
213.02454
 11
177.01215
 21
204.60025
  0
LINE
  8
_0-0_
  6
CONTINUOUS
 62
    7
 10
239.58094
 20
213.02454
 11
239.58094
 21
204.60025
  0
LINE
  8
_0-0_
  6
CONTINUOUS
 62
    7
 10
226.5633
 20
133.84005
 11
227.96029
 21
135.21603
  0
LINE
  8
_0-0_
  6
CONTINUOUS
 62
    7
 10
227.96029
 20
135.21603
 11
228.95523
 21
136.2108
  0
LINE
  8
_0-0_
  6
CONTINUOUS
 62
    7
 10
228.95523
 20
139.02596
 11
227.96029
 21
138.03119
  0
LINE
  8
_0-0_
  6
CONTINUOUS
 62
    7
 10
227.96029
 20
138.03119
 11
226.45754
 21
136.54945
  0
LINE
  8
_0-0_
  6
CONTINUOUS
 62
    7
 10
226.45754
 20
139.34342
 11
227.96029
 21
140.84635
  0
LINE
  8
_0-0_
  6
CONTINUOUS
 62
    7
 10
227.96029
 20
140.84635
 11
228.95523
 21
141.84112
  0
LINE
  8
_0-0_
  6
CONTINUOUS
 62
    7
 10
228.95523
 20
144.63509
 11
227.96029
 21
143.64032
  0
LINE
  8
_0-0_
  6
CONTINUOUS
 62
    7
 10
227.96029
 20
143.64032
 11
226.45754
 21
142.15858
  0
LINE
  8
_0-0_
  6
CONTINUOUS
 62
    7
 10
226.45754
 20
144.97374
 11
227.96029
 21
146.45548
  0
LINE
  8
_0-0_
  6
CONTINUOUS
 62
    7
 10
227.96029
 20
146.45548
 11
228.95523
 21
147.45025
  0
LINE
  8
_0-0_
  6
CONTINUOUS
 62
    7
 10
228.95523
 20
150.26541
 11
227.96029
 21
149.27064
  0
LINE
  8
_0-0_
  6
CONTINUOUS
 62
    7
 10
227.96029
 20
149.27064
 11
226.45754
 21
147.76789
  0
LINE
  8
_0-0_
  6
CONTINUOUS
 62
    7
 10
226.45754
 20
150.58305
 11
227.96029
 21
152.0858
  0
LINE
  8
_0-0_
  6
CONTINUOUS
 62
    7
 10
227.96029
 20
152.0858
 11
228.95523
 21
153.05955
  0
LINE
  8
_0-0_
  6
CONTINUOUS
 62
    7
 10
228.95523
 20
155.87471
 11
227.96029
 21
154.87977
  0
LINE
  8
_0-0_
  6
CONTINUOUS
 62
    7
 10
227.96029
 20
154.87977
 11
226.45754
 21
153.39821
  0
LINE
  8
_0-0_
  6
CONTINUOUS
 62
    7
 10
226.45754
 20
156.21337
 11
227.96029
 21
157.69493
  0
LINE
  8
_0-0_
  6
CONTINUOUS
 62
    7
 10
227.96029
 20
157.69493
 11
228.95523
 21
158.68987
  0
LINE
  8
_0-0_
  6
CONTINUOUS
 62
    7
 10
228.95523
 20
161.50503
 11
227.96029
 21
160.51009
  0
LINE
  8
_0-0_
  6
CONTINUOUS
 62
    7
 10
227.96029
 20
160.51009
 11
226.45754
 21
159.00734
  0
LINE
  8
_0-0_
  6
CONTINUOUS
 62
    7
 10
226.45754
 20
161.8225
 11
227.96029
 21
163.30423
  0
LINE
  8
_0-0_
  6
CONTINUOUS
 62
    7
 10
227.96029
 20
163.30423
 11
228.95523
 21
164.29901
  0
LINE
  8
_0-0_
  6
CONTINUOUS
 62
    7
 10
228.95523
 20
167.11416
 11
227.96029
 21
166.11922
  0
LINE
  8
_0-0_
  6
CONTINUOUS
 62
    7
 10
227.96029
 20
166.11922
 11
226.45754
 21
164.63766
  0
LINE
  8
_0-0_
  6
CONTINUOUS
 62
    7
 10
226.45754
 20
167.45282
 11
227.96029
 21
168.93455
  0
LINE
  8
_0-0_
  6
CONTINUOUS
 62
    7
 10
227.96029
 20
168.93455
 11
228.95523
 21
169.92932
  0
LINE
  8
_0-0_
  6
CONTINUOUS
 62
    7
 10
228.95523
 20
172.74448
 11
226.45754
 21
170.24679
  0
LINE
  8
_0-0_
  6
CONTINUOUS
 62
    7
 10
226.71144
 20
173.31603
 11
227.96029
 21
174.54369
  0
LINE
  8
_0-0_
  6
CONTINUOUS
 62
    7
 10
227.96029
 20
174.54369
 11
228.95523
 21
175.53846
  0
LINE
  8
_0-0_
  6
CONTINUOUS
 62
    7
 10
228.95523
 20
178.35362
 11
227.96029
 21
177.35885
  0
LINE
  8
_0-0_
  6
CONTINUOUS
 62
    7
 10
227.96029
 20
177.35885
 11
226.71144
 21
176.11
  0
LINE
  8
_0-0_
  6
CONTINUOUS
 62
    7
 10
226.71144
 20
178.92516
 11
227.96029
 21
180.17401
  0
LINE
  8
_0-0_
  6
CONTINUOUS
 62
    7
 10
227.96029
 20
180.17401
 11
228.95523
 21
181.16878
  0
LINE
  8
_0-0_
  6
CONTINUOUS
 62
    7
 10
228.95523
 20
183.96275
 11
227.96029
 21
182.96798
  0
LINE
  8
_0-0_
  6
CONTINUOUS
 62
    7
 10
227.96029
 20
182.96798
 11
226.71144
 21
181.74032
  0
LINE
  8
_0-0_
  6
CONTINUOUS
 62
    7
 10
226.71144
 20
184.55548
 11
227.96029
 21
185.78314
  0
LINE
  8
_0-0_
  6
CONTINUOUS
 62
    7
 10
227.96029
 20
185.78314
 11
228.95523
 21
186.77791
  0
LINE
  8
_0-0_
  6
CONTINUOUS
 62
    7
 10
228.95523
 20
189.59307
 11
227.96029
 21
188.5983
  0
LINE
  8
_0-0_
  6
CONTINUOUS
 62
    7
 10
227.96029
 20
188.5983
 11
226.71144
 21
187.34945
  0
LINE
  8
_0-0_
  6
CONTINUOUS
 62
    7
 10
226.71144
 20
190.16461
 11
227.96029
 21
191.41346
  0
LINE
  8
_0-0_
  6
CONTINUOUS
 62
    7
 10
227.96029
 20
191.41346
 11
228.95523
 21
192.4084
  0
LINE
  8
_0-0_
  6
CONTINUOUS
 62
    7
 10
238.79753
 20
205.06603
 11
236.44832
 21
202.71647
  0
LINE
  8
_0-0_
  6
CONTINUOUS
 62
    7
 10
229.37864
 20
195.6256
 11
226.96535
 21
193.23385
  0
LINE
  8
_0-0_
  6
CONTINUOUS
 62
    7
 10
227.11349
 20
196.19714
 11
229.84407
 21
198.92755
  0
LINE
  8
_0-0_
  6
CONTINUOUS
 62
    7
 10
232.29939
 20
201.36186
 11
235.22049
 21
204.28278
  0
LINE
  8
_0-0_
  6
CONTINUOUS
 62
    7
 10
231.26241
 20
203.13987
 11
227.28299
 21
199.16044
  0
LINE
  8
_0-0_
  6
CONTINUOUS
 62
    7
 10
188.63263
 20
151.81071
 11
188.63263
 21
192.74705
  0
LINE
  8
_0-0_
  6
CONTINUOUS
 62
    7
 10
183.95488
 20
136.35894
 11
183.95488
 21
126.51647
  0
LINE
  8
_0-0_
  6
CONTINUOUS
 62
    7
 10
232.61703
 20
136.35894
 11
232.61703
 21
126.51647
  0
LINE
  8
_0-0_
  6
CONTINUOUS
 62
    7
 10
239.55958
 20
149.01656
 11
239.58094
 21
151.81071
  0
LINE
  8
_0-0_
  6
CONTINUOUS
 62
    7
 10
228.95523
 20
151.81071
 11
239.58094
 21
151.81071
  0
LINE
  8
_0-0_
  6
CONTINUOUS
 62
    7
 10
238.8399
 20
151.81071
 11
239.58094
 21
151.81071
  0
LINE
  8
_0-0_
  6
CONTINUOUS
 62
    7
 10
238.37447
 20
151.81071
 11
237.92971
 21
151.3873
  0
LINE
  8
_0-0_
  6
CONTINUOUS
 62
    7
 10
237.92971
 20
151.3873
 11
237.4219
 21
151.04865
  0
LINE
  8
_0-0_
  6
CONTINUOUS
 62
    7
 10
237.4219
 20
151.04865
 11
236.89273
 21
150.75237
  0
LINE
  8
_0-0_
  6
CONTINUOUS
 62
    7
 10
236.89273
 20
150.75237
 11
236.32119
 21
150.54067
  0
LINE
  8
_0-0_
  6
CONTINUOUS
 62
    7
 10
236.32119
 20
150.54067
 11
235.72864
 21
150.39253
  0
LINE
  8
_0-0_
  6
CONTINUOUS
 62
    7
 10
235.72864
 20
150.39253
 11
235.13574
 21
150.32897
  0
LINE
  8
_0-0_
  6
CONTINUOUS
 62
    7
 10
235.13574
 20
150.32897
 11
234.52182
 21
150.32897
  0
LINE
  8
_0-0_
  6
CONTINUOUS
 62
    7
 10
234.52182
 20
150.32897
 11
233.90825
 21
150.39253
  0
LINE
  8
_0-0_
  6
CONTINUOUS
 62
    7
 10
233.90825
 20
150.39253
 11
233.33671
 21
150.54067
  0
LINE
  8
_0-0_
  6
CONTINUOUS
 62
    7
 10
233.33671
 20
150.54067
 11
232.76517
 21
150.75237
  0
LINE
  8
_0-0_
  6
CONTINUOUS
 62
    7
 10
232.76517
 20
150.75237
 11
232.236
 21
151.04865
  0
LINE
  8
_0-0_
  6
CONTINUOUS
 62
    7
 10
232.236
 20
151.04865
 11
231.72785
 21
151.3873
  0
LINE
  8
_0-0_
  6
CONTINUOUS
 62
    7
 10
231.72785
 20
151.3873
 11
231.28343
 21
151.81071
  0
LINE
  8
_0-0_
  6
CONTINUOUS
 62
    7
 10
233.42146
 20
148.52977
 11
239.05178
 21
148.52977
  0
LINE
  8
_0-0_
  6
CONTINUOUS
 62
    7
 10
228.1508
 20
149.88455
 11
229.88644
 21
151.81071
  0
LINE
  8
_0-0_
  6
CONTINUOUS
 62
    7
 10
232.61703
 20
126.17782
 11
229.12439
 21
126.17782
  0
LINE
  8
_0-0_
  6
CONTINUOUS
 62
    7
 10
225.42022
 20
116.25078
 11
225.42022
 21
123.40486
  0
LINE
  8
_0-0_
  6
CONTINUOUS
 62
    7
 10
215.97997
 20
116.25078
 11
200.59176
 21
126.17782
  0
LINE
  8
_0-0_
  6
CONTINUOUS
 62
    7
 10
212.40293
 20
123.87064
 11
200.59176
 21
116.25078
  0
LINE
  8
_0-0_
  6
CONTINUOUS
 62
    7
 10
215.97997
 20
119.95494
 11
215.97997
 21
116.25078
  0
LINE
  8
_0-0_
  6
CONTINUOUS
 62
    7
 10
217.27119
 20
116.25078
 11
217.08068
 21
117.07622
  0
LINE
  8
_0-0_
  6
CONTINUOUS
 62
    7
 10
217.08068
 20
117.07622
 11
216.86915
 21
117.88031
  0
LINE
  8
_0-0_
  6
CONTINUOUS
 62
    7
 10
216.86915
 20
117.88031
 11
216.57253
 21
118.68474
  0
LINE
  8
_0-0_
  6
CONTINUOUS
 62
    7
 10
216.57253
 20
118.68474
 11
216.25523
 21
119.44679
  0
LINE
  8
_0-0_
  6
CONTINUOUS
 62
    7
 10
216.25523
 20
119.44679
 11
215.85285
 21
120.16647
  0
LINE
  8
_0-0_
  6
CONTINUOUS
 62
    7
 10
215.85285
 20
120.16647
 11
215.40843
 21
120.86514
  0
LINE
  8
_0-0_
  6
CONTINUOUS
 62
    7
 10
215.40843
 20
120.86514
 11
214.90062
 21
121.50007
  0
LINE
  8
_0-0_
  6
CONTINUOUS
 62
    7
 10
214.90062
 20
121.50007
 11
214.3501
 21
122.11364
  0
LINE
  8
_0-0_
  6
CONTINUOUS
 62
    7
 10
214.3501
 20
122.11364
 11
213.75754
 21
122.66416
  0
LINE
  8
_0-0_
  6
CONTINUOUS
 62
    7
 10
213.75754
 20
122.66416
 11
212.52971
 21
123.76487
  0
LINE
  8
_0-0_
  6
CONTINUOUS
 62
    7
 10
212.52971
 20
123.76487
 11
211.91614
 21
124.31505
  0
LINE
  8
_0-0_
  6
CONTINUOUS
 62
    7
 10
211.91614
 20
124.31505
 11
211.3446
 21
124.90796
  0
LINE
  8
_0-0_
  6
CONTINUOUS
 62
    7
 10
211.3446
 20
124.90796
 11
210.79407
 21
125.52153
  0
LINE
  8
_0-0_
  6
CONTINUOUS
 62
    7
 10
210.79407
 20
125.52153
 11
210.30728
 21
126.17782
  0
LINE
  8
_0-0_
  6
CONTINUOUS
 62
    7
 10
210.30728
 20
126.17782
 11
209.8415
 21
126.85512
  0
LINE
  8
_0-0_
  6
CONTINUOUS
 62
    7
 10
209.8415
 20
126.85512
 11
209.39708
 21
127.5748
  0
LINE
  8
_0-0_
  6
CONTINUOUS
 62
    7
 10
209.39708
 20
127.5748
 11
208.99504
 21
128.29448
  0
LINE
  8
_0-0_
  6
CONTINUOUS
 62
    7
 10
208.99504
 20
128.29448
 11
208.63503
 21
129.03535
  0
LINE
  8
_0-0_
  6
CONTINUOUS
 62
    7
 10
208.63503
 20
129.03535
 11
208.29637
 21
129.79724
  0
LINE
  8
_0-0_
  6
CONTINUOUS
 62
    7
 10
208.29637
 20
151.81071
 11
208.29637
 21
129.79724
  0
LINE
  8
_0-0_
  6
CONTINUOUS
 62
    7
 10
232.61703
 20
126.17782
 11
232.61703
 21
147.72551
  0
LINE
  8
_0-0_
  6
CONTINUOUS
 62
    7
 10
208.29637
 20
151.81071
 11
177.01215
 21
151.81071
  0
LINE
  8
_0-0_
  6
CONTINUOUS
 62
    7
 10
177.03334
 20
149.01656
 11
177.01215
 21
151.81071
  0
LINE
  8
_0-0_
  6
CONTINUOUS
 62
    7
 10
208.29637
 20
148.52977
 11
177.54132
 21
148.52977
  0
LINE
  8
_0-0_
  6
CONTINUOUS
 62
    7
 10
183.95488
 20
126.17782
 11
210.30728
 21
126.17782
  0
LINE
  8
_0-0_
  6
CONTINUOUS
 62
    7
 10
200.59176
 20
126.17782
 11
200.59176
 21
116.25078
  0
LINE
  8
_0-0_
  6
CONTINUOUS
 62
    7
 10
177.03334
 20
149.01656
 11
208.29637
 21
149.01656
  0
LINE
  8
_0-0_
  6
CONTINUOUS
 62
    7
 10
184.97084
 20
147.535
 11
208.29637
 21
147.535
  0
LINE
  8
_0-0_
  6
CONTINUOUS
 62
    7
 10
187.68023
 20
117.24537
 11
187.68023
 21
122.70654
  0
LINE
  8
_0-0_
  6
CONTINUOUS
 62
    7
 10
183.95488
 20
126.17782
 11
183.95488
 21
147.72551
  0
LINE
  8
_0-0_
  6
CONTINUOUS
 62
    7
 10
227.8969
 20
116.25078
 11
228.91286
 21
117.24537
  0
LINE
  8
_0-0_
  6
CONTINUOUS
 62
    7
 10
188.69619
 20
116.25078
 11
187.68023
 21
117.24537
  0
LINE
  8
_0-0_
  6
CONTINUOUS
 62
    7
 10
188.69619
 20
116.25078
 11
227.8969
 21
116.25078
  0
LINE
  8
_0-0_
  6
CONTINUOUS
 62
    7
 10
228.99761
 20
139.89378
 11
228.99761
 21
150.90051
  0
LINE
  8
_0-0_
  6
CONTINUOUS
 62
    7
 10
200.59176
 20
117.24537
 11
187.68023
 21
117.24537
  0
LINE
  8
_0-0_
  6
CONTINUOUS
 62
    7
 10
217.0383
 20
117.24537
 11
215.97997
 21
117.24537
  0
LINE
  8
_0-0_
  6
CONTINUOUS
 62
    7
 10
183.17164
 20
148.52977
 11
183.40453
 21
148.48739
  0
LINE
  8
_0-0_
  6
CONTINUOUS
 62
    7
 10
183.40453
 20
148.48739
 11
183.63724
 21
148.38163
  0
LINE
  8
_0-0_
  6
CONTINUOUS
 62
    7
 10
183.63724
 20
148.38163
 11
183.80657
 21
148.19112
  0
LINE
  8
_0-0_
  6
CONTINUOUS
 62
    7
 10
183.80657
 20
148.19112
 11
183.91251
 21
147.97942
  0
LINE
  8
_0-0_
  6
CONTINUOUS
 62
    7
 10
183.91251
 20
147.97942
 11
183.95488
 21
147.72551
  0
LINE
  8
_0-0_
  6
CONTINUOUS
 62
    7
 10
232.61703
 20
147.72551
 11
232.6594
 21
147.97942
  0
LINE
  8
_0-0_
  6
CONTINUOUS
 62
    7
 10
232.6594
 20
147.97942
 11
232.76517
 21
148.19112
  0
LINE
  8
_0-0_
  6
CONTINUOUS
 62
    7
 10
232.76517
 20
148.19112
 11
232.95568
 21
148.38163
  0
LINE
  8
_0-0_
  6
CONTINUOUS
 62
    7
 10
232.95568
 20
148.38163
 11
233.16721
 21
148.48739
  0
LINE
  8
_0-0_
  6
CONTINUOUS
 62
    7
 10
233.16721
 20
148.48739
 11
233.42146
 21
148.52977
  0
LINE
  8
_0-0_
  6
CONTINUOUS
 62
    7
 10
188.69619
 20
116.25078
 11
188.69619
 21
122.70654
  0
LINE
  8
_0-0_
  6
CONTINUOUS
 62
    7
 10
228.1508
 20
127.3631
 11
226.3094
 21
125.52153
  0
LINE
  8
_0-0_
  6
CONTINUOUS
 62
    7
 10
228.40471
 20
127.3631
 11
209.52421
 21
127.3631
  0
LINE
  8
_0-0_
  6
CONTINUOUS
 62
    7
 10
177.03334
 20
149.01656
 11
177.54132
 21
148.52977
  0
LINE
  8
_0-0_
  6
CONTINUOUS
 62
    7
 10
239.55958
 20
149.01656
 11
239.05178
 21
148.52977
  0
LINE
  8
_0-0_
  6
CONTINUOUS
 62
    7
 10
228.1508
 20
139.89378
 11
228.1508
 21
149.88455
  0
LINE
  8
_0-0_
  6
CONTINUOUS
 62
    7
 10
187.44735
 20
126.17782
 11
188.69619
 21
124.94999
  0
LINE
  8
_0-0_
  6
CONTINUOUS
 62
    7
 10
229.39965
 20
139.89378
 11
228.1508
 21
139.89378
  0
LINE
  8
_0-0_
  6
CONTINUOUS
 62
    7
 10
229.39965
 20
128.35805
 11
229.39965
 21
139.89378
  0
LINE
  8
_0-0_
  6
CONTINUOUS
 62
    7
 10
225.42022
 20
123.40486
 11
225.4626
 21
123.87064
  0
LINE
  8
_0-0_
  6
CONTINUOUS
 62
    7
 10
225.4626
 20
123.87064
 11
225.56836
 21
124.33641
  0
LINE
  8
_0-0_
  6
CONTINUOUS
 62
    7
 10
225.56836
 20
124.33641
 11
225.75887
 21
124.75947
  0
LINE
  8
_0-0_
  6
CONTINUOUS
 62
    7
 10
225.75887
 20
124.75947
 11
225.99176
 21
125.16186
  0
LINE
  8
_0-0_
  6
CONTINUOUS
 62
    7
 10
225.99176
 20
125.16186
 11
226.3094
 21
125.52153
  0
LINE
  8
_0-0_
  6
CONTINUOUS
 62
    7
 10
224.93343
 20
123.40486
 11
212.9321
 21
123.40486
  0
LINE
  8
_0-0_
  6
CONTINUOUS
 62
    7
 10
225.80125
 20
125.52153
 11
210.81543
 21
125.52153
  0
LINE
  8
_0-0_
  6
CONTINUOUS
 62
    7
 10
229.39965
 20
128.35805
 11
229.35728
 21
128.10397
  0
LINE
  8
_0-0_
  6
CONTINUOUS
 62
    7
 10
229.35728
 20
128.10397
 11
229.25151
 21
127.87108
  0
LINE
  8
_0-0_
  6
CONTINUOUS
 62
    7
 10
229.25151
 20
127.87108
 11
229.10337
 21
127.65955
  0
LINE
  8
_0-0_
  6
CONTINUOUS
 62
    7
 10
229.10337
 20
127.65955
 11
228.8915
 21
127.51124
  0
LINE
  8
_0-0_
  6
CONTINUOUS
 62
    7
 10
228.8915
 20
127.51124
 11
228.65896
 21
127.40548
  0
LINE
  8
_0-0_
  6
CONTINUOUS
 62
    7
 10
228.65896
 20
127.40548
 11
228.40471
 21
127.3631
  0
LINE
  8
_0-0_
  6
CONTINUOUS
 62
    7
 10
200.59176
 20
122.70654
 11
187.68023
 21
122.70654
  0
LINE
  8
_0-0_
  6
CONTINUOUS
 62
    7
 10
188.69619
 20
122.70654
 11
188.69619
 21
124.94999
  0
LINE
  8
_0-0_
  6
CONTINUOUS
 62
    7
 10
229.12439
 20
126.17782
 11
227.8969
 21
124.94999
  0
LINE
  8
_0-0_
  6
CONTINUOUS
 62
    7
 10
227.8969
 20
122.70654
 11
227.8969
 21
124.94999
  0
LINE
  8
_0-0_
  6
CONTINUOUS
 62
    7
 10
228.8915
 20
117.24537
 11
228.8915
 21
122.70654
  0
LINE
  8
_0-0_
  6
CONTINUOUS
 62
    7
 10
227.8969
 20
116.25078
 11
227.8969
 21
122.70654
  0
LINE
  8
_0-0_
  6
CONTINUOUS
 62
    7
 10
227.8969
 20
116.25078
 11
228.8915
 21
117.24537
  0
LINE
  8
_0-0_
  6
CONTINUOUS
 62
    7
 10
227.8969
 20
122.70654
 11
228.8915
 21
122.70654
  0
LINE
  8
_0-0_
  6
CONTINUOUS
 62
    7
 10
229.03998
 20
126.09307
 11
227.96029
 21
127.17259
  0
LINE
  8
_0-0_
  6
CONTINUOUS
 62
    7
 10
226.92332
 20
126.13544
 11
228.00267
 21
125.05609
  0
LINE
  8
_0-0_
  6
CONTINUOUS
 62
    7
 10
228.8915
 20
122.05025
 11
228.23555
 21
122.70654
  0
LINE
  8
_0-0_
  6
CONTINUOUS
 62
    7
 10
227.8969
 20
123.04519
 11
225.90701
 21
125.03474
  0
LINE
  8
_0-0_
  6
CONTINUOUS
 62
    7
 10
225.42022
 20
123.40486
 11
227.8969
 21
120.92853
  0
LINE
  8
_0-0_
  6
CONTINUOUS
 62
    7
 10
227.8969
 20
120.92853
 11
228.8915
 21
119.93358
  0
LINE
  8
_0-0_
  6
CONTINUOUS
 62
    7
 10
228.8915
 20
117.83828
 11
227.8969
 21
118.83287
  0
LINE
  8
_0-0_
  6
CONTINUOUS
 62
    7
 10
227.8969
 20
118.83287
 11
225.42022
 21
121.28819
  0
LINE
  8
_0-0_
  6
CONTINUOUS
 62
    7
 10
225.42022
 20
119.19289
 11
227.8969
 21
116.71621
  0
LINE
  8
_0-0_
  6
CONTINUOUS
 62
    7
 10
227.8969
 20
116.71621
 11
228.12979
 21
116.48332
  0
LINE
  8
_0-0_
  6
CONTINUOUS
 62
    7
 10
226.26703
 20
116.25078
 11
225.42022
 21
117.07622
  0
LINE
  8
_0-0_
  6
CONTINUOUS
 62
    7
 10
229.3149
 20
127.95583
 11
231.0719
 21
126.17782
  0
LINE
  8
_0-0_
  6
CONTINUOUS
 62
    7
 10
232.61703
 20
126.74936
 11
229.39965
 21
129.96656
  0
LINE
  8
_0-0_
  6
CONTINUOUS
 62
    7
 10
229.39965
 20
132.08323
 11
232.61703
 21
128.84484
  0
LINE
  8
_0-0_
  6
CONTINUOUS
 62
    7
 10
232.61703
 20
130.96151
 11
229.39965
 21
134.17888
  0
LINE
  8
_0-0_
  6
CONTINUOUS
 62
    7
 10
229.39965
 20
136.29555
 11
232.61703
 21
133.05698
  0
LINE
  8
_0-0_
  6
CONTINUOUS
 62
    7
 10
232.61703
 20
135.17365
 11
229.39965
 21
138.39103
  0
LINE
  8
_0-0_
  6
CONTINUOUS
 62
    7
 10
228.1508
 20
141.73535
 11
228.99761
 21
140.90974
  0
LINE
  8
_0-0_
  6
CONTINUOUS
 62
    7
 10
228.99761
 20
140.90974
 11
232.61703
 21
137.26913
  0
LINE
  8
_0-0_
  6
CONTINUOUS
 62
    7
 10
232.61703
 20
139.3858
 11
228.1508
 21
143.85202
  0
LINE
  8
_0-0_
  6
CONTINUOUS
 62
    7
 10
228.1508
 20
145.96869
 11
228.99761
 21
145.12205
  0
LINE
  8
_0-0_
  6
CONTINUOUS
 62
    7
 10
228.99761
 20
145.12205
 11
232.61703
 21
141.48128
  0
LINE
  8
_0-0_
  6
CONTINUOUS
 62
    7
 10
232.61703
 20
143.59794
 11
228.1508
 21
148.06416
  0
LINE
  8
_0-0_
  6
CONTINUOUS
 62
    7
 10
228.29894
 20
150.03269
 11
228.99761
 21
149.3342
  0
LINE
  8
_0-0_
  6
CONTINUOUS
 62
    7
 10
228.99761
 20
149.3342
 11
232.61703
 21
145.69342
  0
LINE
  8
_0-0_
  6
CONTINUOUS
 62
    7
 10
232.61703
 20
147.81009
 11
229.29389
 21
151.13323
  0
LINE
  8
_0-0_
  6
CONTINUOUS
 62
    7
 10
230.73325
 20
151.81071
 11
234.01401
 21
148.52977
  0
LINE
  8
_0-0_
  6
CONTINUOUS
 62
    7
 10
236.13068
 20
148.52977
 11
234.31029
 21
150.32897
  0
LINE
  8
_0-0_
  6
CONTINUOUS
 62
    7
 10
236.23644
 20
150.51948
 11
238.22599
 21
148.52977
  0
LINE
  8
_0-0_
  6
CONTINUOUS
 62
    7
 10
239.55958
 20
149.31301
 11
237.65479
 21
151.19679
  0
LINE
  8
_0-0_
  6
CONTINUOUS
 62
    7
 10
239.15754
 20
151.81071
 11
239.55958
 21
151.3873
  0
LINE
  8
_0-0_
  6
CONTINUOUS
 62
    7
 10
188.69619
 20
124.94999
 11
200.59176
 21
124.94999
  0
LINE
  8
_0-0_
  6
CONTINUOUS
 62
    7
 10
228.55285
 20
128.35805
 11
208.95267
 21
128.35805
  0
LINE
  8
_0-0_
  6
CONTINUOUS
 62
    7
 10
256.36614
 20
116.25078
 11
256.36614
 21
126.17782
  0
LINE
  8
_0-0_
  6
CONTINUOUS
 62
    7
 10
257.06446
 20
116.25078
 11
227.91792
 21
116.25078
  0
LINE
  8
_0-0_
  6
CONTINUOUS
 62
    7
 10
257.06446
 20
126.17782
 11
230.88139
 21
126.17782
  0
LINE
  8
_0-0_
  6
CONTINUOUS
 62
    7
 10
252.51349
 20
119.97596
 11
252.34433
 21
120.16647
  0
LINE
  8
_0-0_
  6
CONTINUOUS
 62
    7
 10
252.34433
 20
120.16647
 11
251.83618
 21
120.44173
  0
LINE
  8
_0-0_
  6
CONTINUOUS
 62
    7
 10
251.83618
 20
120.44173
 11
255.32882
 21
120.44173
  0
LINE
  8
_0-0_
  6
CONTINUOUS
 62
    7
 10
251.83618
 20
121.98686
 11
252.00568
 21
121.7116
  0
LINE
  8
_0-0_
  6
CONTINUOUS
 62
    7
 10
252.00568
 20
121.7116
 11
252.51349
 21
121.52108
  0
LINE
  8
_0-0_
  6
CONTINUOUS
 62
    7
 10
252.51349
 20
121.52108
 11
253.33928
 21
121.43633
  0
LINE
  8
_0-0_
  6
CONTINUOUS
 62
    7
 10
253.33928
 20
121.43633
 11
253.82607
 21
121.43633
  0
LINE
  8
_0-0_
  6
CONTINUOUS
 62
    7
 10
253.82607
 20
121.43633
 11
254.65151
 21
121.52108
  0
LINE
  8
_0-0_
  6
CONTINUOUS
 62
    7
 10
254.65151
 20
121.52108
 11
255.15932
 21
121.7116
  0
LINE
  8
_0-0_
  6
CONTINUOUS
 62
    7
 10
255.15932
 20
121.7116
 11
255.32882
 21
121.98686
  0
LINE
  8
_0-0_
  6
CONTINUOUS
 62
    7
 10
255.32882
 20
121.98686
 11
255.32882
 21
122.17737
  0
LINE
  8
_0-0_
  6
CONTINUOUS
 62
    7
 10
255.32882
 20
122.17737
 11
255.15932
 21
122.45264
  0
LINE
  8
_0-0_
  6
CONTINUOUS
 62
    7
 10
255.15932
 20
122.45264
 11
254.65151
 21
122.62179
  0
LINE
  8
_0-0_
  6
CONTINUOUS
 62
    7
 10
254.65151
 20
122.62179
 11
253.82607
 21
122.72755
  0
LINE
  8
_0-0_
  6
CONTINUOUS
 62
    7
 10
253.82607
 20
122.72755
 11
253.33928
 21
122.72755
  0
LINE
  8
_0-0_
  6
CONTINUOUS
 62
    7
 10
253.33928
 20
122.72755
 11
252.51349
 21
122.62179
  0
LINE
  8
_0-0_
  6
CONTINUOUS
 62
    7
 10
252.51349
 20
122.62179
 11
252.00568
 21
122.45264
  0
LINE
  8
_0-0_
  6
CONTINUOUS
 62
    7
 10
252.00568
 20
122.45264
 11
251.83618
 21
122.17737
  0
LINE
  8
_0-0_
  6
CONTINUOUS
 62
    7
 10
251.83618
 20
122.17737
 11
251.83618
 21
121.98686
  0
LINE
  8
_0-0_
  6
CONTINUOUS
 62
    7
 10
255.81561
 20
119.02339
 11
256.36614
 21
116.25078
  0
LINE
  8
_0-0_
  6
CONTINUOUS
 62
    7
 10
256.36614
 20
116.25078
 11
256.8953
 21
119.02339
  0
LINE
  8
_0-0_
  6
CONTINUOUS
 62
    7
 10
256.8953
 20
119.02339
 11
255.81561
 21
119.02339
  0
LINE
  8
_0-0_
  6
CONTINUOUS
 62
    7
 10
255.81561
 20
123.40486
 11
256.36614
 21
126.17782
  0
LINE
  8
_0-0_
  6
CONTINUOUS
 62
    7
 10
256.36614
 20
126.17782
 11
256.8953
 21
123.40486
  0
LINE
  8
_0-0_
  6
CONTINUOUS
 62
    7
 10
256.8953
 20
123.40486
 11
255.81561
 21
123.40486
  0
LINE
  8
_0-0_
  6
CONTINUOUS
 62
    7
 10
187.68023
 20
105.18031
 11
187.68023
 21
117.203
  0
LINE
  8
_0-0_
  6
CONTINUOUS
 62
    7
 10
228.8915
 20
105.18031
 11
228.8915
 21
117.203
  0
LINE
  8
_0-0_
  6
CONTINUOUS
 62
    7
 10
219.17599
 20
229.11124
 11
235.60151
 21
245.55778
  0
LINE
  8
_0-0_
  6
CONTINUOUS
 62
    7
 10
237.2524
 20
247.18766
 11
238.86126
 21
248.81753
  0
LINE
  8
_0-0_
  6
CONTINUOUS
 62
    7
 10
235.60151
 20
239.92746
 11
229.46304
 21
233.78916
  0
LINE
  8
_0-0_
  6
CONTINUOUS
 62
    7
 10
227.32536
 20
231.65131
 11
221.82182
 21
226.14794
  0
LINE
  8
_0-0_
  6
CONTINUOUS
 62
    7
 10
224.80665
 20
223.5233
 11
227.02908
 21
225.72454
  0
LINE
  8
_0-0_
  6
CONTINUOUS
 62
    7
 10
234.35267
 20
249.91807
 11
212.25479
 21
227.82019
  0
LINE
  8
_0-0_
  6
CONTINUOUS
 62
    7
 10
212.25479
 20
233.45051
 11
229.69593
 21
250.87064
  0
LINE
  8
_0-0_
  6
CONTINUOUS
 62
    7
 10
224.87004
 20
251.65371
 11
212.25479
 21
239.05964
  0
LINE
  8
_0-0_
  6
CONTINUOUS
 62
    7
 10
212.25479
 20
244.68996
 11
219.83228
 21
252.26762
  0
LINE
  8
_0-0_
  6
CONTINUOUS
 62
    7
 10
214.62536
 20
252.64865
 11
210.96357
 21
249.00787
  0
LINE
  8
_0-0_
  6
CONTINUOUS
 62
    7
 10
208.29637
 20
251.95016
 11
209.16419
 21
252.81798
  0
LINE
  8
_0-0_
  6
CONTINUOUS
 62
    7
 10
189.96623
 20
223.5233
 11
189.66978
 21
223.5233
  0
LINE
  8
_0-0_
  6
CONTINUOUS
 62
    7
 10
189.66978
 20
223.5233
 11
189.64859
 21
223.81958
  0
LINE
  8
_0-0_
  6
CONTINUOUS
 62
    7
 10
211.72562
 20
226.21151
 11
211.97953
 21
225.91505
  0
LINE
  8
_0-0_
  6
CONTINUOUS
 62
    7
 10
235.8344
 20
247.5475
 11
235.60151
 21
247.5475
  0
LINE
  8
_0-0_
  6
CONTINUOUS
 62
    7
 10
211.97953
 20
225.91505
 11
212.55107
 21
225.91505
  0
LINE
  8
_0-0_
  6
CONTINUOUS
 62
    7
 10
208.29637
 20
225.91505
 11
211.97953
 21
225.91505
  0
LINE
  8
_0-0_
  6
CONTINUOUS
 62
    7
 10
211.72562
 20
226.21151
 11
212.25479
 21
226.21151
  0
LINE
  8
_0-0_
  6
CONTINUOUS
 62
    7
 10
208.29637
 20
226.21151
 11
211.72562
 21
226.21151
  0
LINE
  8
_0-0_
  6
CONTINUOUS
 62
    7
 10
240.27926
 20
246.36204
 11
235.60151
 21
246.36204
  0
LINE
  8
_0-0_
  6
CONTINUOUS
 62
    7
 10
213.82093
 20
229.11124
 11
213.75754
 21
225.91505
  0
LINE
  8
_0-0_
  6
CONTINUOUS
 62
    7
 10
221.71606
 20
228.13766
 11
220.67908
 21
229.11124
  0
LINE
  8
_0-0_
  6
CONTINUOUS
 62
    7
 10
213.82093
 20
229.11124
 11
220.67908
 21
229.11124
  0
LINE
  8
_0-0_
  6
CONTINUOUS
 62
    7
 10
221.71606
 20
228.13766
 11
221.9703
 21
223.5233
  0
LINE
  8
_0-0_
  6
CONTINUOUS
 62
    7
 10
227.64265
 20
233.30237
 11
235.60151
 21
235.44005
  0
LINE
  8
_0-0_
  6
CONTINUOUS
 62
    7
 10
235.60151
 20
235.44005
 11
235.60151
 21
247.58987
  0
LINE
  8
_0-0_
  6
CONTINUOUS
 62
    7
 10
235.60151
 20
247.58987
 11
235.8344
 21
247.5475
  0
LINE
  8
_0-0_
  6
CONTINUOUS
 62
    7
 10
227.34637
 20
231.98996
 11
227.2196
 21
232.18048
  0
LINE
  8
_0-0_
  6
CONTINUOUS
 62
    7
 10
227.2196
 20
232.18048
 11
227.13485
 21
232.39218
  0
LINE
  8
_0-0_
  6
CONTINUOUS
 62
    7
 10
227.13485
 20
232.39218
 11
227.11349
 21
232.60371
  0
LINE
  8
_0-0_
  6
CONTINUOUS
 62
    7
 10
227.11349
 20
232.60371
 11
227.15586
 21
232.8366
  0
LINE
  8
_0-0_
  6
CONTINUOUS
 62
    7
 10
227.15586
 20
232.8366
 11
227.26197
 21
233.02711
  0
LINE
  8
_0-0_
  6
CONTINUOUS
 62
    7
 10
227.26197
 20
233.02711
 11
227.43112
 21
233.19644
  0
LINE
  8
_0-0_
  6
CONTINUOUS
 62
    7
 10
227.43112
 20
233.19644
 11
227.64265
 21
233.30237
  0
LINE
  8
_0-0_
  6
CONTINUOUS
 62
    7
 10
208.29637
 20
250.55317
 11
212.25479
 21
248.24599
  0
LINE
  8
_0-0_
  6
CONTINUOUS
 62
    7
 10
213.75754
 20
225.91505
 11
212.55107
 21
225.91505
  0
LINE
  8
_0-0_
  6
CONTINUOUS
 62
    7
 10
212.25479
 20
248.24599
 11
212.25479
 21
226.21151
  0
LINE
  8
_0-0_
  6
CONTINUOUS
 62
    7
 10
240.57554
 20
246.57374
 11
240.57554
 21
248.05548
  0
LINE
  8
_0-0_
  6
CONTINUOUS
 62
    7
 10
240.27926
 20
246.36204
 11
238.05683
 21
246.97596
  0
LINE
  8
_0-0_
  6
CONTINUOUS
 62
    7
 10
238.05683
 20
246.97596
 11
235.8344
 21
247.5475
  0
LINE
  8
_0-0_
  6
CONTINUOUS
 62
    7
 10
240.27926
 20
248.43651
 11
237.44292
 21
249.19839
  0
LINE
  8
_0-0_
  6
CONTINUOUS
 62
    7
 10
237.44292
 20
249.19839
 11
234.56419
 21
249.87587
  0
LINE
  8
_0-0_
  6
CONTINUOUS
 62
    7
 10
234.56419
 20
249.87587
 11
231.68582
 21
250.48961
  0
LINE
  8
_0-0_
  6
CONTINUOUS
 62
    7
 10
231.68582
 20
250.48961
 11
228.8071
 21
251.03996
  0
LINE
  8
_0-0_
  6
CONTINUOUS
 62
    7
 10
228.8071
 20
251.03996
 11
225.886
 21
251.50557
  0
LINE
  8
_0-0_
  6
CONTINUOUS
 62
    7
 10
225.886
 20
251.50557
 11
222.98626
 21
251.90778
  0
LINE
  8
_0-0_
  6
CONTINUOUS
 62
    7
 10
222.98626
 20
251.90778
 11
220.04415
 21
252.24644
  0
LINE
  8
_0-0_
  6
CONTINUOUS
 62
    7
 10
220.04415
 20
252.24644
 11
217.12305
 21
252.50051
  0
LINE
  8
_0-0_
  6
CONTINUOUS
 62
    7
 10
217.12305
 20
252.50051
 11
214.18094
 21
252.66984
  0
LINE
  8
_0-0_
  6
CONTINUOUS
 62
    7
 10
214.18094
 20
252.66984
 11
211.23849
 21
252.79679
  0
LINE
  8
_0-0_
  6
CONTINUOUS
 62
    7
 10
211.23849
 20
252.79679
 11
208.29637
 21
252.81798
  0
LINE
  8
_0-0_
  6
CONTINUOUS
 62
    7
 10
240.27926
 20
248.43651
 11
240.57554
 21
248.05548
  0
LINE
  8
_0-0_
  6
CONTINUOUS
 62
    7
 10
240.27926
 20
246.36204
 11
240.57554
 21
246.57374
  0
LINE
  8
_0-0_
  6
CONTINUOUS
 62
    7
 10
212.55107
 20
225.91505
 11
212.25479
 21
226.21151
  0
LINE
  8
_0-0_
  6
CONTINUOUS
 62
    7
 10
226.60568
 20
223.5233
 11
226.92332
 21
223.81958
  0
LINE
  8
_0-0_
  6
CONTINUOUS
 62
    7
 10
221.9703
 20
223.5233
 11
226.60568
 21
223.5233
  0
LINE
  8
_0-0_
  6
CONTINUOUS
 62
    7
 10
226.92332
 20
223.81958
 11
227.34637
 21
231.98996
  0
LINE
  8
_0-0_
  6
CONTINUOUS
 62
    7
 10
208.29637
 20
248.24599
 11
212.25479
 21
248.24599
  0
LINE
  8
_0-0_
  6
CONTINUOUS
 62
    7
 10
202.79318
 20
246.36204
 11
203.00488
 21
229.11124
  0
LINE
  8
_0-0_
  6
CONTINUOUS
 62
    7
 10
195.91401
 20
229.11124
 11
203.00488
 21
229.11124
  0
LINE
  8
_0-0_
  6
CONTINUOUS
 62
    7
 10
194.85568
 20
228.13766
 11
195.91401
 21
229.11124
  0
LINE
  8
_0-0_
  6
CONTINUOUS
 62
    7
 10
202.77199
 20
229.11124
 11
202.81437
 21
225.91505
  0
LINE
  8
_0-0_
  6
CONTINUOUS
 62
    7
 10
208.29637
 20
225.91505
 11
202.81437
 21
225.91505
  0
LINE
  8
_0-0_
  6
CONTINUOUS
 62
    7
 10
189.22536
 20
231.98996
 11
189.3735
 21
232.18048
  0
LINE
  8
_0-0_
  6
CONTINUOUS
 62
    7
 10
189.3735
 20
232.18048
 11
189.45808
 21
232.39218
  0
LINE
  8
_0-0_
  6
CONTINUOUS
 62
    7
 10
189.45808
 20
232.39218
 11
189.45808
 21
232.60371
  0
LINE
  8
_0-0_
  6
CONTINUOUS
 62
    7
 10
189.45808
 20
232.60371
 11
189.41587
 21
232.8366
  0
LINE
  8
_0-0_
  6
CONTINUOUS
 62
    7
 10
189.41587
 20
232.8366
 11
189.30994
 21
233.02711
  0
LINE
  8
_0-0_
  6
CONTINUOUS
 62
    7
 10
189.30994
 20
233.02711
 11
189.14061
 21
233.19644
  0
LINE
  8
_0-0_
  6
CONTINUOUS
 62
    7
 10
189.14061
 20
233.19644
 11
188.9501
 21
233.30237
  0
LINE
  8
_0-0_
  6
CONTINUOUS
 62
    7
 10
188.63263
 20
233.40814
 11
188.42093
 21
246.36204
  0
LINE
  8
_0-0_
  6
CONTINUOUS
 62
    7
 10
194.62279
 20
223.5233
 11
194.85568
 21
228.13766
  0
LINE
  8
_0-0_
  6
CONTINUOUS
 62
    7
 10
189.18299
 20
246.36204
 11
189.3735
 21
233.26
  0
LINE
  8
_0-0_
  6
CONTINUOUS
 62
    7
 10
188.61144
 20
246.36204
 11
188.80196
 21
233.40814
  0
LINE
  8
_0-0_
  6
CONTINUOUS
 62
    7
 10
191.89238
 20
223.5233
 11
192.3368
 21
246.36204
  0
LINE
  8
_0-0_
  6
CONTINUOUS
 62
    7
 10
183.84894
 20
234.76275
 11
184.08183
 21
246.36204
  0
LINE
  8
_0-0_
  6
CONTINUOUS
 62
    7
 10
181.8594
 20
235.3131
 11
181.71109
 21
246.36204
  0
LINE
  8
_0-0_
  6
CONTINUOUS
 62
    7
 10
189.26773
 20
233.30237
 11
188.9501
 21
233.30237
  0
LINE
  8
_0-0_
  6
CONTINUOUS
 62
    7
 10
189.54283
 20
231.98996
 11
189.22536
 21
231.98996
  0
LINE
  8
_0-0_
  6
CONTINUOUS
 62
    7
 10
188.63263
 20
233.40814
 11
184.01827
 21
234.6358
  0
LINE
  8
_0-0_
  6
CONTINUOUS
 62
    7
 10
192.29442
 20
223.5233
 11
194.62279
 21
223.5233
  0
LINE
  8
_0-0_
  6
CONTINUOUS
 62
    7
 10
188.80196
 20
233.40814
 11
188.86552
 21
233.40814
  0
LINE
  8
_0-0_
  6
CONTINUOUS
 62
    7
 10
188.86552
 20
233.40814
 11
188.97128
 21
233.38695
  0
LINE
  8
_0-0_
  6
CONTINUOUS
 62
    7
 10
188.97128
 20
233.38695
 11
189.09824
 21
233.34458
  0
LINE
  8
_0-0_
  6
CONTINUOUS
 62
    7
 10
189.09824
 20
233.34458
 11
189.26773
 21
233.30237
  0
LINE
  8
_0-0_
  6
CONTINUOUS
 62
    7
 10
189.3735
 20
233.26
 11
189.26773
 21
233.30237
  0
LINE
  8
_0-0_
  6
CONTINUOUS
 62
    7
 10
191.89238
 20
223.5233
 11
192.29442
 21
223.5233
  0
LINE
  8
_0-0_
  6
CONTINUOUS
 62
    7
 10
184.25116
 20
234.6358
 11
184.25116
 21
234.65698
  0
LINE
  8
_0-0_
  6
CONTINUOUS
 62
    7
 10
184.25116
 20
234.65698
 11
184.16641
 21
234.67817
  0
LINE
  8
_0-0_
  6
CONTINUOUS
 62
    7
 10
184.16641
 20
234.67817
 11
184.03946
 21
234.72037
  0
LINE
  8
_0-0_
  6
CONTINUOUS
 62
    7
 10
184.03946
 20
234.72037
 11
183.84894
 21
234.76275
  0
LINE
  8
_0-0_
  6
CONTINUOUS
 62
    7
 10
181.33023
 20
235.44005
 11
181.8594
 21
235.3131
  0
LINE
  8
_0-0_
  6
CONTINUOUS
 62
    7
 10
181.33023
 20
235.44005
 11
181.41481
 21
246.36204
  0
LINE
  8
_0-0_
  6
CONTINUOUS
 62
    7
 10
189.3735
 20
233.26
 11
189.56401
 21
233.11186
  0
LINE
  8
_0-0_
  6
CONTINUOUS
 62
    7
 10
189.56401
 20
233.11186
 11
189.71215
 21
232.90016
  0
LINE
  8
_0-0_
  6
CONTINUOUS
 62
    7
 10
189.71215
 20
232.90016
 11
189.77571
 21
232.66727
  0
LINE
  8
_0-0_
  6
CONTINUOUS
 62
    7
 10
189.77571
 20
232.66727
 11
189.77571
 21
232.41337
  0
LINE
  8
_0-0_
  6
CONTINUOUS
 62
    7
 10
189.77571
 20
232.41337
 11
189.69096
 21
232.18048
  0
LINE
  8
_0-0_
  6
CONTINUOUS
 62
    7
 10
189.69096
 20
232.18048
 11
189.54283
 21
231.98996
  0
LINE
  8
_0-0_
  6
CONTINUOUS
 62
    7
 10
188.80196
 20
233.40814
 11
188.63263
 21
233.40814
  0
LINE
  8
_0-0_
  6
CONTINUOUS
 62
    7
 10
183.84894
 20
234.76275
 11
181.8594
 21
235.3131
  0
LINE
  8
_0-0_
  6
CONTINUOUS
 62
    7
 10
184.25116
 20
234.6358
 11
184.01827
 21
234.6358
  0
LINE
  8
_0-0_
  6
CONTINUOUS
 62
    7
 10
181.33023
 20
235.44005
 11
180.97039
 21
235.44005
  0
LINE
  8
_0-0_
  6
CONTINUOUS
 62
    7
 10
208.29637
 20
248.43651
 11
176.29247
 21
248.43651
  0
LINE
  8
_0-0_
  6
CONTINUOUS
 62
    7
 10
208.29637
 20
248.05548
 11
176.01738
 21
248.05548
  0
LINE
  8
_0-0_
  6
CONTINUOUS
 62
    7
 10
208.29637
 20
246.36204
 11
176.29247
 21
246.36204
  0
LINE
  8
_0-0_
  6
CONTINUOUS
 62
    7
 10
208.29637
 20
246.57374
 11
176.01738
 21
246.57374
  0
LINE
  8
_0-0_
  6
CONTINUOUS
 62
    7
 10
176.29247
 20
248.43651
 11
179.15001
 21
249.19839
  0
LINE
  8
_0-0_
  6
CONTINUOUS
 62
    7
 10
179.15001
 20
249.19839
 11
182.00754
 21
249.87587
  0
LINE
  8
_0-0_
  6
CONTINUOUS
 62
    7
 10
182.00754
 20
249.87587
 11
184.88609
 21
250.48961
  0
LINE
  8
_0-0_
  6
CONTINUOUS
 62
    7
 10
184.88609
 20
250.48961
 11
187.786
 21
251.03996
  0
LINE
  8
_0-0_
  6
CONTINUOUS
 62
    7
 10
187.786
 20
251.03996
 11
190.68574
 21
251.50557
  0
LINE
  8
_0-0_
  6
CONTINUOUS
 62
    7
 10
190.68574
 20
251.50557
 11
193.60683
 21
251.90778
  0
LINE
  8
_0-0_
  6
CONTINUOUS
 62
    7
 10
193.60683
 20
251.90778
 11
196.52776
 21
252.24644
  0
LINE
  8
_0-0_
  6
CONTINUOUS
 62
    7
 10
196.52776
 20
252.24644
 11
199.47004
 21
252.50051
  0
LINE
  8
_0-0_
  6
CONTINUOUS
 62
    7
 10
199.47004
 20
252.50051
 11
202.41215
 21
252.66984
  0
LINE
  8
_0-0_
  6
CONTINUOUS
 62
    7
 10
202.41215
 20
252.66984
 11
205.35426
 21
252.79679
  0
LINE
  8
_0-0_
  6
CONTINUOUS
 62
    7
 10
205.35426
 20
252.79679
 11
208.29637
 21
252.81798
  0
LINE
  8
_0-0_
  6
CONTINUOUS
 62
    7
 10
176.29247
 20
248.43651
 11
176.01738
 21
248.05548
  0
LINE
  8
_0-0_
  6
CONTINUOUS
 62
    7
 10
176.01738
 20
246.57374
 11
176.01738
 21
248.05548
  0
LINE
  8
_0-0_
  6
CONTINUOUS
 62
    7
 10
176.29247
 20
246.36204
 11
176.01738
 21
246.57374
  0
LINE
  8
_0-0_
  6
CONTINUOUS
 62
    7
 10
190.26251
 20
223.5233
 11
189.96623
 21
223.5233
  0
LINE
  8
_0-0_
  6
CONTINUOUS
 62
    7
 10
189.94504
 20
223.81958
 11
189.64859
 21
223.81958
  0
LINE
  8
_0-0_
  6
CONTINUOUS
 62
    7
 10
189.94504
 20
223.81958
 11
189.54283
 21
231.98996
  0
LINE
  8
_0-0_
  6
CONTINUOUS
 62
    7
 10
191.89238
 20
223.5233
 11
190.26251
 21
223.5233
  0
LINE
  8
_0-0_
  6
CONTINUOUS
 62
    7
 10
190.26251
 20
223.5233
 11
189.94504
 21
223.81958
  0
LINE
  8
_0-0_
  6
CONTINUOUS
 62
    7
 10
189.64859
 20
223.81958
 11
189.22536
 21
231.98996
  0
LINE
  8
_0-0_
  6
CONTINUOUS
 62
    7
 10
189.96623
 20
223.5233
 11
189.64859
 21
223.81958
  0
LINE
  8
_0-0_
  6
CONTINUOUS
 62
    7
 10
180.97039
 20
235.44005
 11
180.97039
 21
246.36204
  0
LINE
  8
_0-0_
  6
CONTINUOUS
 62
    7
 10
188.9501
 20
233.30237
 11
180.97039
 21
235.44005
  0
LINE
  8
_0-0_
  6
CONTINUOUS
 62
    7
 10
184.27235
 20
234.6358
 11
184.50523
 21
246.36204
  0
LINE
  8
_0-0_
  6
CONTINUOUS
 62
    7
 10
192.29442
 20
223.5233
 11
192.7602
 21
246.36204
  0
LINE
  8
_0-0_
  6
CONTINUOUS
 62
    7
 10
208.29637
 20
255.80246
 11
208.29637
 21
248.81753
  0
LINE
  8
_0-0_
  6
CONTINUOUS
 62
    7
 10
208.29637
 20
247.8014
 11
208.29637
 21
246.80663
  0
LINE
  8
_0-0_
  6
CONTINUOUS
 62
    7
 10
208.29637
 20
245.79067
 11
208.29637
 21
238.80557
  0
LINE
  8
_0-0_
  6
CONTINUOUS
 62
    7
 10
208.29637
 20
237.78961
 11
208.29637
 21
236.79484
  0
LINE
  8
_0-0_
  6
CONTINUOUS
 62
    7
 10
208.29637
 20
235.77871
 11
208.29637
 21
228.79378
  0
LINE
  8
_0-0_
  6
CONTINUOUS
 62
    7
 10
208.29637
 20
227.77782
 11
208.29637
 21
226.78287
  0
LINE
  8
_0-0_
  6
CONTINUOUS
 62
    7
 10
208.29637
 20
225.76692
 11
208.29637
 21
221.04679
  0
LINE
  8
_0-0_
  6
CONTINUOUS
 62
    7
 10
176.01738
 20
261.91958
 11
176.01738
 21
247.3358
  0
LINE
  8
_0-0_
  6
CONTINUOUS
 62
    7
 10
240.57554
 20
261.91958
 11
240.57554
 21
247.3358
  0
LINE
  8
_0-0_
  6
CONTINUOUS
 62
    7
 10
237.59106
 20
163.07135
 11
237.59106
 21
168.02436
  0
LINE
  8
_0-0_
  6
CONTINUOUS
 62
    7
 10
255.37119
 20
204.15583
 11
239.60196
 21
204.15583
  0
TEXT
  8
_0-0_
 62
    7
 10
242.75121
 20
13.338966
 40
3
 41
1
 50
0
  1
Ver1.0
  0
LINE
  8
_0-0_
  6
CONTINUOUS
 62
    7
 10
147.93043
 20
172.38464
 11
147.93043
 21
205.1506
  0
LINE
  8
_0-0_
  6
CONTINUOUS
 62
    7
 10
147.93043
 20
172.38464
 11
147.15397
 21
175.28242
  0
LINE
  8
_0-0_
  6
CONTINUOUS
 62
    7
 10
147.93043
 20
172.38464
 11
148.70689
 21
175.28242
  0
LINE
  8
_0-0_
  6
CONTINUOUS
 62
    7
 10
147.93043
 20
205.1506
 11
147.15397
 21
202.25283
  0
LINE
  8
_0-0_
  6
CONTINUOUS
 62
    7
 10
147.93043
 20
205.1506
 11
148.70689
 21
202.25283
  0
TEXT
  8
_0-0_
 62
    7
 10
147.93043
 20
187.14262
 40
3
 41
1
 50
90
  1
33
  0
LINE
  8
_0-0_
  6
CONTINUOUS
 62
    7
 10
265.56718
 20
116.25078
 11
265.56718
 21
159.13429
  0
LINE
  8
_0-0_
  6
CONTINUOUS
 62
    7
 10
265.56718
 20
116.25078
 11
264.79072
 21
119.14855
  0
LINE
  8
_0-0_
  6
CONTINUOUS
 62
    7
 10
265.56718
 20
116.25078
 11
266.34364
 21
119.14855
  0
LINE
  8
_0-0_
  6
CONTINUOUS
 62
    7
 10
265.56718
 20
159.13429
 11
264.79072
 21
156.23651
  0
LINE
  8
_0-0_
  6
CONTINUOUS
 62
    7
 10
265.56718
 20
159.13429
 11
266.34364
 21
156.23651
  0
LINE
  8
_0-0_
  6
CONTINUOUS
 62
    7
 10
265.56718
 20
159.13429
 11
265.56718
 21
204.15583
  0
LINE
  8
_0-0_
  6
CONTINUOUS
 62
    7
 10
265.56718
 20
159.13429
 11
264.79072
 21
162.03207
  0
LINE
  8
_0-0_
  6
CONTINUOUS
 62
    7
 10
265.56718
 20
159.13429
 11
266.34364
 21
162.03207
  0
LINE
  8
_0-0_
  6
CONTINUOUS
 62
    7
 10
265.56718
 20
204.15583
 11
264.79072
 21
201.25805
  0
LINE
  8
_0-0_
  6
CONTINUOUS
 62
    7
 10
265.56718
 20
204.15583
 11
266.34364
 21
201.25805
  0
TEXT
  8
_0-0_
 62
    7
 10
265.56718
 20
136.06753
 40
3
 41
1
 50
90
  1
40
  0
TEXT
  8
_0-0_
 62
    7
 10
265.56718
 20
176.52006
 40
3
 41
1
 50
90
  1
43～60
  0
LINE
  8
_0-0_
  6
CONTINUOUS
 62
    7
 10
265.56718
 20
116.25078
 11
227.93928
 21
116.25078
  0
LINE
  8
_0-0_
  6
CONTINUOUS
 62
    7
 10
265.56718
 20
159.13429
 11
238.86126
 21
159.13429
  0
LINE
  8
_0-0_
  6
CONTINUOUS
 62
    7
 10
265.56718
 20
204.15583
 11
239.60196
 21
204.15583
  0
LINE
  8
_0-0_
  6
CONTINUOUS
 62
    7
 10
249.19215
 20
204.15583
 11
249.19215
 21
199.15583
  0
LINE
  8
_0-0_
  6
CONTINUOUS
 62
    7
 10
249.19215
 20
205.1506
 11
249.19215
 21
210.1506
  0
LINE
  8
_0-0_
  6
CONTINUOUS
 62
    7
 10
249.19215
 20
204.15583
 11
249.19215
 21
205.1506
  0
LINE
  8
_0-0_
  6
CONTINUOUS
 62
    7
 10
249.19215
 20
204.15583
 11
249.96861
 21
201.25805
  0
LINE
  8
_0-0_
  6
CONTINUOUS
 62
    7
 10
249.19215
 20
204.15583
 11
248.41569
 21
201.25805
  0
LINE
  8
_0-0_
  6
CONTINUOUS
 62
    7
 10
249.19215
 20
205.1506
 11
249.96861
 21
208.04838
  0
LINE
  8
_0-0_
  6
CONTINUOUS
 62
    7
 10
249.19215
 20
205.1506
 11
248.41569
 21
208.04838
  0
TEXT
  8
_0-0_
 62
    7
 10
249.19215
 20
203.90322
 40
3
 41
1
 50
90
  1
1
  0
LINE
  8
_0-0_
  6
CONTINUOUS
 62
    7
 10
187.68023
 20
105.18031
 11
228.8915
 21
105.18031
  0
LINE
  8
_0-0_
  6
CONTINUOUS
 62
    7
 10
187.68023
 20
105.18031
 11
190.57801
 21
105.95676
  0
LINE
  8
_0-0_
  6
CONTINUOUS
 62
    7
 10
187.68023
 20
105.18031
 11
190.57801
 21
104.40385
  0
LINE
  8
_0-0_
  6
CONTINUOUS
 62
    7
 10
228.8915
 20
105.18031
 11
225.99372
 21
105.95676
  0
LINE
  8
_0-0_
  6
CONTINUOUS
 62
    7
 10
228.8915
 20
105.18031
 11
225.99372
 21
104.40385
  0
TEXT
  8
_0-0_
 62
    7
 10
202.28587
 20
105.18031
 40
3
 41
1
 50
0
  1
G-1 1/4
  0
LINE
  8
_0-0_
  6
CONTINUOUS
 62
    7
 10
176.01738
 20
261.91958
 11
240.57554
 21
261.91958
  0
LINE
  8
_0-0_
  6
CONTINUOUS
 62
    7
 10
176.01738
 20
261.91958
 11
178.91516
 21
262.69603
  0
LINE
  8
_0-0_
  6
CONTINUOUS
 62
    7
 10
176.01738
 20
261.91958
 11
178.91516
 21
261.14312
  0
LINE
  8
_0-0_
  6
CONTINUOUS
 62
    7
 10
240.57554
 20
261.91958
 11
237.67776
 21
262.69603
  0
LINE
  8
_0-0_
  6
CONTINUOUS
 62
    7
 10
240.57554
 20
261.91958
 11
237.67776
 21
261.14312
  0
TEXT
  8
_0-0_
 62
    7
 10
204.92146
 20
261.91958
 40
3
 41
1
 50
0
  1
φ65
  0
LINE
  8
_0-0_
  6
CONTINUOUS
 62
    7
 10
177.01215
 20
213.02454
 11
239.58094
 21
213.02454
  0
LINE
  8
_0-0_
  6
CONTINUOUS
 62
    7
 10
177.01215
 20
213.02454
 11
179.90993
 21
213.801
  0
LINE
  8
_0-0_
  6
CONTINUOUS
 62
    7
 10
177.01215
 20
213.02454
 11
179.90993
 21
212.24808
  0
LINE
  8
_0-0_
  6
CONTINUOUS
 62
    7
 10
239.58094
 20
213.02454
 11
236.68317
 21
213.801
  0
LINE
  8
_0-0_
  6
CONTINUOUS
 62
    7
 10
239.58094
 20
213.02454
 11
236.68317
 21
212.24808
  0
TEXT
  8
_0-0_
 62
    7
 10
204.92155
 20
213.02454
 40
3
 41
1
 50
0
  1
φ63
  0
TEXT
  8
_0-0_
 62
    3
 10
249.75121
 20
21.338966
 40
5
 41
1
 50
0
  1
RP-147.755.5承認図
  0
LINE
  8
_0-0_
  6
CONTINUOUS
 62
    7
 10
147.93043
 20
172.38464
 11
208.29637
 21
172.38464
  0
LINE
  8
_0-0_
  6
CONTINUOUS
 62
    7
 10
147.93043
 20
205.1506
 11
177.16029
 21
205.1506
  0
LINE
  8
_0-0_
  6
CONTINUOUS
 62
    7
 10
265.56718
 20
223.5233
 11
265.56718
 21
252.81798
  0
LINE
  8
_0-0_
  6
CONTINUOUS
 62
    7
 10
265.56718
 20
223.5233
 11
264.79072
 21
226.42108
  0
LINE
  8
_0-0_
  6
CONTINUOUS
 62
    7
 10
265.56718
 20
223.5233
 11
266.34364
 21
226.42108
  0
LINE
  8
_0-0_
  6
CONTINUOUS
 62
    7
 10
265.56718
 20
252.81798
 11
264.79072
 21
249.9202
  0
LINE
  8
_0-0_
  6
CONTINUOUS
 62
    7
 10
265.56718
 20
252.81798
 11
266.34364
 21
249.9202
  0
LINE
  8
_0-0_
  6
CONTINUOUS
 62
    7
 10
265.56718
 20
223.5233
 11
227.80665
 21
223.5233
  0
LINE
  8
_0-0_
  6
CONTINUOUS
 62
    7
 10
265.56718
 20
252.81798
 11
211.29637
 21
252.81798
  0
TEXT
  8
_0-0_
 62
    7
 10
265.56718
 20
234.79564
 40
3
 41
1
 50
90
  1
29.5
  0
ENDSEC
  0
EOF
