  0
SECTION
  2
HEADER
  9
$ACADVER
  1
AC1009
  9
$INSBASE
 10
0
 20
0
 30
0
  9
$EXTMIN
 10
0
 20
0
  9
$EXTMAX
 10
420
 20
297
  9
$LIMMIN
 10
0
 20
0
  9
$LIMMAX
 10
420
 20
297
  9
$LTSCALE
 40
1
  0
ENDSEC
  0
SECTION
  2
TABLES
  0
TABLE
  2
LTYPE
 70
     9
  0
LTYPE
  2
CONTINUOUS
 70
    64
  3
実線
 72
    65
 73
     0
 40
0.0
  0
LTYPE
  2
DASHED1
 70
    64
  3
--  --  --  --  --  --  --  --  
 72
    65
 73
     2
 40
2.5
 49
1.25
 49
-1.25
  0
LTYPE
  2
DASHED2
 70
    64
  3
----    ----    ----    ----    
 72
    65
 73
     2
 40
5.0
 49
2.5
 49
-2.5
  0
LTYPE
  2
DASHED3
 70
    64
  3
------  ------  ------  ------  
 72
    65
 73
     2
 40
5.0
 49
3.75
 49
-1.25
  0
LTYPE
  2
CENTER1
 70
    64
  3
----- - ----- - ----- - ----- - 
 72
    65
 73
     4
 40
10.0
 49
6.25
 49
-1.25
 49
1.25
 49
-1.25
  0
LTYPE
  2
CENTER2
 70
    64
  3
----------  --  ----------  --  
 72
    65
 73
     4
 40
20.0
 49
12.5
 49
-2.5
 49
2.5
 49
-2.5
  0
LTYPE
  2
PHANTOM1
 70
    64
  3
--- - - --- - - --- - - --- - - 
 72
    65
 73
     6
 40
10.0
 49
3.25
 49
-1.25
 49
1.25
 49
-1.25
 49
1.25
 49
-1.25
  0
LTYPE
  2
PHANTOM2
 70
    64
  3
--------  -  -  --------  -  -  
 72
    65
 73
     6
 40
20.0
 49
10.0
 49
-2.5
 49
1.25
 49
-2.5
 49
1.25
 49
-2.5
  0
LTYPE
  2
DOT
 70
    64
  3
-   -   -   -   -   -   -   -   
 72
    65
 73
     2
 40
2.5
 49
0.625
 49
-1.875
  0
LTYPE
  2
DUMMY
 70
    64
  3
ダミー
 72
    65
 73
     0
 40
0.0
  0
LTYPE
  2
RAND1
 70
    64
  3
----- - ----- - ----- - ----- - 
 72
    65
 73
     4
 40
10.0
 49
6.25
 49
-1.25
 49
1.25
 49
-1.25
  0
LTYPE
  2
RAND2
 70
    64
  3
----------  --  ----------  --  
 72
    65
 73
     4
 40
20.0
 49
12.5
 49
-2.5
 49
2.5
 49
-2.5
  0
LTYPE
  2
RAND3
 70
    64
  3
--- - - --- - - --- - - --- - - 
 72
    65
 73
     6
 40
10.0
 49
3.25
 49
-1.25
 49
1.25
 49
-1.25
 49
1.25
 49
-1.25
  0
LTYPE
  2
RAND4
 70
    64
  3
--------  -  -  --------  -  -  
 72
    65
 73
     6
 40
20.0
 49
10.0
 49
-2.5
 49
1.25
 49
-2.5
 49
1.25
 49
-2.5
  0
LTYPE
  2
RAND5
 70
    64
  3
----- - ----- - ----- - ----- - 
 72
    65
 73
     4
 40
10.0
 49
6.25
 49
-1.25
 49
1.25
 49
-1.25
  0
LTYPE
  2
LONG1
 70
    64
  3
----------  --  ----------  --  
 72
    65
 73
     4
 40
20.0
 49
12.5
 49
-2.5
 49
2.5
 49
-2.5
  0
LTYPE
  2
LONG2
 70
    64
  3
--- - - --- - - --- - - --- - - 
 72
    65
 73
     6
 40
10.0
 49
3.25
 49
-1.25
 49
1.25
 49
-1.25
 49
1.25
 49
-1.25
  0
LTYPE
  2
LONG3
 70
    64
  3
--------  -  -  --------  -  -  
 72
    65
 73
     6
 40
20.0
 49
10.0
 49
-2.5
 49
1.25
 49
-2.5
 49
1.25
 49
-2.5
  0
LTYPE
  2
LONG4
 70
    64
  3
----- - ----- - ----- - ----- - 
 72
    65
 73
     4
 40
10.0
 49
6.25
 49
-1.25
 49
1.25
 49
-1.25
  0
LTYPE
  2
LONG5
 70
    64
  3
----------  --  ----------  --  
 72
    65
 73
     4
 40
20.0
 49
12.5
 49
-2.5
 49
2.5
 49
-2.5
  0
ENDTAB
  0
TABLE
  2
STYLE
  5
3
100
AcDbSymbolTable
 70
     1
  0
STYLE
  5
10
100
AcDbSymbolTableRecord
100
AcDbTextStyleTableRecord
  2
STANDARD
 70
     0
 40
0.0
 41
1.0
 50
0.0
 71
     0
 42
0.2
  3
txt
  4
bigfont.shx
  0
ENDTAB
  0
TABLE
  2
LAYER
 70
    3
  0
LAYER
  2
_0-0_
 70
   64
 62
    7
  6
CONTINUOUS
  0
LAYER
  2
_0-1_
 70
   64
 62
    7
  6
CONTINUOUS
  0
LAYER
  2
ADD_LINE
 70
   64
 62
    7
  6
CONTINUOUS
  0
ENDTAB
  0
ENDSEC
  0
SECTION
  2
BLOCKS
  0
ENDSEC
  0
SECTION
  2
ENTITIES
  0
LINE
  8
_0-1_
  6
CONTINUOUS
 62
    1
 10
241.75121
 20
28.338966
 11
241.75121
 21
10.338966
  0
LINE
  8
_0-1_
  6
CONTINUOUS
 62
    1
 10
306.75121
 20
287.50384
 11
306.75121
 21
10.338966
  0
LINE
  8
ADD_LINE
  6
DOT
 62
    7
 10
310
 20
291.49999
 11
110
 21
291.49999
  0
LINE
  8
ADD_LINE
  6
DOT
 62
    7
 10
110
 20
291.49999
 11
110
 21
5.5
  0
LINE
  8
ADD_LINE
  6
DOT
 62
    7
 10
110
 20
5.5
 11
310
 21
5.5
  0
LINE
  8
ADD_LINE
  6
DOT
 62
    7
 10
310
 20
5.5
 11
310
 21
291.49999
  0
LINE
  8
_0-1_
  6
CONTINUOUS
 62
    1
 10
114.30465
 20
10.338966
 11
114.30465
 21
287.50384
  0
LINE
  8
_0-1_
  6
CONTINUOUS
 62
    1
 10
114.30465
 20
287.50384
 11
306.75121
 21
287.50384
  0
LINE
  8
_0-1_
  6
CONTINUOUS
 62
    1
 10
306.75121
 20
28.338966
 11
114.30465
 21
28.338966
  0
LINE
  8
_0-1_
  6
CONTINUOUS
 62
    1
 10
306.75121
 20
10.338966
 11
114.30465
 21
10.338966
  0
LINE
  8
_0-1_
  6
CONTINUOUS
 62
    7
 10
126.17665
 20
13.819895
 11
130.3805
 21
13.819895
  0
LINE
  8
_0-1_
  6
CONTINUOUS
 62
    7
 10
130.3805
 20
13.819895
 11
130.3805
 21
18.029664
  0
LINE
  8
_0-1_
  6
CONTINUOUS
 62
    7
 10
126.17665
 20
18.029664
 11
126.17665
 21
13.819895
  0
LINE
  8
_0-1_
  6
CONTINUOUS
 62
    7
 10
130.3805
 20
18.029664
 11
126.17665
 21
18.029664
  0
LINE
  8
_0-1_
  6
CONTINUOUS
 62
    7
 10
130.85683
 20
19.402456
 11
133.00683
 21
23.126365
  0
LINE
  8
_0-1_
  6
CONTINUOUS
 62
    7
 10
130.85683
 20
19.402456
 11
135.15683
 21
19.402456
  0
LINE
  8
_0-1_
  6
CONTINUOUS
 62
    7
 10
133.00683
 20
23.126365
 11
135.15683
 21
19.402456
  0
CIRCLE
  8
_0-1_
  6
CONTINUOUS
 62
    7
 10
136.3896
 20
23.922135
 40
1.4758715
  0
LINE
  8
_0-1_
  6
CONTINUOUS
 62
    2
 10
139.35639
 20
16.016395
 11
141.16866
 21
16.016395
  0
LINE
  8
_0-1_
  6
CONTINUOUS
 62
    2
 10
141.63496
 20
15.016395
 11
142.24116
 21
13.716395
  0
LINE
  8
_0-1_
  6
CONTINUOUS
 62
    2
 10
138.89008
 20
15.016395
 11
138.28388
 21
13.716395
  0
LINE
  8
_0-1_
  6
CONTINUOUS
 62
    2
 10
140.26252
 20
17.959602
 11
141.16866
 21
16.016395
  0
LINE
  8
_0-1_
  6
CONTINUOUS
 62
    2
 10
140.26252
 20
17.959602
 11
139.35639
 21
16.016395
  0
LINE
  8
_0-1_
  6
CONTINUOUS
 62
    2
 10
139.66754
 20
19.471523
 11
136.98388
 21
13.716395
  0
LINE
  8
_0-1_
  6
CONTINUOUS
 62
    2
 10
147.51042
 20
18.471523
 11
147.58523
 21
18.430466
  0
LINE
  8
_0-1_
  6
CONTINUOUS
 62
    2
 10
147.58523
 20
18.430466
 11
147.71283
 21
18.358737
  0
LINE
  8
_0-1_
  6
CONTINUOUS
 62
    2
 10
147.71283
 20
18.358737
 11
147.83655
 21
18.284391
  0
LINE
  8
_0-1_
  6
CONTINUOUS
 62
    2
 10
147.83655
 20
18.284391
 11
147.95396
 21
18.205771
  0
LINE
  8
_0-1_
  6
CONTINUOUS
 62
    2
 10
147.95396
 20
18.205771
 11
148.0626
 21
18.121223
  0
LINE
  8
_0-1_
  6
CONTINUOUS
 62
    2
 10
148.0626
 20
18.121223
 11
148.16002
 21
18.029089
  0
LINE
  8
_0-1_
  6
CONTINUOUS
 62
    2
 10
148.16002
 20
18.029089
 11
148.21042
 21
17.971523
  0
LINE
  8
_0-1_
  6
CONTINUOUS
 62
    2
 10
148.21042
 20
17.971523
 11
148.28237
 21
17.869989
  0
LINE
  8
_0-1_
  6
CONTINUOUS
 62
    2
 10
148.28237
 20
17.869989
 11
148.37782
 21
17.675811
  0
LINE
  8
_0-1_
  6
CONTINUOUS
 62
    2
 10
148.37782
 20
17.675811
 11
148.44226
 21
17.461258
  0
LINE
  8
_0-1_
  6
CONTINUOUS
 62
    2
 10
148.44226
 20
17.461258
 11
148.48169
 21
17.230779
  0
LINE
  8
_0-1_
  6
CONTINUOUS
 62
    2
 10
148.48169
 20
17.230779
 11
148.50215
 21
16.988823
  0
LINE
  8
_0-1_
  6
CONTINUOUS
 62
    2
 10
148.50215
 20
16.988823
 11
148.50964
 21
16.739838
  0
LINE
  8
_0-1_
  6
CONTINUOUS
 62
    2
 10
148.50964
 20
16.739838
 11
148.51042
 21
16.593959
  0
LINE
  8
_0-1_
  6
CONTINUOUS
 62
    2
 10
148.51042
 20
16.593959
 11
148.50964
 21
16.44808
  0
LINE
  8
_0-1_
  6
CONTINUOUS
 62
    2
 10
148.50964
 20
16.44808
 11
148.50215
 21
16.199095
  0
LINE
  8
_0-1_
  6
CONTINUOUS
 62
    2
 10
148.50215
 20
16.199095
 11
148.48169
 21
15.957139
  0
LINE
  8
_0-1_
  6
CONTINUOUS
 62
    2
 10
148.48169
 20
15.957139
 11
148.44226
 21
15.72666
  0
LINE
  8
_0-1_
  6
CONTINUOUS
 62
    2
 10
148.44226
 20
15.72666
 11
148.37782
 21
15.512108
  0
LINE
  8
_0-1_
  6
CONTINUOUS
 62
    2
 10
148.37782
 20
15.512108
 11
148.28237
 21
15.31793
  0
LINE
  8
_0-1_
  6
CONTINUOUS
 62
    2
 10
148.28237
 20
15.31793
 11
148.21042
 21
15.216395
  0
LINE
  8
_0-1_
  6
CONTINUOUS
 62
    2
 10
148.21042
 20
15.216395
 11
148.16002
 21
15.158829
  0
LINE
  8
_0-1_
  6
CONTINUOUS
 62
    2
 10
148.16002
 20
15.158829
 11
148.0626
 21
15.066695
  0
LINE
  8
_0-1_
  6
CONTINUOUS
 62
    2
 10
148.0626
 20
15.066695
 11
147.95396
 21
14.982147
  0
LINE
  8
_0-1_
  6
CONTINUOUS
 62
    2
 10
147.95396
 20
14.982147
 11
147.83655
 21
14.903528
  0
LINE
  8
_0-1_
  6
CONTINUOUS
 62
    2
 10
147.83655
 20
14.903528
 11
147.71283
 21
14.829181
  0
LINE
  8
_0-1_
  6
CONTINUOUS
 62
    2
 10
147.71283
 20
14.829181
 11
147.58523
 21
14.757452
  0
LINE
  8
_0-1_
  6
CONTINUOUS
 62
    2
 10
147.58523
 20
14.757452
 11
147.51042
 21
14.716395
  0
LINE
  8
_0-1_
  6
CONTINUOUS
 62
    2
 10
147.51042
 20
13.716395
 11
147.57591
 21
13.733349
  0
LINE
  8
_0-1_
  6
CONTINUOUS
 62
    2
 10
147.57591
 20
13.733349
 11
147.68888
 21
13.762873
  0
LINE
  8
_0-1_
  6
CONTINUOUS
 62
    2
 10
147.68888
 20
13.762873
 11
147.80204
 21
13.793214
  0
LINE
  8
_0-1_
  6
CONTINUOUS
 62
    2
 10
147.80204
 20
13.793214
 11
147.9155
 21
13.824886
  0
LINE
  8
_0-1_
  6
CONTINUOUS
 62
    2
 10
147.9155
 20
13.824886
 11
148.02937
 21
13.858408
  0
LINE
  8
_0-1_
  6
CONTINUOUS
 62
    2
 10
148.02937
 20
13.858408
 11
148.14378
 21
13.894294
  0
LINE
  8
_0-1_
  6
CONTINUOUS
 62
    2
 10
148.14378
 20
13.894294
 11
148.21042
 21
13.916395
  0
LINE
  8
_0-1_
  6
CONTINUOUS
 62
    2
 10
148.21042
 20
13.916395
 11
148.34292
 21
13.963378
  0
LINE
  8
_0-1_
  6
CONTINUOUS
 62
    2
 10
148.34292
 20
13.963378
 11
148.56982
 21
14.055518
  0
LINE
  8
_0-1_
  6
CONTINUOUS
 62
    2
 10
148.56982
 20
14.055518
 11
148.78907
 21
14.163681
  0
LINE
  8
_0-1_
  6
CONTINUOUS
 62
    2
 10
148.78907
 20
14.163681
 11
148.99406
 21
14.290104
  0
LINE
  8
_0-1_
  6
CONTINUOUS
 62
    2
 10
148.99406
 20
14.290104
 11
149.17817
 21
14.437027
  0
LINE
  8
_0-1_
  6
CONTINUOUS
 62
    2
 10
149.17817
 20
14.437027
 11
149.33478
 21
14.606689
  0
LINE
  8
_0-1_
  6
CONTINUOUS
 62
    2
 10
149.33478
 20
14.606689
 11
149.41042
 21
14.716395
  0
LINE
  8
_0-1_
  6
CONTINUOUS
 62
    2
 10
149.41042
 20
14.716395
 11
149.43549
 21
14.75958
  0
LINE
  8
_0-1_
  6
CONTINUOUS
 62
    2
 10
149.43549
 20
14.75958
 11
149.4749
 21
14.836612
  0
LINE
  8
_0-1_
  6
CONTINUOUS
 62
    2
 10
149.4749
 20
14.836612
 11
149.51003
 21
14.916423
  0
LINE
  8
_0-1_
  6
CONTINUOUS
 62
    2
 10
149.51003
 20
14.916423
 11
149.54151
 21
14.998454
  0
LINE
  8
_0-1_
  6
CONTINUOUS
 62
    2
 10
149.54151
 20
14.998454
 11
149.56999
 21
15.082144
  0
LINE
  8
_0-1_
  6
CONTINUOUS
 62
    2
 10
149.56999
 20
15.082144
 11
149.5961
 21
15.166934
  0
LINE
  8
_0-1_
  6
CONTINUOUS
 62
    2
 10
149.5961
 20
15.166934
 11
149.61042
 21
15.216395
  0
LINE
  8
_0-1_
  6
CONTINUOUS
 62
    2
 10
149.61042
 20
15.216395
 11
149.64523
 21
15.344622
  0
LINE
  8
_0-1_
  6
CONTINUOUS
 62
    2
 10
149.64523
 20
15.344622
 11
149.69789
 21
15.566707
  0
LINE
  8
_0-1_
  6
CONTINUOUS
 62
    2
 10
149.69789
 20
15.566707
 11
149.7409
 21
15.789861
  0
LINE
  8
_0-1_
  6
CONTINUOUS
 62
    2
 10
149.7409
 20
15.789861
 11
149.77392
 21
16.013851
  0
LINE
  8
_0-1_
  6
CONTINUOUS
 62
    2
 10
149.77392
 20
16.013851
 11
149.79658
 21
16.238444
  0
LINE
  8
_0-1_
  6
CONTINUOUS
 62
    2
 10
149.79658
 20
16.238444
 11
149.80853
 21
16.463405
  0
LINE
  8
_0-1_
  6
CONTINUOUS
 62
    2
 10
149.80853
 20
16.463405
 11
149.81042
 21
16.593959
  0
LINE
  8
_0-1_
  6
CONTINUOUS
 62
    2
 10
149.81042
 20
16.593959
 11
149.80853
 21
16.724514
  0
LINE
  8
_0-1_
  6
CONTINUOUS
 62
    2
 10
149.80853
 20
16.724514
 11
149.79658
 21
16.949475
  0
LINE
  8
_0-1_
  6
CONTINUOUS
 62
    2
 10
149.79658
 20
16.949475
 11
149.77392
 21
17.174067
  0
LINE
  8
_0-1_
  6
CONTINUOUS
 62
    2
 10
149.77392
 20
17.174067
 11
149.7409
 21
17.398057
  0
LINE
  8
_0-1_
  6
CONTINUOUS
 62
    2
 10
149.7409
 20
17.398057
 11
149.69789
 21
17.621211
  0
LINE
  8
_0-1_
  6
CONTINUOUS
 62
    2
 10
149.69789
 20
17.621211
 11
149.64523
 21
17.843296
  0
LINE
  8
_0-1_
  6
CONTINUOUS
 62
    2
 10
149.64523
 20
17.843296
 11
149.61042
 21
17.971523
  0
LINE
  8
_0-1_
  6
CONTINUOUS
 62
    2
 10
149.61042
 20
17.971523
 11
149.5961
 21
18.020985
  0
LINE
  8
_0-1_
  6
CONTINUOUS
 62
    2
 10
149.5961
 20
18.020985
 11
149.56999
 21
18.105774
  0
LINE
  8
_0-1_
  6
CONTINUOUS
 62
    2
 10
149.56999
 20
18.105774
 11
149.54151
 21
18.189465
  0
LINE
  8
_0-1_
  6
CONTINUOUS
 62
    2
 10
149.54151
 20
18.189465
 11
149.51003
 21
18.271495
  0
LINE
  8
_0-1_
  6
CONTINUOUS
 62
    2
 10
149.51003
 20
18.271495
 11
149.4749
 21
18.351306
  0
LINE
  8
_0-1_
  6
CONTINUOUS
 62
    2
 10
149.4749
 20
18.351306
 11
149.43549
 21
18.428339
  0
LINE
  8
_0-1_
  6
CONTINUOUS
 62
    2
 10
149.43549
 20
18.428339
 11
149.41042
 21
18.471523
  0
LINE
  8
_0-1_
  6
CONTINUOUS
 62
    2
 10
149.41042
 20
18.471523
 11
149.33478
 21
18.581229
  0
LINE
  8
_0-1_
  6
CONTINUOUS
 62
    2
 10
149.33478
 20
18.581229
 11
149.17817
 21
18.750891
  0
LINE
  8
_0-1_
  6
CONTINUOUS
 62
    2
 10
149.17817
 20
18.750891
 11
148.99406
 21
18.897815
  0
LINE
  8
_0-1_
  6
CONTINUOUS
 62
    2
 10
148.99406
 20
18.897815
 11
148.78907
 21
19.024238
  0
LINE
  8
_0-1_
  6
CONTINUOUS
 62
    2
 10
148.78907
 20
19.024238
 11
148.56982
 21
19.1324
  0
LINE
  8
_0-1_
  6
CONTINUOUS
 62
    2
 10
148.56982
 20
19.1324
 11
148.34292
 21
19.22454
  0
LINE
  8
_0-1_
  6
CONTINUOUS
 62
    2
 10
148.34292
 20
19.22454
 11
148.21042
 21
19.271523
  0
LINE
  8
_0-1_
  6
CONTINUOUS
 62
    2
 10
148.21042
 20
19.271523
 11
148.14378
 21
19.293624
  0
LINE
  8
_0-1_
  6
CONTINUOUS
 62
    2
 10
148.14378
 20
19.293624
 11
148.02937
 21
19.329511
  0
LINE
  8
_0-1_
  6
CONTINUOUS
 62
    2
 10
148.02937
 20
19.329511
 11
147.9155
 21
19.363032
  0
LINE
  8
_0-1_
  6
CONTINUOUS
 62
    2
 10
147.9155
 20
19.363032
 11
147.80204
 21
19.394705
  0
LINE
  8
_0-1_
  6
CONTINUOUS
 62
    2
 10
147.80204
 20
19.394705
 11
147.68888
 21
19.425045
  0
LINE
  8
_0-1_
  6
CONTINUOUS
 62
    2
 10
147.68888
 20
19.425045
 11
147.57591
 21
19.454569
  0
LINE
  8
_0-1_
  6
CONTINUOUS
 62
    2
 10
147.57591
 20
19.454569
 11
147.51042
 21
19.471523
  0
LINE
  8
_0-1_
  6
CONTINUOUS
 62
    2
 10
151.11042
 20
19.471523
 11
153.14408
 21
15.110325
  0
LINE
  8
_0-1_
  6
CONTINUOUS
 62
    2
 10
155.17774
 20
19.471523
 11
153.14408
 21
15.110325
  0
LINE
  8
_0-1_
  6
CONTINUOUS
 62
    2
 10
149.81042
 20
19.471523
 11
152.49408
 21
13.716395
  0
LINE
  8
_0-1_
  6
CONTINUOUS
 62
    2
 10
153.79408
 20
13.716395
 11
156.47774
 21
19.471523
  0
LINE
  8
_0-1_
  6
CONTINUOUS
 62
    2
 10
157.47774
 20
19.471523
 11
154.79408
 21
13.716395
  0
LINE
  8
_0-1_
  6
CONTINUOUS
 62
    2
 10
158.81317
 20
19.471523
 11
161.49683
 21
13.716395
  0
LINE
  8
_0-1_
  6
CONTINUOUS
 62
    2
 10
138.89008
 20
15.016395
 11
141.63496
 21
15.016395
  0
LINE
  8
_0-1_
  6
CONTINUOUS
 62
    2
 10
156.70028
 20
15.016395
 11
159.59063
 21
15.016395
  0
LINE
  8
_0-1_
  6
CONTINUOUS
 62
    2
 10
157.16659
 20
16.016395
 11
159.12432
 21
16.016395
  0
LINE
  8
_0-1_
  6
CONTINUOUS
 62
    2
 10
163.37338
 20
18.471523
 11
166.34471
 21
13.716395
  0
LINE
  8
_0-1_
  6
CONTINUOUS
 62
    2
 10
166.95214
 20
14.820099
 11
166.95214
 21
19.471523
  0
LINE
  8
_0-1_
  6
CONTINUOUS
 62
    2
 10
168.05214
 20
13.716395
 11
168.05214
 21
19.471523
  0
LINE
  8
_0-1_
  6
CONTINUOUS
 62
    2
 10
164.04561
 20
19.471523
 11
166.95214
 21
14.820099
  0
LINE
  8
_0-1_
  6
CONTINUOUS
 62
    2
 10
162.07338
 20
19.471523
 11
162.07338
 21
13.716395
  0
LINE
  8
_0-1_
  6
CONTINUOUS
 62
    2
 10
147.51042
 20
18.471523
 11
145.51042
 21
18.471523
  0
LINE
  8
_0-1_
  6
CONTINUOUS
 62
    2
 10
145.51042
 20
14.716395
 11
147.51042
 21
14.716395
  0
LINE
  8
_0-1_
  6
CONTINUOUS
 62
    2
 10
159.12432
 20
16.016395
 11
158.14546
 21
18.115588
  0
LINE
  8
_0-1_
  6
CONTINUOUS
 62
    2
 10
157.16659
 20
16.016395
 11
158.14546
 21
18.115588
  0
LINE
  8
_0-1_
  6
CONTINUOUS
 62
    2
 10
156.09408
 20
13.716395
 11
156.70028
 21
15.016395
  0
LINE
  8
_0-1_
  6
CONTINUOUS
 62
    2
 10
160.19683
 20
13.716395
 11
159.59063
 21
15.016395
  0
LINE
  8
_0-1_
  6
CONTINUOUS
 62
    2
 10
163.37338
 20
18.471523
 11
163.37338
 21
13.716395
  0
LINE
  8
_0-1_
  6
CONTINUOUS
 62
    2
 10
136.98388
 20
13.716395
 11
138.28388
 21
13.716395
  0
LINE
  8
_0-1_
  6
CONTINUOUS
 62
    2
 10
142.24116
 20
13.716395
 11
143.54116
 21
13.716395
  0
LINE
  8
_0-1_
  6
CONTINUOUS
 62
    2
 10
140.8575
 20
19.471523
 11
143.54116
 21
13.716395
  0
LINE
  8
_0-1_
  6
CONTINUOUS
 62
    2
 10
140.8575
 20
19.471523
 11
139.66754
 21
19.471523
  0
LINE
  8
_0-1_
  6
CONTINUOUS
 62
    2
 10
144.21042
 20
19.471523
 11
144.21042
 21
13.716395
  0
LINE
  8
_0-1_
  6
CONTINUOUS
 62
    2
 10
145.51042
 20
18.471523
 11
145.51042
 21
14.716395
  0
LINE
  8
_0-1_
  6
CONTINUOUS
 62
    2
 10
144.21042
 20
13.716395
 11
147.51042
 21
13.716395
  0
LINE
  8
_0-1_
  6
CONTINUOUS
 62
    2
 10
147.51042
 20
19.471523
 11
144.21042
 21
19.471523
  0
LINE
  8
_0-1_
  6
CONTINUOUS
 62
    2
 10
151.11042
 20
19.471523
 11
149.81042
 21
19.471523
  0
LINE
  8
_0-1_
  6
CONTINUOUS
 62
    2
 10
152.49408
 20
13.716395
 11
153.79408
 21
13.716395
  0
LINE
  8
_0-1_
  6
CONTINUOUS
 62
    2
 10
156.47774
 20
19.471523
 11
155.17774
 21
19.471523
  0
LINE
  8
_0-1_
  6
CONTINUOUS
 62
    2
 10
154.79408
 20
13.716395
 11
156.09408
 21
13.716395
  0
LINE
  8
_0-1_
  6
CONTINUOUS
 62
    2
 10
160.19683
 20
13.716395
 11
161.49683
 21
13.716395
  0
LINE
  8
_0-1_
  6
CONTINUOUS
 62
    2
 10
162.07338
 20
13.716395
 11
163.37338
 21
13.716395
  0
LINE
  8
_0-1_
  6
CONTINUOUS
 62
    2
 10
166.34471
 20
13.716395
 11
168.05214
 21
13.716395
  0
LINE
  8
_0-1_
  6
CONTINUOUS
 62
    2
 10
168.05214
 20
19.471523
 11
166.95214
 21
19.471523
  0
LINE
  8
_0-1_
  6
CONTINUOUS
 62
    2
 10
164.04561
 20
19.471523
 11
162.07338
 21
19.471523
  0
LINE
  8
_0-1_
  6
CONTINUOUS
 62
    2
 10
158.81317
 20
19.471523
 11
157.47774
 21
19.471523
  0
LINE
  8
_0-1_
  6
CONTINUOUS
 62
    2
 10
137.05622
 20
13.871523
 11
138.35622
 21
13.871523
  0
LINE
  8
_0-1_
  6
CONTINUOUS
 62
    2
 10
142.16883
 20
13.871523
 11
143.46883
 21
13.871523
  0
LINE
  8
_0-1_
  6
CONTINUOUS
 62
    2
 10
144.21042
 20
13.871523
 11
148.07119
 21
13.871523
  0
LINE
  8
_0-1_
  6
CONTINUOUS
 62
    2
 10
152.42174
 20
13.871523
 11
153.86642
 21
13.871523
  0
LINE
  8
_0-1_
  6
CONTINUOUS
 62
    2
 10
154.86642
 20
13.871523
 11
156.16642
 21
13.871523
  0
LINE
  8
_0-1_
  6
CONTINUOUS
 62
    2
 10
160.12449
 20
13.871523
 11
161.42449
 21
13.871523
  0
LINE
  8
_0-1_
  6
CONTINUOUS
 62
    2
 10
162.07338
 20
13.871523
 11
163.37338
 21
13.871523
  0
LINE
  8
_0-1_
  6
CONTINUOUS
 62
    2
 10
166.24778
 20
13.871523
 11
168.05214
 21
13.871523
  0
LINE
  8
_0-1_
  6
CONTINUOUS
 62
    2
 10
137.14948
 20
14.071523
 11
138.44948
 21
14.071523
  0
LINE
  8
_0-1_
  6
CONTINUOUS
 62
    2
 10
142.07557
 20
14.071523
 11
143.37557
 21
14.071523
  0
LINE
  8
_0-1_
  6
CONTINUOUS
 62
    2
 10
144.21042
 20
14.071523
 11
148.60227
 21
14.071523
  0
LINE
  8
_0-1_
  6
CONTINUOUS
 62
    2
 10
152.32848
 20
14.071523
 11
153.95968
 21
14.071523
  0
LINE
  8
_0-1_
  6
CONTINUOUS
 62
    2
 10
154.95968
 20
14.071523
 11
156.25968
 21
14.071523
  0
LINE
  8
_0-1_
  6
CONTINUOUS
 62
    2
 10
160.03123
 20
14.071523
 11
161.33123
 21
14.071523
  0
LINE
  8
_0-1_
  6
CONTINUOUS
 62
    2
 10
162.07338
 20
14.071523
 11
163.37338
 21
14.071523
  0
LINE
  8
_0-1_
  6
CONTINUOUS
 62
    2
 10
166.12281
 20
14.071523
 11
168.05214
 21
14.071523
  0
LINE
  8
_0-1_
  6
CONTINUOUS
 62
    2
 10
137.24274
 20
14.271523
 11
138.54274
 21
14.271523
  0
LINE
  8
_0-1_
  6
CONTINUOUS
 62
    2
 10
141.9823
 20
14.271523
 11
143.2823
 21
14.271523
  0
LINE
  8
_0-1_
  6
CONTINUOUS
 62
    2
 10
144.21042
 20
14.271523
 11
148.96393
 21
14.271523
  0
LINE
  8
_0-1_
  6
CONTINUOUS
 62
    2
 10
152.23522
 20
14.271523
 11
154.05294
 21
14.271523
  0
LINE
  8
_0-1_
  6
CONTINUOUS
 62
    2
 10
155.05294
 20
14.271523
 11
156.35294
 21
14.271523
  0
LINE
  8
_0-1_
  6
CONTINUOUS
 62
    2
 10
159.93797
 20
14.271523
 11
161.23797
 21
14.271523
  0
LINE
  8
_0-1_
  6
CONTINUOUS
 62
    2
 10
162.07338
 20
14.271523
 11
163.37338
 21
14.271523
  0
LINE
  8
_0-1_
  6
CONTINUOUS
 62
    2
 10
165.99783
 20
14.271523
 11
168.05214
 21
14.271523
  0
LINE
  8
_0-1_
  6
CONTINUOUS
 62
    2
 10
137.33601
 20
14.471523
 11
138.63601
 21
14.471523
  0
LINE
  8
_0-1_
  6
CONTINUOUS
 62
    2
 10
141.88904
 20
14.471523
 11
143.18904
 21
14.471523
  0
LINE
  8
_0-1_
  6
CONTINUOUS
 62
    2
 10
144.21042
 20
14.471523
 11
149.21001
 21
14.471523
  0
LINE
  8
_0-1_
  6
CONTINUOUS
 62
    2
 10
152.14196
 20
14.471523
 11
154.1462
 21
14.471523
  0
LINE
  8
_0-1_
  6
CONTINUOUS
 62
    2
 10
155.1462
 20
14.471523
 11
156.4462
 21
14.471523
  0
LINE
  8
_0-1_
  6
CONTINUOUS
 62
    2
 10
159.84471
 20
14.471523
 11
161.14471
 21
14.471523
  0
LINE
  8
_0-1_
  6
CONTINUOUS
 62
    2
 10
162.07338
 20
14.471523
 11
163.37338
 21
14.471523
  0
LINE
  8
_0-1_
  6
CONTINUOUS
 62
    2
 10
165.87286
 20
14.471523
 11
168.05214
 21
14.471523
  0
LINE
  8
_0-1_
  6
CONTINUOUS
 62
    2
 10
137.42927
 20
14.671523
 11
138.72927
 21
14.671523
  0
LINE
  8
_0-1_
  6
CONTINUOUS
 62
    2
 10
141.79578
 20
14.671523
 11
143.09578
 21
14.671523
  0
LINE
  8
_0-1_
  6
CONTINUOUS
 62
    2
 10
144.21042
 20
14.671523
 11
149.37948
 21
14.671523
  0
LINE
  8
_0-1_
  6
CONTINUOUS
 62
    2
 10
152.04869
 20
14.671523
 11
154.23946
 21
14.671523
  0
LINE
  8
_0-1_
  6
CONTINUOUS
 62
    2
 10
155.23946
 20
14.671523
 11
156.53946
 21
14.671523
  0
LINE
  8
_0-1_
  6
CONTINUOUS
 62
    2
 10
159.75145
 20
14.671523
 11
161.05145
 21
14.671523
  0
LINE
  8
_0-1_
  6
CONTINUOUS
 62
    2
 10
162.07338
 20
14.671523
 11
163.37338
 21
14.671523
  0
LINE
  8
_0-1_
  6
CONTINUOUS
 62
    2
 10
165.74788
 20
14.671523
 11
168.05214
 21
14.671523
  0
LINE
  8
_0-1_
  6
CONTINUOUS
 62
    2
 10
137.52253
 20
14.871523
 11
138.82253
 21
14.871523
  0
LINE
  8
_0-1_
  6
CONTINUOUS
 62
    2
 10
141.70252
 20
14.871523
 11
143.00252
 21
14.871523
  0
LINE
  8
_0-1_
  6
CONTINUOUS
 62
    2
 10
144.21042
 20
14.871523
 11
145.51042
 21
14.871523
  0
LINE
  8
_0-1_
  6
CONTINUOUS
 62
    2
 10
147.78329
 20
14.871523
 11
149.49026
 21
14.871523
  0
LINE
  8
_0-1_
  6
CONTINUOUS
 62
    2
 10
151.95543
 20
14.871523
 11
154.33272
 21
14.871523
  0
LINE
  8
_0-1_
  6
CONTINUOUS
 62
    2
 10
155.33272
 20
14.871523
 11
156.63272
 21
14.871523
  0
LINE
  8
_0-1_
  6
CONTINUOUS
 62
    2
 10
159.65819
 20
14.871523
 11
160.95819
 21
14.871523
  0
LINE
  8
_0-1_
  6
CONTINUOUS
 62
    2
 10
162.07338
 20
14.871523
 11
163.37338
 21
14.871523
  0
LINE
  8
_0-1_
  6
CONTINUOUS
 62
    2
 10
165.62291
 20
14.871523
 11
166.92001
 21
14.871523
  0
LINE
  8
_0-1_
  6
CONTINUOUS
 62
    2
 10
166.95214
 20
14.871523
 11
168.05214
 21
14.871523
  0
LINE
  8
_0-1_
  6
CONTINUOUS
 62
    2
 10
137.61579
 20
15.071523
 11
142.90926
 21
15.071523
  0
LINE
  8
_0-1_
  6
CONTINUOUS
 62
    2
 10
144.21042
 20
15.071523
 11
145.51042
 21
15.071523
  0
LINE
  8
_0-1_
  6
CONTINUOUS
 62
    2
 10
148.0677
 20
15.071523
 11
149.56638
 21
15.071523
  0
LINE
  8
_0-1_
  6
CONTINUOUS
 62
    2
 10
151.86217
 20
15.071523
 11
154.42598
 21
15.071523
  0
LINE
  8
_0-1_
  6
CONTINUOUS
 62
    2
 10
155.42598
 20
15.071523
 11
160.86493
 21
15.071523
  0
LINE
  8
_0-1_
  6
CONTINUOUS
 62
    2
 10
162.07338
 20
15.071523
 11
163.37338
 21
15.071523
  0
LINE
  8
_0-1_
  6
CONTINUOUS
 62
    2
 10
165.49794
 20
15.071523
 11
166.79503
 21
15.071523
  0
LINE
  8
_0-1_
  6
CONTINUOUS
 62
    2
 10
166.95214
 20
15.071523
 11
168.05214
 21
15.071523
  0
LINE
  8
_0-1_
  6
CONTINUOUS
 62
    2
 10
137.70905
 20
15.271523
 11
142.816
 21
15.271523
  0
LINE
  8
_0-1_
  6
CONTINUOUS
 62
    2
 10
144.21042
 20
15.271523
 11
145.51042
 21
15.271523
  0
LINE
  8
_0-1_
  6
CONTINUOUS
 62
    2
 10
148.24948
 20
15.271523
 11
149.62539
 21
15.271523
  0
LINE
  8
_0-1_
  6
CONTINUOUS
 62
    2
 10
151.76891
 20
15.271523
 11
153.06891
 21
15.271523
  0
LINE
  8
_0-1_
  6
CONTINUOUS
 62
    2
 10
153.21925
 20
15.271523
 11
154.51925
 21
15.271523
  0
LINE
  8
_0-1_
  6
CONTINUOUS
 62
    2
 10
155.51925
 20
15.271523
 11
160.77166
 21
15.271523
  0
LINE
  8
_0-1_
  6
CONTINUOUS
 62
    2
 10
162.07338
 20
15.271523
 11
163.37338
 21
15.271523
  0
LINE
  8
_0-1_
  6
CONTINUOUS
 62
    2
 10
165.37296
 20
15.271523
 11
166.67006
 21
15.271523
  0
LINE
  8
_0-1_
  6
CONTINUOUS
 62
    2
 10
166.95214
 20
15.271523
 11
168.05214
 21
15.271523
  0
LINE
  8
_0-1_
  6
CONTINUOUS
 62
    2
 10
137.80231
 20
15.471523
 11
142.72273
 21
15.471523
  0
LINE
  8
_0-1_
  6
CONTINUOUS
 62
    2
 10
144.21042
 20
15.471523
 11
145.51042
 21
15.471523
  0
LINE
  8
_0-1_
  6
CONTINUOUS
 62
    2
 10
148.35787
 20
15.471523
 11
149.67532
 21
15.471523
  0
LINE
  8
_0-1_
  6
CONTINUOUS
 62
    2
 10
151.67565
 20
15.471523
 11
152.97565
 21
15.471523
  0
LINE
  8
_0-1_
  6
CONTINUOUS
 62
    2
 10
153.31251
 20
15.471523
 11
154.61251
 21
15.471523
  0
LINE
  8
_0-1_
  6
CONTINUOUS
 62
    2
 10
155.61251
 20
15.471523
 11
160.6784
 21
15.471523
  0
LINE
  8
_0-1_
  6
CONTINUOUS
 62
    2
 10
162.07338
 20
15.471523
 11
163.37338
 21
15.471523
  0
LINE
  8
_0-1_
  6
CONTINUOUS
 62
    2
 10
165.24799
 20
15.471523
 11
166.54509
 21
15.471523
  0
LINE
  8
_0-1_
  6
CONTINUOUS
 62
    2
 10
166.95214
 20
15.471523
 11
168.05214
 21
15.471523
  0
LINE
  8
_0-1_
  6
CONTINUOUS
 62
    2
 10
137.89558
 20
15.671523
 11
142.62947
 21
15.671523
  0
LINE
  8
_0-1_
  6
CONTINUOUS
 62
    2
 10
144.21042
 20
15.671523
 11
145.51042
 21
15.671523
  0
LINE
  8
_0-1_
  6
CONTINUOUS
 62
    2
 10
148.4257
 20
15.671523
 11
149.71809
 21
15.671523
  0
LINE
  8
_0-1_
  6
CONTINUOUS
 62
    2
 10
151.58239
 20
15.671523
 11
152.88239
 21
15.671523
  0
LINE
  8
_0-1_
  6
CONTINUOUS
 62
    2
 10
153.40577
 20
15.671523
 11
154.70577
 21
15.671523
  0
LINE
  8
_0-1_
  6
CONTINUOUS
 62
    2
 10
155.70577
 20
15.671523
 11
160.58514
 21
15.671523
  0
LINE
  8
_0-1_
  6
CONTINUOUS
 62
    2
 10
162.07338
 20
15.671523
 11
163.37338
 21
15.671523
  0
LINE
  8
_0-1_
  6
CONTINUOUS
 62
    2
 10
165.12301
 20
15.671523
 11
166.42011
 21
15.671523
  0
LINE
  8
_0-1_
  6
CONTINUOUS
 62
    2
 10
166.95214
 20
15.671523
 11
168.05214
 21
15.671523
  0
LINE
  8
_0-1_
  6
CONTINUOUS
 62
    2
 10
137.98884
 20
15.871523
 11
142.53621
 21
15.871523
  0
LINE
  8
_0-1_
  6
CONTINUOUS
 62
    2
 10
144.21042
 20
15.871523
 11
145.51042
 21
15.871523
  0
LINE
  8
_0-1_
  6
CONTINUOUS
 62
    2
 10
148.46705
 20
15.871523
 11
149.75294
 21
15.871523
  0
LINE
  8
_0-1_
  6
CONTINUOUS
 62
    2
 10
151.48913
 20
15.871523
 11
152.78913
 21
15.871523
  0
LINE
  8
_0-1_
  6
CONTINUOUS
 62
    2
 10
153.49903
 20
15.871523
 11
154.79903
 21
15.871523
  0
LINE
  8
_0-1_
  6
CONTINUOUS
 62
    2
 10
155.79903
 20
15.871523
 11
160.49188
 21
15.871523
  0
LINE
  8
_0-1_
  6
CONTINUOUS
 62
    2
 10
162.07338
 20
15.871523
 11
163.37338
 21
15.871523
  0
LINE
  8
_0-1_
  6
CONTINUOUS
 62
    2
 10
164.99804
 20
15.871523
 11
166.29514
 21
15.871523
  0
LINE
  8
_0-1_
  6
CONTINUOUS
 62
    2
 10
166.95214
 20
15.871523
 11
168.05214
 21
15.871523
  0
LINE
  8
_0-1_
  6
CONTINUOUS
 62
    2
 10
138.0821
 20
16.071523
 11
139.3821
 21
16.071523
  0
LINE
  8
_0-1_
  6
CONTINUOUS
 62
    2
 10
141.14295
 20
16.071523
 11
142.44295
 21
16.071523
  0
LINE
  8
_0-1_
  6
CONTINUOUS
 62
    2
 10
144.21042
 20
16.071523
 11
145.51042
 21
16.071523
  0
LINE
  8
_0-1_
  6
CONTINUOUS
 62
    2
 10
148.49136
 20
16.071523
 11
149.77974
 21
16.071523
  0
LINE
  8
_0-1_
  6
CONTINUOUS
 62
    2
 10
151.39586
 20
16.071523
 11
152.69586
 21
16.071523
  0
LINE
  8
_0-1_
  6
CONTINUOUS
 62
    2
 10
153.59229
 20
16.071523
 11
154.89229
 21
16.071523
  0
LINE
  8
_0-1_
  6
CONTINUOUS
 62
    2
 10
155.89229
 20
16.071523
 11
157.19229
 21
16.071523
  0
LINE
  8
_0-1_
  6
CONTINUOUS
 62
    2
 10
159.09862
 20
16.071523
 11
160.39862
 21
16.071523
  0
LINE
  8
_0-1_
  6
CONTINUOUS
 62
    2
 10
162.07338
 20
16.071523
 11
163.37338
 21
16.071523
  0
LINE
  8
_0-1_
  6
CONTINUOUS
 62
    2
 10
164.87307
 20
16.071523
 11
166.17016
 21
16.071523
  0
LINE
  8
_0-1_
  6
CONTINUOUS
 62
    2
 10
166.95214
 20
16.071523
 11
168.05214
 21
16.071523
  0
LINE
  8
_0-1_
  6
CONTINUOUS
 62
    2
 10
138.17536
 20
16.271523
 11
139.47536
 21
16.271523
  0
LINE
  8
_0-1_
  6
CONTINUOUS
 62
    2
 10
141.04969
 20
16.271523
 11
142.34969
 21
16.271523
  0
LINE
  8
_0-1_
  6
CONTINUOUS
 62
    2
 10
144.21042
 20
16.271523
 11
145.51042
 21
16.271523
  0
LINE
  8
_0-1_
  6
CONTINUOUS
 62
    2
 10
148.50433
 20
16.271523
 11
149.79834
 21
16.271523
  0
LINE
  8
_0-1_
  6
CONTINUOUS
 62
    2
 10
151.3026
 20
16.271523
 11
152.6026
 21
16.271523
  0
LINE
  8
_0-1_
  6
CONTINUOUS
 62
    2
 10
153.68555
 20
16.271523
 11
154.98555
 21
16.271523
  0
LINE
  8
_0-1_
  6
CONTINUOUS
 62
    2
 10
155.98555
 20
16.271523
 11
157.28555
 21
16.271523
  0
LINE
  8
_0-1_
  6
CONTINUOUS
 62
    2
 10
159.00536
 20
16.271523
 11
160.30536
 21
16.271523
  0
LINE
  8
_0-1_
  6
CONTINUOUS
 62
    2
 10
162.07338
 20
16.271523
 11
163.37338
 21
16.271523
  0
LINE
  8
_0-1_
  6
CONTINUOUS
 62
    2
 10
164.74809
 20
16.271523
 11
166.04519
 21
16.271523
  0
LINE
  8
_0-1_
  6
CONTINUOUS
 62
    2
 10
166.95214
 20
16.271523
 11
168.05214
 21
16.271523
  0
LINE
  8
_0-1_
  6
CONTINUOUS
 62
    2
 10
138.26862
 20
16.471523
 11
139.56862
 21
16.471523
  0
LINE
  8
_0-1_
  6
CONTINUOUS
 62
    2
 10
140.95643
 20
16.471523
 11
142.25643
 21
16.471523
  0
LINE
  8
_0-1_
  6
CONTINUOUS
 62
    2
 10
144.21042
 20
16.471523
 11
145.51042
 21
16.471523
  0
LINE
  8
_0-1_
  6
CONTINUOUS
 62
    2
 10
148.50977
 20
16.471523
 11
149.80865
 21
16.471523
  0
LINE
  8
_0-1_
  6
CONTINUOUS
 62
    2
 10
151.20934
 20
16.471523
 11
152.50934
 21
16.471523
  0
LINE
  8
_0-1_
  6
CONTINUOUS
 62
    2
 10
153.77882
 20
16.471523
 11
155.07882
 21
16.471523
  0
LINE
  8
_0-1_
  6
CONTINUOUS
 62
    2
 10
156.07882
 20
16.471523
 11
157.37882
 21
16.471523
  0
LINE
  8
_0-1_
  6
CONTINUOUS
 62
    2
 10
158.91209
 20
16.471523
 11
160.21209
 21
16.471523
  0
LINE
  8
_0-1_
  6
CONTINUOUS
 62
    2
 10
162.07338
 20
16.471523
 11
163.37338
 21
16.471523
  0
LINE
  8
_0-1_
  6
CONTINUOUS
 62
    2
 10
164.62312
 20
16.471523
 11
165.92022
 21
16.471523
  0
LINE
  8
_0-1_
  6
CONTINUOUS
 62
    2
 10
166.95214
 20
16.471523
 11
168.05214
 21
16.471523
  0
LINE
  8
_0-1_
  6
CONTINUOUS
 62
    2
 10
138.36188
 20
16.671523
 11
139.66188
 21
16.671523
  0
LINE
  8
_0-1_
  6
CONTINUOUS
 62
    2
 10
140.86317
 20
16.671523
 11
142.16317
 21
16.671523
  0
LINE
  8
_0-1_
  6
CONTINUOUS
 62
    2
 10
144.21042
 20
16.671523
 11
145.51042
 21
16.671523
  0
LINE
  8
_0-1_
  6
CONTINUOUS
 62
    2
 10
148.51
 20
16.671523
 11
149.8093
 21
16.671523
  0
LINE
  8
_0-1_
  6
CONTINUOUS
 62
    2
 10
151.11608
 20
16.671523
 11
152.41608
 21
16.671523
  0
LINE
  8
_0-1_
  6
CONTINUOUS
 62
    2
 10
153.87208
 20
16.671523
 11
155.17208
 21
16.671523
  0
LINE
  8
_0-1_
  6
CONTINUOUS
 62
    2
 10
156.17208
 20
16.671523
 11
157.47208
 21
16.671523
  0
LINE
  8
_0-1_
  6
CONTINUOUS
 62
    2
 10
158.81883
 20
16.671523
 11
160.11883
 21
16.671523
  0
LINE
  8
_0-1_
  6
CONTINUOUS
 62
    2
 10
162.07338
 20
16.671523
 11
163.37338
 21
16.671523
  0
LINE
  8
_0-1_
  6
CONTINUOUS
 62
    2
 10
164.49815
 20
16.671523
 11
165.79524
 21
16.671523
  0
LINE
  8
_0-1_
  6
CONTINUOUS
 62
    2
 10
166.95214
 20
16.671523
 11
168.05214
 21
16.671523
  0
LINE
  8
_0-1_
  6
CONTINUOUS
 62
    2
 10
138.45514
 20
16.871523
 11
139.75514
 21
16.871523
  0
LINE
  8
_0-1_
  6
CONTINUOUS
 62
    2
 10
140.7699
 20
16.871523
 11
142.0699
 21
16.871523
  0
LINE
  8
_0-1_
  6
CONTINUOUS
 62
    2
 10
144.21042
 20
16.871523
 11
145.51042
 21
16.871523
  0
LINE
  8
_0-1_
  6
CONTINUOUS
 62
    2
 10
148.50568
 20
16.871523
 11
149.80072
 21
16.871523
  0
LINE
  8
_0-1_
  6
CONTINUOUS
 62
    2
 10
151.02282
 20
16.871523
 11
152.32282
 21
16.871523
  0
LINE
  8
_0-1_
  6
CONTINUOUS
 62
    2
 10
153.96534
 20
16.871523
 11
155.26534
 21
16.871523
  0
LINE
  8
_0-1_
  6
CONTINUOUS
 62
    2
 10
156.26534
 20
16.871523
 11
157.56534
 21
16.871523
  0
LINE
  8
_0-1_
  6
CONTINUOUS
 62
    2
 10
158.72557
 20
16.871523
 11
160.02557
 21
16.871523
  0
LINE
  8
_0-1_
  6
CONTINUOUS
 62
    2
 10
162.07338
 20
16.871523
 11
163.37338
 21
16.871523
  0
LINE
  8
_0-1_
  6
CONTINUOUS
 62
    2
 10
164.37317
 20
16.871523
 11
165.67027
 21
16.871523
  0
LINE
  8
_0-1_
  6
CONTINUOUS
 62
    2
 10
166.95214
 20
16.871523
 11
168.05214
 21
16.871523
  0
LINE
  8
_0-1_
  6
CONTINUOUS
 62
    2
 10
138.54841
 20
17.071523
 11
139.84841
 21
17.071523
  0
LINE
  8
_0-1_
  6
CONTINUOUS
 62
    2
 10
140.67664
 20
17.071523
 11
141.97664
 21
17.071523
  0
LINE
  8
_0-1_
  6
CONTINUOUS
 62
    2
 10
144.21042
 20
17.071523
 11
145.51042
 21
17.071523
  0
LINE
  8
_0-1_
  6
CONTINUOUS
 62
    2
 10
148.49516
 20
17.071523
 11
149.78426
 21
17.071523
  0
LINE
  8
_0-1_
  6
CONTINUOUS
 62
    2
 10
150.92956
 20
17.071523
 11
152.22956
 21
17.071523
  0
LINE
  8
_0-1_
  6
CONTINUOUS
 62
    2
 10
154.0586
 20
17.071523
 11
155.3586
 21
17.071523
  0
LINE
  8
_0-1_
  6
CONTINUOUS
 62
    2
 10
156.3586
 20
17.071523
 11
157.6586
 21
17.071523
  0
LINE
  8
_0-1_
  6
CONTINUOUS
 62
    2
 10
158.63231
 20
17.071523
 11
159.93231
 21
17.071523
  0
LINE
  8
_0-1_
  6
CONTINUOUS
 62
    2
 10
162.07338
 20
17.071523
 11
163.37338
 21
17.071523
  0
LINE
  8
_0-1_
  6
CONTINUOUS
 62
    2
 10
164.2482
 20
17.071523
 11
165.54529
 21
17.071523
  0
LINE
  8
_0-1_
  6
CONTINUOUS
 62
    2
 10
166.95214
 20
17.071523
 11
168.05214
 21
17.071523
  0
LINE
  8
_0-1_
  6
CONTINUOUS
 62
    2
 10
138.64167
 20
17.271523
 11
139.94167
 21
17.271523
  0
LINE
  8
_0-1_
  6
CONTINUOUS
 62
    2
 10
140.58338
 20
17.271523
 11
141.88338
 21
17.271523
  0
LINE
  8
_0-1_
  6
CONTINUOUS
 62
    2
 10
144.21042
 20
17.271523
 11
145.51042
 21
17.271523
  0
LINE
  8
_0-1_
  6
CONTINUOUS
 62
    2
 10
148.47472
 20
17.271523
 11
149.75955
 21
17.271523
  0
LINE
  8
_0-1_
  6
CONTINUOUS
 62
    2
 10
150.83629
 20
17.271523
 11
152.13629
 21
17.271523
  0
LINE
  8
_0-1_
  6
CONTINUOUS
 62
    2
 10
154.15186
 20
17.271523
 11
155.45186
 21
17.271523
  0
LINE
  8
_0-1_
  6
CONTINUOUS
 62
    2
 10
156.45186
 20
17.271523
 11
157.75186
 21
17.271523
  0
LINE
  8
_0-1_
  6
CONTINUOUS
 62
    2
 10
158.53905
 20
17.271523
 11
159.83905
 21
17.271523
  0
LINE
  8
_0-1_
  6
CONTINUOUS
 62
    2
 10
162.07338
 20
17.271523
 11
163.37338
 21
17.271523
  0
LINE
  8
_0-1_
  6
CONTINUOUS
 62
    2
 10
164.12322
 20
17.271523
 11
165.42032
 21
17.271523
  0
LINE
  8
_0-1_
  6
CONTINUOUS
 62
    2
 10
166.95214
 20
17.271523
 11
168.05214
 21
17.271523
  0
LINE
  8
_0-1_
  6
CONTINUOUS
 62
    2
 10
138.73493
 20
17.471523
 11
140.03493
 21
17.471523
  0
LINE
  8
_0-1_
  6
CONTINUOUS
 62
    2
 10
140.49012
 20
17.471523
 11
141.79012
 21
17.471523
  0
LINE
  8
_0-1_
  6
CONTINUOUS
 62
    2
 10
144.21042
 20
17.471523
 11
145.51042
 21
17.471523
  0
LINE
  8
_0-1_
  6
CONTINUOUS
 62
    2
 10
148.43918
 20
17.471523
 11
149.72674
 21
17.471523
  0
LINE
  8
_0-1_
  6
CONTINUOUS
 62
    2
 10
150.74303
 20
17.471523
 11
152.04303
 21
17.471523
  0
LINE
  8
_0-1_
  6
CONTINUOUS
 62
    2
 10
154.24512
 20
17.471523
 11
155.54512
 21
17.471523
  0
LINE
  8
_0-1_
  6
CONTINUOUS
 62
    2
 10
156.54512
 20
17.471523
 11
157.84512
 21
17.471523
  0
LINE
  8
_0-1_
  6
CONTINUOUS
 62
    2
 10
158.44579
 20
17.471523
 11
159.74579
 21
17.471523
  0
LINE
  8
_0-1_
  6
CONTINUOUS
 62
    2
 10
162.07338
 20
17.471523
 11
163.37338
 21
17.471523
  0
LINE
  8
_0-1_
  6
CONTINUOUS
 62
    2
 10
163.99825
 20
17.471523
 11
165.29535
 21
17.471523
  0
LINE
  8
_0-1_
  6
CONTINUOUS
 62
    2
 10
166.95214
 20
17.471523
 11
168.05214
 21
17.471523
  0
LINE
  8
_0-1_
  6
CONTINUOUS
 62
    2
 10
138.82819
 20
17.671523
 11
140.12819
 21
17.671523
  0
LINE
  8
_0-1_
  6
CONTINUOUS
 62
    2
 10
140.39686
 20
17.671523
 11
141.69686
 21
17.671523
  0
LINE
  8
_0-1_
  6
CONTINUOUS
 62
    2
 10
144.21042
 20
17.671523
 11
145.51042
 21
17.671523
  0
LINE
  8
_0-1_
  6
CONTINUOUS
 62
    2
 10
148.37911
 20
17.671523
 11
149.68596
 21
17.671523
  0
LINE
  8
_0-1_
  6
CONTINUOUS
 62
    2
 10
150.64977
 20
17.671523
 11
151.94977
 21
17.671523
  0
LINE
  8
_0-1_
  6
CONTINUOUS
 62
    2
 10
154.33838
 20
17.671523
 11
155.63838
 21
17.671523
  0
LINE
  8
_0-1_
  6
CONTINUOUS
 62
    2
 10
156.63838
 20
17.671523
 11
157.93838
 21
17.671523
  0
LINE
  8
_0-1_
  6
CONTINUOUS
 62
    2
 10
158.35253
 20
17.671523
 11
159.65253
 21
17.671523
  0
LINE
  8
_0-1_
  6
CONTINUOUS
 62
    2
 10
162.07338
 20
17.671523
 11
163.37338
 21
17.671523
  0
LINE
  8
_0-1_
  6
CONTINUOUS
 62
    2
 10
163.87328
 20
17.671523
 11
165.17037
 21
17.671523
  0
LINE
  8
_0-1_
  6
CONTINUOUS
 62
    2
 10
166.95214
 20
17.671523
 11
168.05214
 21
17.671523
  0
LINE
  8
_0-1_
  6
CONTINUOUS
 62
    2
 10
138.92145
 20
17.871523
 11
140.22145
 21
17.871523
  0
LINE
  8
_0-1_
  6
CONTINUOUS
 62
    2
 10
140.3036
 20
17.871523
 11
141.6036
 21
17.871523
  0
LINE
  8
_0-1_
  6
CONTINUOUS
 62
    2
 10
144.21042
 20
17.871523
 11
145.51042
 21
17.871523
  0
LINE
  8
_0-1_
  6
CONTINUOUS
 62
    2
 10
148.28128
 20
17.871523
 11
149.63757
 21
17.871523
  0
LINE
  8
_0-1_
  6
CONTINUOUS
 62
    2
 10
150.55651
 20
17.871523
 11
151.85651
 21
17.871523
  0
LINE
  8
_0-1_
  6
CONTINUOUS
 62
    2
 10
154.43165
 20
17.871523
 11
155.73165
 21
17.871523
  0
LINE
  8
_0-1_
  6
CONTINUOUS
 62
    2
 10
156.73165
 20
17.871523
 11
158.03165
 21
17.871523
  0
LINE
  8
_0-1_
  6
CONTINUOUS
 62
    2
 10
158.25926
 20
17.871523
 11
159.55926
 21
17.871523
  0
LINE
  8
_0-1_
  6
CONTINUOUS
 62
    2
 10
162.07338
 20
17.871523
 11
163.37338
 21
17.871523
  0
LINE
  8
_0-1_
  6
CONTINUOUS
 62
    2
 10
163.7483
 20
17.871523
 11
165.0454
 21
17.871523
  0
LINE
  8
_0-1_
  6
CONTINUOUS
 62
    2
 10
166.95214
 20
17.871523
 11
168.05214
 21
17.871523
  0
LINE
  8
_0-1_
  6
CONTINUOUS
 62
    2
 10
139.01471
 20
18.071523
 11
141.51034
 21
18.071523
  0
LINE
  8
_0-1_
  6
CONTINUOUS
 62
    2
 10
144.21042
 20
18.071523
 11
145.51042
 21
18.071523
  0
LINE
  8
_0-1_
  6
CONTINUOUS
 62
    2
 10
148.11515
 20
18.071523
 11
149.58054
 21
18.071523
  0
LINE
  8
_0-1_
  6
CONTINUOUS
 62
    2
 10
150.46325
 20
18.071523
 11
151.76325
 21
18.071523
  0
LINE
  8
_0-1_
  6
CONTINUOUS
 62
    2
 10
154.52491
 20
18.071523
 11
155.82491
 21
18.071523
  0
LINE
  8
_0-1_
  6
CONTINUOUS
 62
    2
 10
156.82491
 20
18.071523
 11
158.12491
 21
18.071523
  0
LINE
  8
_0-1_
  6
CONTINUOUS
 62
    2
 10
158.166
 20
18.071523
 11
159.466
 21
18.071523
  0
LINE
  8
_0-1_
  6
CONTINUOUS
 62
    2
 10
162.07338
 20
18.071523
 11
163.37338
 21
18.071523
  0
LINE
  8
_0-1_
  6
CONTINUOUS
 62
    2
 10
163.62333
 20
18.071523
 11
164.92042
 21
18.071523
  0
LINE
  8
_0-1_
  6
CONTINUOUS
 62
    2
 10
166.95214
 20
18.071523
 11
168.05214
 21
18.071523
  0
LINE
  8
_0-1_
  6
CONTINUOUS
 62
    2
 10
139.10798
 20
18.271523
 11
141.41707
 21
18.271523
  0
LINE
  8
_0-1_
  6
CONTINUOUS
 62
    2
 10
144.21042
 20
18.271523
 11
145.51042
 21
18.271523
  0
LINE
  8
_0-1_
  6
CONTINUOUS
 62
    2
 10
147.85577
 20
18.271523
 11
149.51001
 21
18.271523
  0
LINE
  8
_0-1_
  6
CONTINUOUS
 62
    2
 10
150.36999
 20
18.271523
 11
151.66999
 21
18.271523
  0
LINE
  8
_0-1_
  6
CONTINUOUS
 62
    2
 10
154.61817
 20
18.271523
 11
155.91817
 21
18.271523
  0
LINE
  8
_0-1_
  6
CONTINUOUS
 62
    2
 10
156.91817
 20
18.271523
 11
159.37274
 21
18.271523
  0
LINE
  8
_0-1_
  6
CONTINUOUS
 62
    2
 10
162.07338
 20
18.271523
 11
163.37338
 21
18.271523
  0
LINE
  8
_0-1_
  6
CONTINUOUS
 62
    2
 10
163.49835
 20
18.271523
 11
164.79545
 21
18.271523
  0
LINE
  8
_0-1_
  6
CONTINUOUS
 62
    2
 10
166.95214
 20
18.271523
 11
168.05214
 21
18.271523
  0
LINE
  8
_0-1_
  6
CONTINUOUS
 62
    2
 10
139.20124
 20
18.471523
 11
141.32381
 21
18.471523
  0
LINE
  8
_0-1_
  6
CONTINUOUS
 62
    2
 10
144.21042
 20
18.471523
 11
145.51042
 21
18.471523
  0
LINE
  8
_0-1_
  6
CONTINUOUS
 62
    2
 10
147.51042
 20
18.471523
 11
149.41042
 21
18.471523
  0
LINE
  8
_0-1_
  6
CONTINUOUS
 62
    2
 10
150.27673
 20
18.471523
 11
151.57673
 21
18.471523
  0
LINE
  8
_0-1_
  6
CONTINUOUS
 62
    2
 10
154.71143
 20
18.471523
 11
156.01143
 21
18.471523
  0
LINE
  8
_0-1_
  6
CONTINUOUS
 62
    2
 10
157.01143
 20
18.471523
 11
159.27948
 21
18.471523
  0
LINE
  8
_0-1_
  6
CONTINUOUS
 62
    2
 10
162.07338
 20
18.471523
 11
163.37338
 21
18.471523
  0
LINE
  8
_0-1_
  6
CONTINUOUS
 62
    2
 10
163.37338
 20
18.471523
 11
164.67048
 21
18.471523
  0
LINE
  8
_0-1_
  6
CONTINUOUS
 62
    2
 10
166.95214
 20
18.471523
 11
168.05214
 21
18.471523
  0
LINE
  8
_0-1_
  6
CONTINUOUS
 62
    2
 10
139.2945
 20
18.671523
 11
141.23055
 21
18.671523
  0
LINE
  8
_0-1_
  6
CONTINUOUS
 62
    2
 10
144.21042
 20
18.671523
 11
149.25143
 21
18.671523
  0
LINE
  8
_0-1_
  6
CONTINUOUS
 62
    2
 10
150.18346
 20
18.671523
 11
151.48346
 21
18.671523
  0
LINE
  8
_0-1_
  6
CONTINUOUS
 62
    2
 10
154.80469
 20
18.671523
 11
156.10469
 21
18.671523
  0
LINE
  8
_0-1_
  6
CONTINUOUS
 62
    2
 10
157.10469
 20
18.671523
 11
159.18622
 21
18.671523
  0
LINE
  8
_0-1_
  6
CONTINUOUS
 62
    2
 10
162.07338
 20
18.671523
 11
164.5455
 21
18.671523
  0
LINE
  8
_0-1_
  6
CONTINUOUS
 62
    2
 10
166.95214
 20
18.671523
 11
168.05214
 21
18.671523
  0
LINE
  8
_0-1_
  6
CONTINUOUS
 62
    2
 10
139.38776
 20
18.871523
 11
141.13729
 21
18.871523
  0
LINE
  8
_0-1_
  6
CONTINUOUS
 62
    2
 10
144.21042
 20
18.871523
 11
149.027
 21
18.871523
  0
LINE
  8
_0-1_
  6
CONTINUOUS
 62
    2
 10
150.0902
 20
18.871523
 11
151.3902
 21
18.871523
  0
LINE
  8
_0-1_
  6
CONTINUOUS
 62
    2
 10
154.89795
 20
18.871523
 11
156.19795
 21
18.871523
  0
LINE
  8
_0-1_
  6
CONTINUOUS
 62
    2
 10
157.19795
 20
18.871523
 11
159.09296
 21
18.871523
  0
LINE
  8
_0-1_
  6
CONTINUOUS
 62
    2
 10
162.07338
 20
18.871523
 11
164.42053
 21
18.871523
  0
LINE
  8
_0-1_
  6
CONTINUOUS
 62
    2
 10
166.95214
 20
18.871523
 11
168.05214
 21
18.871523
  0
LINE
  8
_0-1_
  6
CONTINUOUS
 62
    2
 10
139.48102
 20
19.071523
 11
141.04403
 21
19.071523
  0
LINE
  8
_0-1_
  6
CONTINUOUS
 62
    2
 10
144.21042
 20
19.071523
 11
148.69322
 21
19.071523
  0
LINE
  8
_0-1_
  6
CONTINUOUS
 62
    2
 10
149.99694
 20
19.071523
 11
151.29694
 21
19.071523
  0
LINE
  8
_0-1_
  6
CONTINUOUS
 62
    2
 10
154.99121
 20
19.071523
 11
156.29121
 21
19.071523
  0
LINE
  8
_0-1_
  6
CONTINUOUS
 62
    2
 10
157.29121
 20
19.071523
 11
158.9997
 21
19.071523
  0
LINE
  8
_0-1_
  6
CONTINUOUS
 62
    2
 10
162.07338
 20
19.071523
 11
164.29556
 21
19.071523
  0
LINE
  8
_0-1_
  6
CONTINUOUS
 62
    2
 10
166.95214
 20
19.071523
 11
168.05214
 21
19.071523
  0
LINE
  8
_0-1_
  6
CONTINUOUS
 62
    2
 10
139.57428
 20
19.271523
 11
140.95077
 21
19.271523
  0
LINE
  8
_0-1_
  6
CONTINUOUS
 62
    2
 10
144.21042
 20
19.271523
 11
148.21042
 21
19.271523
  0
LINE
  8
_0-1_
  6
CONTINUOUS
 62
    2
 10
149.90368
 20
19.271523
 11
151.20368
 21
19.271523
  0
LINE
  8
_0-1_
  6
CONTINUOUS
 62
    2
 10
155.08448
 20
19.271523
 11
156.38448
 21
19.271523
  0
LINE
  8
_0-1_
  6
CONTINUOUS
 62
    2
 10
157.38448
 20
19.271523
 11
158.90643
 21
19.271523
  0
LINE
  8
_0-1_
  6
CONTINUOUS
 62
    2
 10
162.07338
 20
19.271523
 11
164.17058
 21
19.271523
  0
LINE
  8
_0-1_
  6
CONTINUOUS
 62
    2
 10
166.95214
 20
19.271523
 11
168.05214
 21
19.271523
  0
LINE
  8
_0-1_
  6
CONTINUOUS
 62
    2
 10
139.66754
 20
19.471523
 11
140.8575
 21
19.471523
  0
LINE
  8
_0-1_
  6
CONTINUOUS
 62
    2
 10
144.21042
 20
19.471523
 11
147.51042
 21
19.471523
  0
LINE
  8
_0-1_
  6
CONTINUOUS
 62
    2
 10
149.81042
 20
19.471523
 11
151.11042
 21
19.471523
  0
LINE
  8
_0-1_
  6
CONTINUOUS
 62
    2
 10
155.17774
 20
19.471523
 11
156.47774
 21
19.471523
  0
LINE
  8
_0-1_
  6
CONTINUOUS
 62
    2
 10
157.47774
 20
19.471523
 11
158.81317
 21
19.471523
  0
LINE
  8
_0-1_
  6
CONTINUOUS
 62
    2
 10
162.07338
 20
19.471523
 11
164.04561
 21
19.471523
  0
LINE
  8
_0-1_
  6
CONTINUOUS
 62
    2
 10
166.95214
 20
19.471523
 11
168.05214
 21
19.471523
  0
LINE
  8
_0-1_
  6
CONTINUOUS
 62
    2
 10
137.00959
 20
13.771523
 11
138.30959
 21
13.771523
  0
LINE
  8
_0-1_
  6
CONTINUOUS
 62
    2
 10
142.21546
 20
13.771523
 11
143.51546
 21
13.771523
  0
LINE
  8
_0-1_
  6
CONTINUOUS
 62
    2
 10
144.21042
 20
13.771523
 11
147.72114
 21
13.771523
  0
LINE
  8
_0-1_
  6
CONTINUOUS
 62
    2
 10
152.46837
 20
13.771523
 11
153.81978
 21
13.771523
  0
LINE
  8
_0-1_
  6
CONTINUOUS
 62
    2
 10
154.81978
 20
13.771523
 11
156.11978
 21
13.771523
  0
LINE
  8
_0-1_
  6
CONTINUOUS
 62
    2
 10
160.17113
 20
13.771523
 11
161.47113
 21
13.771523
  0
LINE
  8
_0-1_
  6
CONTINUOUS
 62
    2
 10
162.07338
 20
13.771523
 11
163.37338
 21
13.771523
  0
LINE
  8
_0-1_
  6
CONTINUOUS
 62
    2
 10
166.31027
 20
13.771523
 11
168.05214
 21
13.771523
  0
LINE
  8
_0-1_
  6
CONTINUOUS
 62
    2
 10
137.10285
 20
13.971523
 11
138.40285
 21
13.971523
  0
LINE
  8
_0-1_
  6
CONTINUOUS
 62
    2
 10
142.1222
 20
13.971523
 11
143.4222
 21
13.971523
  0
LINE
  8
_0-1_
  6
CONTINUOUS
 62
    2
 10
144.21042
 20
13.971523
 11
148.36298
 21
13.971523
  0
LINE
  8
_0-1_
  6
CONTINUOUS
 62
    2
 10
152.37511
 20
13.971523
 11
153.91305
 21
13.971523
  0
LINE
  8
_0-1_
  6
CONTINUOUS
 62
    2
 10
154.91305
 20
13.971523
 11
156.21305
 21
13.971523
  0
LINE
  8
_0-1_
  6
CONTINUOUS
 62
    2
 10
160.07786
 20
13.971523
 11
161.37786
 21
13.971523
  0
LINE
  8
_0-1_
  6
CONTINUOUS
 62
    2
 10
162.07338
 20
13.971523
 11
163.37338
 21
13.971523
  0
LINE
  8
_0-1_
  6
CONTINUOUS
 62
    2
 10
166.18529
 20
13.971523
 11
168.05214
 21
13.971523
  0
LINE
  8
_0-1_
  6
CONTINUOUS
 62
    2
 10
137.19611
 20
14.171523
 11
138.49611
 21
14.171523
  0
LINE
  8
_0-1_
  6
CONTINUOUS
 62
    2
 10
142.02893
 20
14.171523
 11
143.32893
 21
14.171523
  0
LINE
  8
_0-1_
  6
CONTINUOUS
 62
    2
 10
144.21042
 20
14.171523
 11
148.80179
 21
14.171523
  0
LINE
  8
_0-1_
  6
CONTINUOUS
 62
    2
 10
152.28185
 20
14.171523
 11
154.00631
 21
14.171523
  0
LINE
  8
_0-1_
  6
CONTINUOUS
 62
    2
 10
155.00631
 20
14.171523
 11
156.30631
 21
14.171523
  0
LINE
  8
_0-1_
  6
CONTINUOUS
 62
    2
 10
159.9846
 20
14.171523
 11
161.2846
 21
14.171523
  0
LINE
  8
_0-1_
  6
CONTINUOUS
 62
    2
 10
162.07338
 20
14.171523
 11
163.37338
 21
14.171523
  0
LINE
  8
_0-1_
  6
CONTINUOUS
 62
    2
 10
166.06032
 20
14.171523
 11
168.05214
 21
14.171523
  0
LINE
  8
_0-1_
  6
CONTINUOUS
 62
    2
 10
137.28938
 20
14.371523
 11
138.58938
 21
14.371523
  0
LINE
  8
_0-1_
  6
CONTINUOUS
 62
    2
 10
141.93567
 20
14.371523
 11
143.23567
 21
14.371523
  0
LINE
  8
_0-1_
  6
CONTINUOUS
 62
    2
 10
144.21042
 20
14.371523
 11
149.09608
 21
14.371523
  0
LINE
  8
_0-1_
  6
CONTINUOUS
 62
    2
 10
152.18859
 20
14.371523
 11
154.09957
 21
14.371523
  0
LINE
  8
_0-1_
  6
CONTINUOUS
 62
    2
 10
155.09957
 20
14.371523
 11
156.39957
 21
14.371523
  0
LINE
  8
_0-1_
  6
CONTINUOUS
 62
    2
 10
159.89134
 20
14.371523
 11
161.19134
 21
14.371523
  0
LINE
  8
_0-1_
  6
CONTINUOUS
 62
    2
 10
162.07338
 20
14.371523
 11
163.37338
 21
14.371523
  0
LINE
  8
_0-1_
  6
CONTINUOUS
 62
    2
 10
165.93535
 20
14.371523
 11
168.05214
 21
14.371523
  0
LINE
  8
_0-1_
  6
CONTINUOUS
 62
    2
 10
137.38264
 20
14.571523
 11
138.68264
 21
14.571523
  0
LINE
  8
_0-1_
  6
CONTINUOUS
 62
    2
 10
141.84241
 20
14.571523
 11
143.14241
 21
14.571523
  0
LINE
  8
_0-1_
  6
CONTINUOUS
 62
    2
 10
144.21042
 20
14.571523
 11
149.30232
 21
14.571523
  0
LINE
  8
_0-1_
  6
CONTINUOUS
 62
    2
 10
152.09533
 20
14.571523
 11
154.19283
 21
14.571523
  0
LINE
  8
_0-1_
  6
CONTINUOUS
 62
    2
 10
155.19283
 20
14.571523
 11
156.49283
 21
14.571523
  0
LINE
  8
_0-1_
  6
CONTINUOUS
 62
    2
 10
159.79808
 20
14.571523
 11
161.09808
 21
14.571523
  0
LINE
  8
_0-1_
  6
CONTINUOUS
 62
    2
 10
162.07338
 20
14.571523
 11
163.37338
 21
14.571523
  0
LINE
  8
_0-1_
  6
CONTINUOUS
 62
    2
 10
165.81037
 20
14.571523
 11
168.05214
 21
14.571523
  0
LINE
  8
_0-1_
  6
CONTINUOUS
 62
    2
 10
137.4759
 20
14.771523
 11
138.7759
 21
14.771523
  0
LINE
  8
_0-1_
  6
CONTINUOUS
 62
    2
 10
141.74915
 20
14.771523
 11
143.04915
 21
14.771523
  0
LINE
  8
_0-1_
  6
CONTINUOUS
 62
    2
 10
144.21042
 20
14.771523
 11
145.51042
 21
14.771523
  0
LINE
  8
_0-1_
  6
CONTINUOUS
 62
    2
 10
147.61026
 20
14.771523
 11
149.4416
 21
14.771523
  0
LINE
  8
_0-1_
  6
CONTINUOUS
 62
    2
 10
152.00206
 20
14.771523
 11
154.28609
 21
14.771523
  0
LINE
  8
_0-1_
  6
CONTINUOUS
 62
    2
 10
155.28609
 20
14.771523
 11
156.58609
 21
14.771523
  0
LINE
  8
_0-1_
  6
CONTINUOUS
 62
    2
 10
159.70482
 20
14.771523
 11
161.00482
 21
14.771523
  0
LINE
  8
_0-1_
  6
CONTINUOUS
 62
    2
 10
162.07338
 20
14.771523
 11
163.37338
 21
14.771523
  0
LINE
  8
_0-1_
  6
CONTINUOUS
 62
    2
 10
165.6854
 20
14.771523
 11
168.05214
 21
14.771523
  0
LINE
  8
_0-1_
  6
CONTINUOUS
 62
    2
 10
137.56916
 20
14.971523
 11
138.86916
 21
14.971523
  0
LINE
  8
_0-1_
  6
CONTINUOUS
 62
    2
 10
141.65589
 20
14.971523
 11
142.95589
 21
14.971523
  0
LINE
  8
_0-1_
  6
CONTINUOUS
 62
    2
 10
144.21042
 20
14.971523
 11
145.51042
 21
14.971523
  0
LINE
  8
_0-1_
  6
CONTINUOUS
 62
    2
 10
147.9381
 20
14.971523
 11
149.53117
 21
14.971523
  0
LINE
  8
_0-1_
  6
CONTINUOUS
 62
    2
 10
151.9088
 20
14.971523
 11
154.37935
 21
14.971523
  0
LINE
  8
_0-1_
  6
CONTINUOUS
 62
    2
 10
155.37935
 20
14.971523
 11
156.67935
 21
14.971523
  0
LINE
  8
_0-1_
  6
CONTINUOUS
 62
    2
 10
159.61156
 20
14.971523
 11
160.91156
 21
14.971523
  0
LINE
  8
_0-1_
  6
CONTINUOUS
 62
    2
 10
162.07338
 20
14.971523
 11
163.37338
 21
14.971523
  0
LINE
  8
_0-1_
  6
CONTINUOUS
 62
    2
 10
165.56042
 20
14.971523
 11
166.85752
 21
14.971523
  0
LINE
  8
_0-1_
  6
CONTINUOUS
 62
    2
 10
166.95214
 20
14.971523
 11
168.05214
 21
14.971523
  0
LINE
  8
_0-1_
  6
CONTINUOUS
 62
    2
 10
137.66242
 20
15.171523
 11
142.86263
 21
15.171523
  0
LINE
  8
_0-1_
  6
CONTINUOUS
 62
    2
 10
144.21042
 20
15.171523
 11
145.51042
 21
15.171523
  0
LINE
  8
_0-1_
  6
CONTINUOUS
 62
    2
 10
148.17113
 20
15.171523
 11
149.59743
 21
15.171523
  0
LINE
  8
_0-1_
  6
CONTINUOUS
 62
    2
 10
151.81554
 20
15.171523
 11
153.11554
 21
15.171523
  0
LINE
  8
_0-1_
  6
CONTINUOUS
 62
    2
 10
153.17262
 20
15.171523
 11
154.47262
 21
15.171523
  0
LINE
  8
_0-1_
  6
CONTINUOUS
 62
    2
 10
155.47262
 20
15.171523
 11
160.81829
 21
15.171523
  0
LINE
  8
_0-1_
  6
CONTINUOUS
 62
    2
 10
162.07338
 20
15.171523
 11
163.37338
 21
15.171523
  0
LINE
  8
_0-1_
  6
CONTINUOUS
 62
    2
 10
165.43545
 20
15.171523
 11
166.73255
 21
15.171523
  0
LINE
  8
_0-1_
  6
CONTINUOUS
 62
    2
 10
166.95214
 20
15.171523
 11
168.05214
 21
15.171523
  0
LINE
  8
_0-1_
  6
CONTINUOUS
 62
    2
 10
137.75568
 20
15.371523
 11
142.76937
 21
15.371523
  0
LINE
  8
_0-1_
  6
CONTINUOUS
 62
    2
 10
144.21042
 20
15.371523
 11
145.51042
 21
15.371523
  0
LINE
  8
_0-1_
  6
CONTINUOUS
 62
    2
 10
148.30871
 20
15.371523
 11
149.65161
 21
15.371523
  0
LINE
  8
_0-1_
  6
CONTINUOUS
 62
    2
 10
151.72228
 20
15.371523
 11
153.02228
 21
15.371523
  0
LINE
  8
_0-1_
  6
CONTINUOUS
 62
    2
 10
153.26588
 20
15.371523
 11
154.56588
 21
15.371523
  0
LINE
  8
_0-1_
  6
CONTINUOUS
 62
    2
 10
155.56588
 20
15.371523
 11
160.72503
 21
15.371523
  0
LINE
  8
_0-1_
  6
CONTINUOUS
 62
    2
 10
162.07338
 20
15.371523
 11
163.37338
 21
15.371523
  0
LINE
  8
_0-1_
  6
CONTINUOUS
 62
    2
 10
165.31048
 20
15.371523
 11
166.60757
 21
15.371523
  0
LINE
  8
_0-1_
  6
CONTINUOUS
 62
    2
 10
166.95214
 20
15.371523
 11
168.05214
 21
15.371523
  0
LINE
  8
_0-1_
  6
CONTINUOUS
 62
    2
 10
137.84894
 20
15.571523
 11
142.6761
 21
15.571523
  0
LINE
  8
_0-1_
  6
CONTINUOUS
 62
    2
 10
144.21042
 20
15.571523
 11
145.51042
 21
15.571523
  0
LINE
  8
_0-1_
  6
CONTINUOUS
 62
    2
 10
148.39567
 20
15.571523
 11
149.69881
 21
15.571523
  0
LINE
  8
_0-1_
  6
CONTINUOUS
 62
    2
 10
151.62902
 20
15.571523
 11
152.92902
 21
15.571523
  0
LINE
  8
_0-1_
  6
CONTINUOUS
 62
    2
 10
153.35914
 20
15.571523
 11
154.65914
 21
15.571523
  0
LINE
  8
_0-1_
  6
CONTINUOUS
 62
    2
 10
155.65914
 20
15.571523
 11
160.63177
 21
15.571523
  0
LINE
  8
_0-1_
  6
CONTINUOUS
 62
    2
 10
162.07338
 20
15.571523
 11
163.37338
 21
15.571523
  0
LINE
  8
_0-1_
  6
CONTINUOUS
 62
    2
 10
165.1855
 20
15.571523
 11
166.4826
 21
15.571523
  0
LINE
  8
_0-1_
  6
CONTINUOUS
 62
    2
 10
166.95214
 20
15.571523
 11
168.05214
 21
15.571523
  0
LINE
  8
_0-1_
  6
CONTINUOUS
 62
    2
 10
137.94221
 20
15.771523
 11
142.58284
 21
15.771523
  0
LINE
  8
_0-1_
  6
CONTINUOUS
 62
    2
 10
144.21042
 20
15.771523
 11
145.51042
 21
15.771523
  0
LINE
  8
_0-1_
  6
CONTINUOUS
 62
    2
 10
148.44993
 20
15.771523
 11
149.73736
 21
15.771523
  0
LINE
  8
_0-1_
  6
CONTINUOUS
 62
    2
 10
151.53576
 20
15.771523
 11
152.83576
 21
15.771523
  0
LINE
  8
_0-1_
  6
CONTINUOUS
 62
    2
 10
153.4524
 20
15.771523
 11
154.7524
 21
15.771523
  0
LINE
  8
_0-1_
  6
CONTINUOUS
 62
    2
 10
155.7524
 20
15.771523
 11
160.53851
 21
15.771523
  0
LINE
  8
_0-1_
  6
CONTINUOUS
 62
    2
 10
162.07338
 20
15.771523
 11
163.37338
 21
15.771523
  0
LINE
  8
_0-1_
  6
CONTINUOUS
 62
    2
 10
165.06053
 20
15.771523
 11
166.35762
 21
15.771523
  0
LINE
  8
_0-1_
  6
CONTINUOUS
 62
    2
 10
166.95214
 20
15.771523
 11
168.05214
 21
15.771523
  0
LINE
  8
_0-1_
  6
CONTINUOUS
 62
    2
 10
138.03547
 20
15.971523
 11
142.48958
 21
15.971523
  0
LINE
  8
_0-1_
  6
CONTINUOUS
 62
    2
 10
144.21042
 20
15.971523
 11
145.51042
 21
15.971523
  0
LINE
  8
_0-1_
  6
CONTINUOUS
 62
    2
 10
148.48291
 20
15.971523
 11
149.76768
 21
15.971523
  0
LINE
  8
_0-1_
  6
CONTINUOUS
 62
    2
 10
151.44249
 20
15.971523
 11
152.74249
 21
15.971523
  0
LINE
  8
_0-1_
  6
CONTINUOUS
 62
    2
 10
153.54566
 20
15.971523
 11
154.84566
 21
15.971523
  0
LINE
  8
_0-1_
  6
CONTINUOUS
 62
    2
 10
155.84566
 20
15.971523
 11
160.44525
 21
15.971523
  0
LINE
  8
_0-1_
  6
CONTINUOUS
 62
    2
 10
162.07338
 20
15.971523
 11
163.37338
 21
15.971523
  0
LINE
  8
_0-1_
  6
CONTINUOUS
 62
    2
 10
164.93555
 20
15.971523
 11
166.23265
 21
15.971523
  0
LINE
  8
_0-1_
  6
CONTINUOUS
 62
    2
 10
166.95214
 20
15.971523
 11
168.05214
 21
15.971523
  0
LINE
  8
_0-1_
  6
CONTINUOUS
 62
    2
 10
138.12873
 20
16.171523
 11
139.42873
 21
16.171523
  0
LINE
  8
_0-1_
  6
CONTINUOUS
 62
    2
 10
141.09632
 20
16.171523
 11
142.39632
 21
16.171523
  0
LINE
  8
_0-1_
  6
CONTINUOUS
 62
    2
 10
144.21042
 20
16.171523
 11
145.51042
 21
16.171523
  0
LINE
  8
_0-1_
  6
CONTINUOUS
 62
    2
 10
148.49982
 20
16.171523
 11
149.78983
 21
16.171523
  0
LINE
  8
_0-1_
  6
CONTINUOUS
 62
    2
 10
151.34923
 20
16.171523
 11
152.64923
 21
16.171523
  0
LINE
  8
_0-1_
  6
CONTINUOUS
 62
    2
 10
153.63892
 20
16.171523
 11
154.93892
 21
16.171523
  0
LINE
  8
_0-1_
  6
CONTINUOUS
 62
    2
 10
155.93892
 20
16.171523
 11
157.23892
 21
16.171523
  0
LINE
  8
_0-1_
  6
CONTINUOUS
 62
    2
 10
159.05199
 20
16.171523
 11
160.35199
 21
16.171523
  0
LINE
  8
_0-1_
  6
CONTINUOUS
 62
    2
 10
162.07338
 20
16.171523
 11
163.37338
 21
16.171523
  0
LINE
  8
_0-1_
  6
CONTINUOUS
 62
    2
 10
164.81058
 20
16.171523
 11
166.10768
 21
16.171523
  0
LINE
  8
_0-1_
  6
CONTINUOUS
 62
    2
 10
166.95214
 20
16.171523
 11
168.05214
 21
16.171523
  0
LINE
  8
_0-1_
  6
CONTINUOUS
 62
    2
 10
138.22199
 20
16.371523
 11
139.52199
 21
16.371523
  0
LINE
  8
_0-1_
  6
CONTINUOUS
 62
    2
 10
141.00306
 20
16.371523
 11
142.30306
 21
16.371523
  0
LINE
  8
_0-1_
  6
CONTINUOUS
 62
    2
 10
144.21042
 20
16.371523
 11
145.51042
 21
16.371523
  0
LINE
  8
_0-1_
  6
CONTINUOUS
 62
    2
 10
148.50734
 20
16.371523
 11
149.80365
 21
16.371523
  0
LINE
  8
_0-1_
  6
CONTINUOUS
 62
    2
 10
151.25597
 20
16.371523
 11
152.55597
 21
16.371523
  0
LINE
  8
_0-1_
  6
CONTINUOUS
 62
    2
 10
153.73218
 20
16.371523
 11
155.03218
 21
16.371523
  0
LINE
  8
_0-1_
  6
CONTINUOUS
 62
    2
 10
156.03218
 20
16.371523
 11
157.33218
 21
16.371523
  0
LINE
  8
_0-1_
  6
CONTINUOUS
 62
    2
 10
158.95873
 20
16.371523
 11
160.25873
 21
16.371523
  0
LINE
  8
_0-1_
  6
CONTINUOUS
 62
    2
 10
162.07338
 20
16.371523
 11
163.37338
 21
16.371523
  0
LINE
  8
_0-1_
  6
CONTINUOUS
 62
    2
 10
164.68561
 20
16.371523
 11
165.9827
 21
16.371523
  0
LINE
  8
_0-1_
  6
CONTINUOUS
 62
    2
 10
166.95214
 20
16.371523
 11
168.05214
 21
16.371523
  0
LINE
  8
_0-1_
  6
CONTINUOUS
 62
    2
 10
138.31525
 20
16.571523
 11
139.61525
 21
16.571523
  0
LINE
  8
_0-1_
  6
CONTINUOUS
 62
    2
 10
140.9098
 20
16.571523
 11
142.2098
 21
16.571523
  0
LINE
  8
_0-1_
  6
CONTINUOUS
 62
    2
 10
144.21042
 20
16.571523
 11
145.51042
 21
16.571523
  0
LINE
  8
_0-1_
  6
CONTINUOUS
 62
    2
 10
148.5103
 20
16.571523
 11
149.81009
 21
16.571523
  0
LINE
  8
_0-1_
  6
CONTINUOUS
 62
    2
 10
151.16271
 20
16.571523
 11
152.46271
 21
16.571523
  0
LINE
  8
_0-1_
  6
CONTINUOUS
 62
    2
 10
153.82545
 20
16.571523
 11
155.12545
 21
16.571523
  0
LINE
  8
_0-1_
  6
CONTINUOUS
 62
    2
 10
156.12545
 20
16.571523
 11
157.42545
 21
16.571523
  0
LINE
  8
_0-1_
  6
CONTINUOUS
 62
    2
 10
158.86546
 20
16.571523
 11
160.16546
 21
16.571523
  0
LINE
  8
_0-1_
  6
CONTINUOUS
 62
    2
 10
162.07338
 20
16.571523
 11
163.37338
 21
16.571523
  0
LINE
  8
_0-1_
  6
CONTINUOUS
 62
    2
 10
164.56063
 20
16.571523
 11
165.85773
 21
16.571523
  0
LINE
  8
_0-1_
  6
CONTINUOUS
 62
    2
 10
166.95214
 20
16.571523
 11
168.05214
 21
16.571523
  0
LINE
  8
_0-1_
  6
CONTINUOUS
 62
    2
 10
138.40851
 20
16.771523
 11
139.70851
 21
16.771523
  0
LINE
  8
_0-1_
  6
CONTINUOUS
 62
    2
 10
140.81654
 20
16.771523
 11
142.11654
 21
16.771523
  0
LINE
  8
_0-1_
  6
CONTINUOUS
 62
    2
 10
144.21042
 20
16.771523
 11
145.51042
 21
16.771523
  0
LINE
  8
_0-1_
  6
CONTINUOUS
 62
    2
 10
148.50869
 20
16.771523
 11
149.80603
 21
16.771523
  0
LINE
  8
_0-1_
  6
CONTINUOUS
 62
    2
 10
151.06945
 20
16.771523
 11
152.36945
 21
16.771523
  0
LINE
  8
_0-1_
  6
CONTINUOUS
 62
    2
 10
153.91871
 20
16.771523
 11
155.21871
 21
16.771523
  0
LINE
  8
_0-1_
  6
CONTINUOUS
 62
    2
 10
156.21871
 20
16.771523
 11
157.51871
 21
16.771523
  0
LINE
  8
_0-1_
  6
CONTINUOUS
 62
    2
 10
158.7722
 20
16.771523
 11
160.0722
 21
16.771523
  0
LINE
  8
_0-1_
  6
CONTINUOUS
 62
    2
 10
162.07338
 20
16.771523
 11
163.37338
 21
16.771523
  0
LINE
  8
_0-1_
  6
CONTINUOUS
 62
    2
 10
164.43566
 20
16.771523
 11
165.73275
 21
16.771523
  0
LINE
  8
_0-1_
  6
CONTINUOUS
 62
    2
 10
166.95214
 20
16.771523
 11
168.05214
 21
16.771523
  0
LINE
  8
_0-1_
  6
CONTINUOUS
 62
    2
 10
138.50178
 20
16.971523
 11
139.80178
 21
16.971523
  0
LINE
  8
_0-1_
  6
CONTINUOUS
 62
    2
 10
140.72327
 20
16.971523
 11
142.02327
 21
16.971523
  0
LINE
  8
_0-1_
  6
CONTINUOUS
 62
    2
 10
144.21042
 20
16.971523
 11
145.51042
 21
16.971523
  0
LINE
  8
_0-1_
  6
CONTINUOUS
 62
    2
 10
148.50267
 20
16.971523
 11
149.79435
 21
16.971523
  0
LINE
  8
_0-1_
  6
CONTINUOUS
 62
    2
 10
150.97619
 20
16.971523
 11
152.27619
 21
16.971523
  0
LINE
  8
_0-1_
  6
CONTINUOUS
 62
    2
 10
154.01197
 20
16.971523
 11
155.31197
 21
16.971523
  0
LINE
  8
_0-1_
  6
CONTINUOUS
 62
    2
 10
156.31197
 20
16.971523
 11
157.61197
 21
16.971523
  0
LINE
  8
_0-1_
  6
CONTINUOUS
 62
    2
 10
158.67894
 20
16.971523
 11
159.97894
 21
16.971523
  0
LINE
  8
_0-1_
  6
CONTINUOUS
 62
    2
 10
162.07338
 20
16.971523
 11
163.37338
 21
16.971523
  0
LINE
  8
_0-1_
  6
CONTINUOUS
 62
    2
 10
164.31068
 20
16.971523
 11
165.60778
 21
16.971523
  0
LINE
  8
_0-1_
  6
CONTINUOUS
 62
    2
 10
166.95214
 20
16.971523
 11
168.05214
 21
16.971523
  0
LINE
  8
_0-1_
  6
CONTINUOUS
 62
    2
 10
138.59504
 20
17.171523
 11
139.89504
 21
17.171523
  0
LINE
  8
_0-1_
  6
CONTINUOUS
 62
    2
 10
140.63001
 20
17.171523
 11
141.93001
 21
17.171523
  0
LINE
  8
_0-1_
  6
CONTINUOUS
 62
    2
 10
144.21042
 20
17.171523
 11
145.51042
 21
17.171523
  0
LINE
  8
_0-1_
  6
CONTINUOUS
 62
    2
 10
148.4867
 20
17.171523
 11
149.77417
 21
17.171523
  0
LINE
  8
_0-1_
  6
CONTINUOUS
 62
    2
 10
150.88293
 20
17.171523
 11
152.18293
 21
17.171523
  0
LINE
  8
_0-1_
  6
CONTINUOUS
 62
    2
 10
154.10523
 20
17.171523
 11
155.40523
 21
17.171523
  0
LINE
  8
_0-1_
  6
CONTINUOUS
 62
    2
 10
156.40523
 20
17.171523
 11
157.70523
 21
17.171523
  0
LINE
  8
_0-1_
  6
CONTINUOUS
 62
    2
 10
158.58568
 20
17.171523
 11
159.88568
 21
17.171523
  0
LINE
  8
_0-1_
  6
CONTINUOUS
 62
    2
 10
162.07338
 20
17.171523
 11
163.37338
 21
17.171523
  0
LINE
  8
_0-1_
  6
CONTINUOUS
 62
    2
 10
164.18571
 20
17.171523
 11
165.48281
 21
17.171523
  0
LINE
  8
_0-1_
  6
CONTINUOUS
 62
    2
 10
166.95214
 20
17.171523
 11
168.05214
 21
17.171523
  0
LINE
  8
_0-1_
  6
CONTINUOUS
 62
    2
 10
138.6883
 20
17.371523
 11
139.9883
 21
17.371523
  0
LINE
  8
_0-1_
  6
CONTINUOUS
 62
    2
 10
140.53675
 20
17.371523
 11
141.83675
 21
17.371523
  0
LINE
  8
_0-1_
  6
CONTINUOUS
 62
    2
 10
144.21042
 20
17.371523
 11
145.51042
 21
17.371523
  0
LINE
  8
_0-1_
  6
CONTINUOUS
 62
    2
 10
148.45761
 20
17.371523
 11
149.74481
 21
17.371523
  0
LINE
  8
_0-1_
  6
CONTINUOUS
 62
    2
 10
150.78966
 20
17.371523
 11
152.08966
 21
17.371523
  0
LINE
  8
_0-1_
  6
CONTINUOUS
 62
    2
 10
154.19849
 20
17.371523
 11
155.49849
 21
17.371523
  0
LINE
  8
_0-1_
  6
CONTINUOUS
 62
    2
 10
156.49849
 20
17.371523
 11
157.79849
 21
17.371523
  0
LINE
  8
_0-1_
  6
CONTINUOUS
 62
    2
 10
158.49242
 20
17.371523
 11
159.79242
 21
17.371523
  0
LINE
  8
_0-1_
  6
CONTINUOUS
 62
    2
 10
162.07338
 20
17.371523
 11
163.37338
 21
17.371523
  0
LINE
  8
_0-1_
  6
CONTINUOUS
 62
    2
 10
164.06074
 20
17.371523
 11
165.35783
 21
17.371523
  0
LINE
  8
_0-1_
  6
CONTINUOUS
 62
    2
 10
166.95214
 20
17.371523
 11
168.05214
 21
17.371523
  0
LINE
  8
_0-1_
  6
CONTINUOUS
 62
    2
 10
138.78156
 20
17.571523
 11
140.08156
 21
17.571523
  0
LINE
  8
_0-1_
  6
CONTINUOUS
 62
    2
 10
140.44349
 20
17.571523
 11
141.74349
 21
17.571523
  0
LINE
  8
_0-1_
  6
CONTINUOUS
 62
    2
 10
144.21042
 20
17.571523
 11
145.51042
 21
17.571523
  0
LINE
  8
_0-1_
  6
CONTINUOUS
 62
    2
 10
148.40914
 20
17.571523
 11
149.70746
 21
17.571523
  0
LINE
  8
_0-1_
  6
CONTINUOUS
 62
    2
 10
150.6964
 20
17.571523
 11
151.9964
 21
17.571523
  0
LINE
  8
_0-1_
  6
CONTINUOUS
 62
    2
 10
154.29175
 20
17.571523
 11
155.59175
 21
17.571523
  0
LINE
  8
_0-1_
  6
CONTINUOUS
 62
    2
 10
156.59175
 20
17.571523
 11
157.89175
 21
17.571523
  0
LINE
  8
_0-1_
  6
CONTINUOUS
 62
    2
 10
158.39916
 20
17.571523
 11
159.69916
 21
17.571523
  0
LINE
  8
_0-1_
  6
CONTINUOUS
 62
    2
 10
162.07338
 20
17.571523
 11
163.37338
 21
17.571523
  0
LINE
  8
_0-1_
  6
CONTINUOUS
 62
    2
 10
163.93576
 20
17.571523
 11
165.23286
 21
17.571523
  0
LINE
  8
_0-1_
  6
CONTINUOUS
 62
    2
 10
166.95214
 20
17.571523
 11
168.05214
 21
17.571523
  0
LINE
  8
_0-1_
  6
CONTINUOUS
 62
    2
 10
138.87482
 20
17.771523
 11
140.17482
 21
17.771523
  0
LINE
  8
_0-1_
  6
CONTINUOUS
 62
    2
 10
140.35023
 20
17.771523
 11
141.65023
 21
17.771523
  0
LINE
  8
_0-1_
  6
CONTINUOUS
 62
    2
 10
144.21042
 20
17.771523
 11
145.51042
 21
17.771523
  0
LINE
  8
_0-1_
  6
CONTINUOUS
 62
    2
 10
148.33077
 20
17.771523
 11
149.66225
 21
17.771523
  0
LINE
  8
_0-1_
  6
CONTINUOUS
 62
    2
 10
150.60314
 20
17.771523
 11
151.90314
 21
17.771523
  0
LINE
  8
_0-1_
  6
CONTINUOUS
 62
    2
 10
154.38502
 20
17.771523
 11
155.68502
 21
17.771523
  0
LINE
  8
_0-1_
  6
CONTINUOUS
 62
    2
 10
156.68502
 20
17.771523
 11
157.98502
 21
17.771523
  0
LINE
  8
_0-1_
  6
CONTINUOUS
 62
    2
 10
158.3059
 20
17.771523
 11
159.6059
 21
17.771523
  0
LINE
  8
_0-1_
  6
CONTINUOUS
 62
    2
 10
162.07338
 20
17.771523
 11
163.37338
 21
17.771523
  0
LINE
  8
_0-1_
  6
CONTINUOUS
 62
    2
 10
163.81079
 20
17.771523
 11
165.10789
 21
17.771523
  0
LINE
  8
_0-1_
  6
CONTINUOUS
 62
    2
 10
166.95214
 20
17.771523
 11
168.05214
 21
17.771523
  0
LINE
  8
_0-1_
  6
CONTINUOUS
 62
    2
 10
138.96808
 20
17.971523
 11
141.55697
 21
17.971523
  0
LINE
  8
_0-1_
  6
CONTINUOUS
 62
    2
 10
144.21042
 20
17.971523
 11
145.51042
 21
17.971523
  0
LINE
  8
_0-1_
  6
CONTINUOUS
 62
    2
 10
148.21042
 20
17.971523
 11
149.61042
 21
17.971523
  0
LINE
  8
_0-1_
  6
CONTINUOUS
 62
    2
 10
150.50988
 20
17.971523
 11
151.80988
 21
17.971523
  0
LINE
  8
_0-1_
  6
CONTINUOUS
 62
    2
 10
154.47828
 20
17.971523
 11
155.77828
 21
17.971523
  0
LINE
  8
_0-1_
  6
CONTINUOUS
 62
    2
 10
156.77828
 20
17.971523
 11
158.07828
 21
17.971523
  0
LINE
  8
_0-1_
  6
CONTINUOUS
 62
    2
 10
158.21263
 20
17.971523
 11
159.51263
 21
17.971523
  0
LINE
  8
_0-1_
  6
CONTINUOUS
 62
    2
 10
162.07338
 20
17.971523
 11
163.37338
 21
17.971523
  0
LINE
  8
_0-1_
  6
CONTINUOUS
 62
    2
 10
163.68582
 20
17.971523
 11
164.98291
 21
17.971523
  0
LINE
  8
_0-1_
  6
CONTINUOUS
 62
    2
 10
166.95214
 20
17.971523
 11
168.05214
 21
17.971523
  0
LINE
  8
_0-1_
  6
CONTINUOUS
 62
    2
 10
139.06134
 20
18.171523
 11
141.4637
 21
18.171523
  0
LINE
  8
_0-1_
  6
CONTINUOUS
 62
    2
 10
144.21042
 20
18.171523
 11
145.51042
 21
18.171523
  0
LINE
  8
_0-1_
  6
CONTINUOUS
 62
    2
 10
147.99797
 20
18.171523
 11
149.54762
 21
18.171523
  0
LINE
  8
_0-1_
  6
CONTINUOUS
 62
    2
 10
150.41662
 20
18.171523
 11
151.71662
 21
18.171523
  0
LINE
  8
_0-1_
  6
CONTINUOUS
 62
    2
 10
154.57154
 20
18.171523
 11
155.87154
 21
18.171523
  0
LINE
  8
_0-1_
  6
CONTINUOUS
 62
    2
 10
156.87154
 20
18.171523
 11
159.41937
 21
18.171523
  0
LINE
  8
_0-1_
  6
CONTINUOUS
 62
    2
 10
162.07338
 20
18.171523
 11
163.37338
 21
18.171523
  0
LINE
  8
_0-1_
  6
CONTINUOUS
 62
    2
 10
163.56084
 20
18.171523
 11
164.85794
 21
18.171523
  0
LINE
  8
_0-1_
  6
CONTINUOUS
 62
    2
 10
166.95214
 20
18.171523
 11
168.05214
 21
18.171523
  0
LINE
  8
_0-1_
  6
CONTINUOUS
 62
    2
 10
139.15461
 20
18.371523
 11
141.37044
 21
18.371523
  0
LINE
  8
_0-1_
  6
CONTINUOUS
 62
    2
 10
144.21042
 20
18.371523
 11
145.51042
 21
18.371523
  0
LINE
  8
_0-1_
  6
CONTINUOUS
 62
    2
 10
147.69008
 20
18.371523
 11
149.46455
 21
18.371523
  0
LINE
  8
_0-1_
  6
CONTINUOUS
 62
    2
 10
150.32336
 20
18.371523
 11
151.62336
 21
18.371523
  0
LINE
  8
_0-1_
  6
CONTINUOUS
 62
    2
 10
154.6648
 20
18.371523
 11
155.9648
 21
18.371523
  0
LINE
  8
_0-1_
  6
CONTINUOUS
 62
    2
 10
156.9648
 20
18.371523
 11
159.32611
 21
18.371523
  0
LINE
  8
_0-1_
  6
CONTINUOUS
 62
    2
 10
162.07338
 20
18.371523
 11
163.37338
 21
18.371523
  0
LINE
  8
_0-1_
  6
CONTINUOUS
 62
    2
 10
163.43587
 20
18.371523
 11
164.73296
 21
18.371523
  0
LINE
  8
_0-1_
  6
CONTINUOUS
 62
    2
 10
166.95214
 20
18.371523
 11
168.05214
 21
18.371523
  0
LINE
  8
_0-1_
  6
CONTINUOUS
 62
    2
 10
139.24787
 20
18.571523
 11
141.27718
 21
18.571523
  0
LINE
  8
_0-1_
  6
CONTINUOUS
 62
    2
 10
144.21042
 20
18.571523
 11
149.34147
 21
18.571523
  0
LINE
  8
_0-1_
  6
CONTINUOUS
 62
    2
 10
150.23009
 20
18.571523
 11
151.53009
 21
18.571523
  0
LINE
  8
_0-1_
  6
CONTINUOUS
 62
    2
 10
154.75806
 20
18.571523
 11
156.05806
 21
18.571523
  0
LINE
  8
_0-1_
  6
CONTINUOUS
 62
    2
 10
157.05806
 20
18.571523
 11
159.23285
 21
18.571523
  0
LINE
  8
_0-1_
  6
CONTINUOUS
 62
    2
 10
162.07338
 20
18.571523
 11
164.60799
 21
18.571523
  0
LINE
  8
_0-1_
  6
CONTINUOUS
 62
    2
 10
166.95214
 20
18.571523
 11
168.05214
 21
18.571523
  0
LINE
  8
_0-1_
  6
CONTINUOUS
 62
    2
 10
139.34113
 20
18.771523
 11
141.18392
 21
18.771523
  0
LINE
  8
_0-1_
  6
CONTINUOUS
 62
    2
 10
144.21042
 20
18.771523
 11
149.15231
 21
18.771523
  0
LINE
  8
_0-1_
  6
CONTINUOUS
 62
    2
 10
150.13683
 20
18.771523
 11
151.43683
 21
18.771523
  0
LINE
  8
_0-1_
  6
CONTINUOUS
 62
    2
 10
154.85132
 20
18.771523
 11
156.15132
 21
18.771523
  0
LINE
  8
_0-1_
  6
CONTINUOUS
 62
    2
 10
157.15132
 20
18.771523
 11
159.13959
 21
18.771523
  0
LINE
  8
_0-1_
  6
CONTINUOUS
 62
    2
 10
162.07338
 20
18.771523
 11
164.48302
 21
18.771523
  0
LINE
  8
_0-1_
  6
CONTINUOUS
 62
    2
 10
166.95214
 20
18.771523
 11
168.05214
 21
18.771523
  0
LINE
  8
_0-1_
  6
CONTINUOUS
 62
    2
 10
139.43439
 20
18.971523
 11
141.09066
 21
18.971523
  0
LINE
  8
_0-1_
  6
CONTINUOUS
 62
    2
 10
144.21042
 20
18.971523
 11
148.87455
 21
18.971523
  0
LINE
  8
_0-1_
  6
CONTINUOUS
 62
    2
 10
150.04357
 20
18.971523
 11
151.34357
 21
18.971523
  0
LINE
  8
_0-1_
  6
CONTINUOUS
 62
    2
 10
154.94458
 20
18.971523
 11
156.24458
 21
18.971523
  0
LINE
  8
_0-1_
  6
CONTINUOUS
 62
    2
 10
157.24458
 20
18.971523
 11
159.04633
 21
18.971523
  0
LINE
  8
_0-1_
  6
CONTINUOUS
 62
    2
 10
162.07338
 20
18.971523
 11
164.35804
 21
18.971523
  0
LINE
  8
_0-1_
  6
CONTINUOUS
 62
    2
 10
166.95214
 20
18.971523
 11
168.05214
 21
18.971523
  0
LINE
  8
_0-1_
  6
CONTINUOUS
 62
    2
 10
139.52765
 20
19.171523
 11
140.9974
 21
19.171523
  0
LINE
  8
_0-1_
  6
CONTINUOUS
 62
    2
 10
144.21042
 20
19.171523
 11
148.47348
 21
19.171523
  0
LINE
  8
_0-1_
  6
CONTINUOUS
 62
    2
 10
149.95031
 20
19.171523
 11
151.25031
 21
19.171523
  0
LINE
  8
_0-1_
  6
CONTINUOUS
 62
    2
 10
155.03785
 20
19.171523
 11
156.33785
 21
19.171523
  0
LINE
  8
_0-1_
  6
CONTINUOUS
 62
    2
 10
157.33785
 20
19.171523
 11
158.95306
 21
19.171523
  0
LINE
  8
_0-1_
  6
CONTINUOUS
 62
    2
 10
162.07338
 20
19.171523
 11
164.23307
 21
19.171523
  0
LINE
  8
_0-1_
  6
CONTINUOUS
 62
    2
 10
166.95214
 20
19.171523
 11
168.05214
 21
19.171523
  0
LINE
  8
_0-1_
  6
CONTINUOUS
 62
    2
 10
139.62091
 20
19.371523
 11
140.90414
 21
19.371523
  0
LINE
  8
_0-1_
  6
CONTINUOUS
 62
    2
 10
144.21042
 20
19.371523
 11
147.88508
 21
19.371523
  0
LINE
  8
_0-1_
  6
CONTINUOUS
 62
    2
 10
149.85705
 20
19.371523
 11
151.15705
 21
19.371523
  0
LINE
  8
_0-1_
  6
CONTINUOUS
 62
    2
 10
155.13111
 20
19.371523
 11
156.43111
 21
19.371523
  0
LINE
  8
_0-1_
  6
CONTINUOUS
 62
    2
 10
157.43111
 20
19.371523
 11
158.8598
 21
19.371523
  0
LINE
  8
_0-1_
  6
CONTINUOUS
 62
    2
 10
162.07338
 20
19.371523
 11
164.10809
 21
19.371523
  0
LINE
  8
_0-1_
  6
CONTINUOUS
 62
    2
 10
166.95214
 20
19.371523
 11
168.05214
 21
19.371523
  0
LINE
  8
_0-1_
  6
CONTINUOUS
 62
    7
 10
126.17665
 20
13.840458
 11
130.3805
 21
13.840458
  0
LINE
  8
_0-1_
  6
CONTINUOUS
 62
    7
 10
126.17665
 20
13.940458
 11
130.3805
 21
13.940458
  0
LINE
  8
_0-1_
  6
CONTINUOUS
 62
    7
 10
126.17665
 20
14.040458
 11
130.3805
 21
14.040458
  0
LINE
  8
_0-1_
  6
CONTINUOUS
 62
    7
 10
126.17665
 20
14.140458
 11
130.3805
 21
14.140458
  0
LINE
  8
_0-1_
  6
CONTINUOUS
 62
    7
 10
126.17665
 20
14.240458
 11
130.3805
 21
14.240458
  0
LINE
  8
_0-1_
  6
CONTINUOUS
 62
    7
 10
126.17665
 20
14.340458
 11
130.3805
 21
14.340458
  0
LINE
  8
_0-1_
  6
CONTINUOUS
 62
    7
 10
126.17665
 20
14.440458
 11
130.3805
 21
14.440458
  0
LINE
  8
_0-1_
  6
CONTINUOUS
 62
    7
 10
126.17665
 20
14.540458
 11
130.3805
 21
14.540458
  0
LINE
  8
_0-1_
  6
CONTINUOUS
 62
    7
 10
126.17665
 20
14.640458
 11
130.3805
 21
14.640458
  0
LINE
  8
_0-1_
  6
CONTINUOUS
 62
    7
 10
126.17665
 20
14.740458
 11
130.3805
 21
14.740458
  0
LINE
  8
_0-1_
  6
CONTINUOUS
 62
    7
 10
126.17665
 20
14.840458
 11
130.3805
 21
14.840458
  0
LINE
  8
_0-1_
  6
CONTINUOUS
 62
    7
 10
126.17665
 20
14.940458
 11
130.3805
 21
14.940458
  0
LINE
  8
_0-1_
  6
CONTINUOUS
 62
    7
 10
126.17665
 20
15.040458
 11
130.3805
 21
15.040458
  0
LINE
  8
_0-1_
  6
CONTINUOUS
 62
    7
 10
126.17665
 20
15.140458
 11
130.3805
 21
15.140458
  0
LINE
  8
_0-1_
  6
CONTINUOUS
 62
    7
 10
126.17665
 20
15.240458
 11
130.3805
 21
15.240458
  0
LINE
  8
_0-1_
  6
CONTINUOUS
 62
    7
 10
126.17665
 20
15.340458
 11
130.3805
 21
15.340458
  0
LINE
  8
_0-1_
  6
CONTINUOUS
 62
    7
 10
126.17665
 20
15.440458
 11
130.3805
 21
15.440458
  0
LINE
  8
_0-1_
  6
CONTINUOUS
 62
    7
 10
126.17665
 20
15.540458
 11
130.3805
 21
15.540458
  0
LINE
  8
_0-1_
  6
CONTINUOUS
 62
    7
 10
126.17665
 20
15.640458
 11
130.3805
 21
15.640458
  0
LINE
  8
_0-1_
  6
CONTINUOUS
 62
    7
 10
126.17665
 20
15.740458
 11
130.3805
 21
15.740458
  0
LINE
  8
_0-1_
  6
CONTINUOUS
 62
    7
 10
126.17665
 20
15.840458
 11
130.3805
 21
15.840458
  0
LINE
  8
_0-1_
  6
CONTINUOUS
 62
    7
 10
126.17665
 20
15.940458
 11
130.3805
 21
15.940458
  0
LINE
  8
_0-1_
  6
CONTINUOUS
 62
    7
 10
126.17665
 20
16.040458
 11
130.3805
 21
16.040458
  0
LINE
  8
_0-1_
  6
CONTINUOUS
 62
    7
 10
126.17665
 20
16.140458
 11
130.3805
 21
16.140458
  0
LINE
  8
_0-1_
  6
CONTINUOUS
 62
    7
 10
126.17665
 20
16.240458
 11
130.3805
 21
16.240458
  0
LINE
  8
_0-1_
  6
CONTINUOUS
 62
    7
 10
126.17665
 20
16.340458
 11
130.3805
 21
16.340458
  0
LINE
  8
_0-1_
  6
CONTINUOUS
 62
    7
 10
126.17665
 20
16.440458
 11
130.3805
 21
16.440458
  0
LINE
  8
_0-1_
  6
CONTINUOUS
 62
    7
 10
126.17665
 20
16.540458
 11
130.3805
 21
16.540458
  0
LINE
  8
_0-1_
  6
CONTINUOUS
 62
    7
 10
126.17665
 20
16.640458
 11
130.3805
 21
16.640458
  0
LINE
  8
_0-1_
  6
CONTINUOUS
 62
    7
 10
126.17665
 20
16.740458
 11
130.3805
 21
16.740458
  0
LINE
  8
_0-1_
  6
CONTINUOUS
 62
    7
 10
126.17665
 20
16.840458
 11
130.3805
 21
16.840458
  0
LINE
  8
_0-1_
  6
CONTINUOUS
 62
    7
 10
126.17665
 20
16.940458
 11
130.3805
 21
16.940458
  0
LINE
  8
_0-1_
  6
CONTINUOUS
 62
    7
 10
126.17665
 20
17.040458
 11
130.3805
 21
17.040458
  0
LINE
  8
_0-1_
  6
CONTINUOUS
 62
    7
 10
126.17665
 20
17.140458
 11
130.3805
 21
17.140458
  0
LINE
  8
_0-1_
  6
CONTINUOUS
 62
    7
 10
126.17665
 20
17.240458
 11
130.3805
 21
17.240458
  0
LINE
  8
_0-1_
  6
CONTINUOUS
 62
    7
 10
126.17665
 20
17.340458
 11
130.3805
 21
17.340458
  0
LINE
  8
_0-1_
  6
CONTINUOUS
 62
    7
 10
126.17665
 20
17.440458
 11
130.3805
 21
17.440458
  0
LINE
  8
_0-1_
  6
CONTINUOUS
 62
    7
 10
126.17665
 20
17.540458
 11
130.3805
 21
17.540458
  0
LINE
  8
_0-1_
  6
CONTINUOUS
 62
    7
 10
126.17665
 20
17.640458
 11
130.3805
 21
17.640458
  0
LINE
  8
_0-1_
  6
CONTINUOUS
 62
    7
 10
126.17665
 20
17.740458
 11
130.3805
 21
17.740458
  0
LINE
  8
_0-1_
  6
CONTINUOUS
 62
    7
 10
126.17665
 20
17.840458
 11
130.3805
 21
17.840458
  0
LINE
  8
_0-1_
  6
CONTINUOUS
 62
    7
 10
126.17665
 20
17.940458
 11
130.3805
 21
17.940458
  0
LINE
  8
_0-1_
  6
CONTINUOUS
 62
    7
 10
135.65782
 20
22.640458
 11
137.12138
 21
22.640458
  0
LINE
  8
_0-1_
  6
CONTINUOUS
 62
    7
 10
135.38552
 20
22.840458
 11
137.39367
 21
22.840458
  0
LINE
  8
_0-1_
  6
CONTINUOUS
 62
    7
 10
135.20602
 20
23.040458
 11
137.57317
 21
23.040458
  0
LINE
  8
_0-1_
  6
CONTINUOUS
 62
    7
 10
135.08058
 20
23.240458
 11
137.69861
 21
23.240458
  0
LINE
  8
_0-1_
  6
CONTINUOUS
 62
    7
 10
134.99454
 20
23.440458
 11
137.78465
 21
23.440458
  0
LINE
  8
_0-1_
  6
CONTINUOUS
 62
    7
 10
134.94085
 20
23.640458
 11
137.83834
 21
23.640458
  0
LINE
  8
_0-1_
  6
CONTINUOUS
 62
    7
 10
134.91599
 20
23.840458
 11
137.86321
 21
23.840458
  0
LINE
  8
_0-1_
  6
CONTINUOUS
 62
    7
 10
134.91848
 20
24.040458
 11
137.86072
 21
24.040458
  0
LINE
  8
_0-1_
  6
CONTINUOUS
 62
    7
 10
134.94846
 20
24.240458
 11
137.83073
 21
24.240458
  0
LINE
  8
_0-1_
  6
CONTINUOUS
 62
    7
 10
135.00774
 20
24.440458
 11
137.77146
 21
24.440458
  0
LINE
  8
_0-1_
  6
CONTINUOUS
 62
    7
 10
135.10033
 20
24.640458
 11
137.67886
 21
24.640458
  0
LINE
  8
_0-1_
  6
CONTINUOUS
 62
    7
 10
135.23423
 20
24.840458
 11
137.54497
 21
24.840458
  0
LINE
  8
_0-1_
  6
CONTINUOUS
 62
    7
 10
135.4265
 20
25.040458
 11
137.35269
 21
25.040458
  0
LINE
  8
_0-1_
  6
CONTINUOUS
 62
    7
 10
135.7261
 20
25.240458
 11
137.05309
 21
25.240458
  0
LINE
  8
_0-1_
  6
CONTINUOUS
 62
    7
 10
137.78781
 20
23.449695
 11
137.78781
 21
24.394575
  0
LINE
  8
_0-1_
  6
CONTINUOUS
 62
    7
 10
137.58781
 20
23.06046
 11
137.58781
 21
24.783811
  0
LINE
  8
_0-1_
  6
CONTINUOUS
 62
    7
 10
137.38781
 20
22.835043
 11
137.38781
 21
25.009227
  0
LINE
  8
_0-1_
  6
CONTINUOUS
 62
    7
 10
137.18781
 20
22.680743
 11
137.18781
 21
25.163527
  0
LINE
  8
_0-1_
  6
CONTINUOUS
 62
    7
 10
136.98781
 20
22.572936
 11
136.98781
 21
25.271335
  0
LINE
  8
_0-1_
  6
CONTINUOUS
 62
    7
 10
136.78781
 20
22.501
 11
136.78781
 21
25.34327
  0
LINE
  8
_0-1_
  6
CONTINUOUS
 62
    7
 10
136.58781
 20
22.459634
 11
136.58781
 21
25.384636
  0
LINE
  8
_0-1_
  6
CONTINUOUS
 62
    7
 10
136.38781
 20
22.446265
 11
136.38781
 21
25.398006
  0
LINE
  8
_0-1_
  6
CONTINUOUS
 62
    7
 10
135.09076
 20
19.402456
 11
135.13264
 21
19.444341
  0
LINE
  8
_0-1_
  6
CONTINUOUS
 62
    7
 10
134.80792
 20
19.402456
 11
135.02912
 21
19.623657
  0
LINE
  8
_0-1_
  6
CONTINUOUS
 62
    7
 10
134.52507
 20
19.402456
 11
134.92559
 21
19.802972
  0
LINE
  8
_0-1_
  6
CONTINUOUS
 62
    7
 10
134.24223
 20
19.402456
 11
134.82206
 21
19.982287
  0
LINE
  8
_0-1_
  6
CONTINUOUS
 62
    7
 10
133.95939
 20
19.402456
 11
134.71853
 21
20.161602
  0
LINE
  8
_0-1_
  6
CONTINUOUS
 62
    7
 10
133.67654
 20
19.402456
 11
134.61501
 21
20.340917
  0
LINE
  8
_0-1_
  6
CONTINUOUS
 62
    7
 10
133.3937
 20
19.402456
 11
134.51148
 21
20.520232
  0
LINE
  8
_0-1_
  6
CONTINUOUS
 62
    7
 10
133.11086
 20
19.402456
 11
134.40795
 21
20.699547
  0
LINE
  8
_0-1_
  6
CONTINUOUS
 62
    7
 10
132.82802
 20
19.402456
 11
134.30442
 21
20.878862
  0
LINE
  8
_0-1_
  6
CONTINUOUS
 62
    7
 10
132.54517
 20
19.402456
 11
134.2009
 21
21.058177
  0
LINE
  8
_0-1_
  6
CONTINUOUS
 62
    7
 10
132.26233
 20
19.402456
 11
134.09737
 21
21.237492
  0
LINE
  8
_0-1_
  6
CONTINUOUS
 62
    7
 10
131.97949
 20
19.402456
 11
133.99384
 21
21.416808
  0
LINE
  8
_0-1_
  6
CONTINUOUS
 62
    7
 10
131.69665
 20
19.402456
 11
133.89031
 21
21.596123
  0
LINE
  8
_0-1_
  6
CONTINUOUS
 62
    7
 10
131.4138
 20
19.402456
 11
133.78678
 21
21.775438
  0
LINE
  8
_0-1_
  6
CONTINUOUS
 62
    7
 10
131.13096
 20
19.402456
 11
133.68326
 21
21.954753
  0
LINE
  8
_0-1_
  6
CONTINUOUS
 62
    7
 10
130.86872
 20
19.423061
 11
133.57973
 21
22.134068
  0
LINE
  8
_0-1_
  6
CONTINUOUS
 62
    7
 10
131.25509
 20
20.092274
 11
133.4762
 21
22.313383
  0
LINE
  8
_0-1_
  6
CONTINUOUS
 62
    7
 10
131.64146
 20
20.761487
 11
133.37267
 21
22.492698
  0
LINE
  8
_0-1_
  6
CONTINUOUS
 62
    7
 10
132.02783
 20
21.430701
 11
133.26915
 21
22.672013
  0
LINE
  8
_0-1_
  6
CONTINUOUS
 62
    7
 10
132.4142
 20
22.099914
 11
133.16562
 21
22.851328
  0
LINE
  8
_0-1_
  6
CONTINUOUS
 62
    7
 10
132.80057
 20
22.769127
 11
133.06209
 21
23.030643
  0
LINE
  8
_0-1_
  6
CONTINUOUS
 62
    7
 10
130.89778
 20
19.473388
 11
130.96871
 21
19.402456
  0
LINE
  8
_0-1_
  6
CONTINUOUS
 62
    7
 10
131.00131
 20
19.652703
 11
131.25155
 21
19.402456
  0
LINE
  8
_0-1_
  6
CONTINUOUS
 62
    7
 10
131.10483
 20
19.832018
 11
131.5344
 21
19.402456
  0
LINE
  8
_0-1_
  6
CONTINUOUS
 62
    7
 10
131.20836
 20
20.011333
 11
131.81724
 21
19.402456
  0
LINE
  8
_0-1_
  6
CONTINUOUS
 62
    7
 10
131.31189
 20
20.190648
 11
132.10008
 21
19.402456
  0
LINE
  8
_0-1_
  6
CONTINUOUS
 62
    7
 10
131.41542
 20
20.369963
 11
132.38292
 21
19.402456
  0
LINE
  8
_0-1_
  6
CONTINUOUS
 62
    7
 10
131.51894
 20
20.549278
 11
132.66577
 21
19.402456
  0
LINE
  8
_0-1_
  6
CONTINUOUS
 62
    7
 10
131.62247
 20
20.728593
 11
132.94861
 21
19.402456
  0
LINE
  8
_0-1_
  6
CONTINUOUS
 62
    7
 10
131.726
 20
20.907908
 11
133.23145
 21
19.402456
  0
LINE
  8
_0-1_
  6
CONTINUOUS
 62
    7
 10
131.82953
 20
21.087223
 11
133.5143
 21
19.402456
  0
LINE
  8
_0-1_
  6
CONTINUOUS
 62
    7
 10
131.93306
 20
21.266539
 11
133.79714
 21
19.402456
  0
LINE
  8
_0-1_
  6
CONTINUOUS
 62
    7
 10
132.03658
 20
21.445854
 11
134.07998
 21
19.402456
  0
LINE
  8
_0-1_
  6
CONTINUOUS
 62
    7
 10
132.14011
 20
21.625169
 11
134.36282
 21
19.402456
  0
LINE
  8
_0-1_
  6
CONTINUOUS
 62
    7
 10
132.24364
 20
21.804484
 11
134.64567
 21
19.402456
  0
LINE
  8
_0-1_
  6
CONTINUOUS
 62
    7
 10
132.34717
 20
21.983799
 11
134.92851
 21
19.402456
  0
LINE
  8
_0-1_
  6
CONTINUOUS
 62
    7
 10
132.45069
 20
22.163114
 11
135.08234
 21
19.531463
  0
LINE
  8
_0-1_
  6
CONTINUOUS
 62
    7
 10
132.55422
 20
22.342429
 11
134.69597
 21
20.200676
  0
LINE
  8
_0-1_
  6
CONTINUOUS
 62
    7
 10
132.65775
 20
22.521744
 11
134.3096
 21
20.869889
  0
LINE
  8
_0-1_
  6
CONTINUOUS
 62
    7
 10
132.76128
 20
22.701059
 11
133.92323
 21
21.539102
  0
LINE
  8
_0-1_
  6
CONTINUOUS
 62
    7
 10
132.8648
 20
22.880374
 11
133.53686
 21
22.208315
  0
LINE
  8
_0-1_
  6
CONTINUOUS
 62
    7
 10
132.96833
 20
23.059689
 11
133.15049
 21
22.877528
  0
LINE
  8
_0-1_
  6
CONTINUOUS
 62
    7
 10
130.28781
 20
13.819895
 11
130.28781
 21
18.029664
  0
LINE
  8
_0-1_
  6
CONTINUOUS
 62
    7
 10
130.18781
 20
13.819895
 11
130.18781
 21
18.029664
  0
LINE
  8
_0-1_
  6
CONTINUOUS
 62
    7
 10
130.08781
 20
13.819895
 11
130.08781
 21
18.029664
  0
LINE
  8
_0-1_
  6
CONTINUOUS
 62
    7
 10
129.98781
 20
13.819895
 11
129.98781
 21
18.029664
  0
LINE
  8
_0-1_
  6
CONTINUOUS
 62
    7
 10
129.88781
 20
13.819895
 11
129.88781
 21
18.029664
  0
LINE
  8
_0-1_
  6
CONTINUOUS
 62
    7
 10
129.78781
 20
13.819895
 11
129.78781
 21
18.029664
  0
LINE
  8
_0-1_
  6
CONTINUOUS
 62
    7
 10
129.68781
 20
13.819895
 11
129.68781
 21
18.029664
  0
LINE
  8
_0-1_
  6
CONTINUOUS
 62
    7
 10
129.58781
 20
13.819895
 11
129.58781
 21
18.029664
  0
LINE
  8
_0-1_
  6
CONTINUOUS
 62
    7
 10
129.48781
 20
13.819895
 11
129.48781
 21
18.029664
  0
LINE
  8
_0-1_
  6
CONTINUOUS
 62
    7
 10
129.38781
 20
13.819895
 11
129.38781
 21
18.029664
  0
LINE
  8
_0-1_
  6
CONTINUOUS
 62
    7
 10
129.28781
 20
13.819895
 11
129.28781
 21
18.029664
  0
LINE
  8
_0-1_
  6
CONTINUOUS
 62
    7
 10
129.18781
 20
13.819895
 11
129.18781
 21
18.029664
  0
LINE
  8
_0-1_
  6
CONTINUOUS
 62
    7
 10
129.08781
 20
13.819895
 11
129.08781
 21
18.029664
  0
LINE
  8
_0-1_
  6
CONTINUOUS
 62
    7
 10
128.98781
 20
13.819895
 11
128.98781
 21
18.029664
  0
LINE
  8
_0-1_
  6
CONTINUOUS
 62
    7
 10
128.88781
 20
13.819895
 11
128.88781
 21
18.029664
  0
LINE
  8
_0-1_
  6
CONTINUOUS
 62
    7
 10
128.78781
 20
13.819895
 11
128.78781
 21
18.029664
  0
LINE
  8
_0-1_
  6
CONTINUOUS
 62
    7
 10
128.68781
 20
13.819895
 11
128.68781
 21
18.029664
  0
LINE
  8
_0-1_
  6
CONTINUOUS
 62
    7
 10
128.58781
 20
13.819895
 11
128.58781
 21
18.029664
  0
LINE
  8
_0-1_
  6
CONTINUOUS
 62
    7
 10
128.48781
 20
13.819895
 11
128.48781
 21
18.029664
  0
LINE
  8
_0-1_
  6
CONTINUOUS
 62
    7
 10
128.38781
 20
13.819895
 11
128.38781
 21
18.029664
  0
LINE
  8
_0-1_
  6
CONTINUOUS
 62
    7
 10
128.28781
 20
13.819895
 11
128.28781
 21
18.029664
  0
LINE
  8
_0-1_
  6
CONTINUOUS
 62
    7
 10
128.18781
 20
13.819895
 11
128.18781
 21
18.029664
  0
LINE
  8
_0-1_
  6
CONTINUOUS
 62
    7
 10
128.08781
 20
13.819895
 11
128.08781
 21
18.029664
  0
LINE
  8
_0-1_
  6
CONTINUOUS
 62
    7
 10
127.98781
 20
13.819895
 11
127.98781
 21
18.029664
  0
LINE
  8
_0-1_
  6
CONTINUOUS
 62
    7
 10
127.88781
 20
13.819895
 11
127.88781
 21
18.029664
  0
LINE
  8
_0-1_
  6
CONTINUOUS
 62
    7
 10
127.78781
 20
13.819895
 11
127.78781
 21
18.029664
  0
LINE
  8
_0-1_
  6
CONTINUOUS
 62
    7
 10
127.68781
 20
13.819895
 11
127.68781
 21
18.029664
  0
LINE
  8
_0-1_
  6
CONTINUOUS
 62
    7
 10
127.58781
 20
13.819895
 11
127.58781
 21
18.029664
  0
LINE
  8
_0-1_
  6
CONTINUOUS
 62
    7
 10
127.48781
 20
13.819895
 11
127.48781
 21
18.029664
  0
LINE
  8
_0-1_
  6
CONTINUOUS
 62
    7
 10
127.38781
 20
13.819895
 11
127.38781
 21
18.029664
  0
LINE
  8
_0-1_
  6
CONTINUOUS
 62
    7
 10
127.28781
 20
13.819895
 11
127.28781
 21
18.029664
  0
LINE
  8
_0-1_
  6
CONTINUOUS
 62
    7
 10
127.18781
 20
13.819895
 11
127.18781
 21
18.029664
  0
LINE
  8
_0-1_
  6
CONTINUOUS
 62
    7
 10
127.08781
 20
13.819895
 11
127.08781
 21
18.029664
  0
LINE
  8
_0-1_
  6
CONTINUOUS
 62
    7
 10
126.98781
 20
13.819895
 11
126.98781
 21
18.029664
  0
LINE
  8
_0-1_
  6
CONTINUOUS
 62
    7
 10
126.88781
 20
13.819895
 11
126.88781
 21
18.029664
  0
LINE
  8
_0-1_
  6
CONTINUOUS
 62
    7
 10
126.78781
 20
13.819895
 11
126.78781
 21
18.029664
  0
LINE
  8
_0-1_
  6
CONTINUOUS
 62
    7
 10
126.68781
 20
13.819895
 11
126.68781
 21
18.029664
  0
LINE
  8
_0-1_
  6
CONTINUOUS
 62
    7
 10
126.58781
 20
13.819895
 11
126.58781
 21
18.029664
  0
LINE
  8
_0-1_
  6
CONTINUOUS
 62
    7
 10
126.48781
 20
13.819895
 11
126.48781
 21
18.029664
  0
LINE
  8
_0-1_
  6
CONTINUOUS
 62
    7
 10
126.38781
 20
13.819895
 11
126.38781
 21
18.029664
  0
LINE
  8
_0-1_
  6
CONTINUOUS
 62
    7
 10
126.28781
 20
13.819895
 11
126.28781
 21
18.029664
  0
LINE
  8
_0-1_
  6
CONTINUOUS
 62
    7
 10
126.18781
 20
13.819895
 11
126.18781
 21
18.029664
  0
LINE
  8
_0-1_
  6
CONTINUOUS
 62
    4
 10
128.48756
 20
21.106798
 11
122.7974
 21
13.697979
  0
LINE
  8
_0-1_
  6
CONTINUOUS
 62
    4
 10
122.7974
 20
13.697979
 11
122.23999
 21
13.465728
  0
LINE
  8
_0-1_
  6
CONTINUOUS
 62
    4
 10
122.23999
 20
13.465728
 11
121.72904
 21
13.279927
  0
LINE
  8
_0-1_
  6
CONTINUOUS
 62
    4
 10
121.72904
 20
13.279927
 11
121.45034
 21
13.535403
  0
LINE
  8
_0-1_
  6
CONTINUOUS
 62
    4
 10
121.45034
 20
13.535403
 11
121.21809
 21
13.860555
  0
LINE
  8
_0-1_
  6
CONTINUOUS
 62
    4
 10
121.21809
 20
13.860555
 11
121.03229
 21
14.487634
  0
LINE
  8
_0-1_
  6
CONTINUOUS
 62
    4
 10
121.03229
 20
14.487634
 11
121.21809
 21
15.068262
  0
LINE
  8
_0-1_
  6
CONTINUOUS
 62
    4
 10
121.21809
 20
15.068262
 11
121.91484
 21
16.066943
  0
LINE
  8
_0-1_
  6
CONTINUOUS
 62
    4
 10
121.91484
 20
16.066943
 11
127.16372
 21
23.173835
  0
LINE
  8
_0-1_
  6
CONTINUOUS
 62
    4
 10
127.16372
 20
23.173835
 11
127.16372
 21
23.684788
  0
LINE
  8
_0-1_
  6
CONTINUOUS
 62
    4
 10
127.16372
 20
23.684788
 11
127.30307
 21
24.00994
  0
LINE
  8
_0-1_
  6
CONTINUOUS
 62
    4
 10
127.30307
 20
24.00994
 11
127.67468
 21
24.427992
  0
LINE
  8
_0-1_
  6
CONTINUOUS
 62
    4
 10
127.67468
 20
24.427992
 11
127.7908
 21
24.544118
  0
LINE
  8
_0-1_
  6
CONTINUOUS
 62
    4
 10
127.7908
 20
24.544118
 11
127.99983
 21
24.846044
  0
LINE
  8
_0-1_
  6
CONTINUOUS
 62
    4
 10
127.99983
 20
24.846044
 11
128.3482
 21
24.892495
  0
LINE
  8
_0-1_
  6
CONTINUOUS
 62
    4
 10
128.3482
 20
24.892495
 11
128.95206
 21
25.00862
  0
LINE
  8
_0-1_
  6
CONTINUOUS
 62
    4
 10
128.95206
 20
25.00862
 11
129.18431
 21
24.985395
  0
LINE
  8
_0-1_
  6
CONTINUOUS
 62
    4
 10
129.18431
 20
24.985395
 11
129.67204
 21
24.822819
  0
LINE
  8
_0-1_
  6
CONTINUOUS
 62
    4
 10
129.67204
 20
24.822819
 11
129.85784
 21
24.590568
  0
LINE
  8
_0-1_
  6
CONTINUOUS
 62
    4
 10
129.85784
 20
24.590568
 11
130.36879
 21
23.917039
  0
LINE
  8
_0-1_
  6
CONTINUOUS
 62
    4
 10
130.36879
 20
23.917039
 11
131.9481
 21
21.292599
  0
LINE
  8
_0-1_
  6
CONTINUOUS
 62
    4
 10
133.06696
 20
19.402456
 11
135.31484
 21
15.522102
  0
LINE
  8
_0-1_
  6
CONTINUOUS
 62
    4
 10
135.31484
 20
15.522102
 11
135.53039
 21
14.967819
  0
LINE
  8
_0-1_
  6
CONTINUOUS
 62
    4
 10
135.53039
 20
14.967819
 11
135.43801
 21
14.690678
  0
LINE
  8
_0-1_
  6
CONTINUOUS
 62
    4
 10
135.43801
 20
14.690678
 11
135.16087
 21
14.30576
  0
LINE
  8
_0-1_
  6
CONTINUOUS
 62
    4
 10
135.16087
 20
14.30576
 11
134.0831
 21
13.982428
  0
LINE
  8
_0-1_
  6
CONTINUOUS
 62
    4
 10
134.0831
 20
13.982428
 11
133.43643
 21
13.751477
  0
LINE
  8
_0-1_
  6
CONTINUOUS
 62
    4
 10
133.43643
 20
13.751477
 11
132.86676
 21
13.982428
  0
LINE
  8
_0-1_
  6
CONTINUOUS
 62
    4
 10
132.86676
 20
13.982428
 11
131.98914
 21
14.921629
  0
LINE
  8
_0-1_
  6
CONTINUOUS
 62
    4
 10
131.98914
 20
14.921629
 11
131.95835
 21
15.429721
  0
LINE
  8
_0-1_
  6
CONTINUOUS
 62
    4
 10
131.95835
 20
15.429721
 11
128.48756
 21
21.106798
  0
LINE
  8
_0-1_
  6
CONTINUOUS
 62
    4
 10
135.05282
 20
14.273344
 11
135.35536
 21
14.575892
  0
LINE
  8
_0-1_
  6
CONTINUOUS
 62
    4
 10
134.64875
 20
14.152126
 11
135.51193
 21
15.015297
  0
LINE
  8
_0-1_
  6
CONTINUOUS
 62
    4
 10
134.24469
 20
14.030907
 11
135.43273
 21
15.218944
  0
LINE
  8
_0-1_
  6
CONTINUOUS
 62
    4
 10
133.81908
 20
13.888137
 11
135.35353
 21
15.422591
  0
LINE
  8
_0-1_
  6
CONTINUOUS
 62
    4
 10
133.41021
 20
13.762109
 11
135.26178
 21
15.613683
  0
LINE
  8
_0-1_
  6
CONTINUOUS
 62
    4
 10
133.20896
 20
13.843698
 11
135.15803
 21
15.792777
  0
LINE
  8
_0-1_
  6
CONTINUOUS
 62
    4
 10
133.0077
 20
13.925288
 11
135.05429
 21
15.971871
  0
LINE
  8
_0-1_
  6
CONTINUOUS
 62
    4
 10
132.82581
 20
14.026242
 11
134.95054
 21
16.150965
  0
LINE
  8
_0-1_
  6
CONTINUOUS
 62
    4
 10
132.68919
 20
14.172458
 11
134.84679
 21
16.330059
  0
LINE
  8
_0-1_
  6
CONTINUOUS
 62
    4
 10
132.55256
 20
14.318673
 11
134.74304
 21
16.509154
  0
LINE
  8
_0-1_
  6
CONTINUOUS
 62
    4
 10
132.41593
 20
14.464888
 11
134.63929
 21
16.688248
  0
LINE
  8
_0-1_
  6
CONTINUOUS
 62
    4
 10
132.2793
 20
14.611103
 11
134.53554
 21
16.867342
  0
LINE
  8
_0-1_
  6
CONTINUOUS
 62
    4
 10
132.14268
 20
14.757319
 11
134.4318
 21
17.046436
  0
LINE
  8
_0-1_
  6
CONTINUOUS
 62
    4
 10
132.00605
 20
14.903534
 11
134.32805
 21
17.225531
  0
LINE
  8
_0-1_
  6
CONTINUOUS
 62
    4
 10
131.97498
 20
15.155306
 11
134.2243
 21
17.404625
  0
LINE
  8
_0-1_
  6
CONTINUOUS
 62
    4
 10
131.95882
 20
15.421986
 11
134.12055
 21
17.583719
  0
LINE
  8
_0-1_
  6
CONTINUOUS
 62
    4
 10
131.85415
 20
15.600159
 11
134.0168
 21
17.762813
  0
LINE
  8
_0-1_
  6
CONTINUOUS
 62
    4
 10
131.74683
 20
15.775689
 11
133.91305
 21
17.941908
  0
LINE
  8
_0-1_
  6
CONTINUOUS
 62
    4
 10
131.63952
 20
15.951218
 11
133.8093
 21
18.121002
  0
LINE
  8
_0-1_
  6
CONTINUOUS
 62
    4
 10
131.53221
 20
16.126748
 11
133.70556
 21
18.300096
  0
LINE
  8
_0-1_
  6
CONTINUOUS
 62
    4
 10
131.42489
 20
16.302277
 11
133.60181
 21
18.47919
  0
LINE
  8
_0-1_
  6
CONTINUOUS
 62
    4
 10
131.31758
 20
16.477806
 11
133.49806
 21
18.658285
  0
LINE
  8
_0-1_
  6
CONTINUOUS
 62
    4
 10
131.21027
 20
16.653336
 11
133.39431
 21
18.837379
  0
LINE
  8
_0-1_
  6
CONTINUOUS
 62
    4
 10
131.10295
 20
16.828865
 11
133.29056
 21
19.016473
  0
LINE
  8
_0-1_
  6
CONTINUOUS
 62
    4
 10
130.99564
 20
17.004394
 11
133.18681
 21
19.195567
  0
LINE
  8
_0-1_
  6
CONTINUOUS
 62
    4
 10
130.88833
 20
17.179924
 11
133.08307
 21
19.374661
  0
LINE
  8
_0-1_
  6
CONTINUOUS
 62
    4
 10
130.78101
 20
17.355453
 11
132.82802
 21
19.402456
  0
LINE
  8
_0-1_
  6
CONTINUOUS
 62
    4
 10
130.6737
 20
17.530983
 11
132.54517
 21
19.402456
  0
LINE
  8
_0-1_
  6
CONTINUOUS
 62
    4
 10
130.56639
 20
17.706512
 11
132.26233
 21
19.402456
  0
LINE
  8
_0-1_
  6
CONTINUOUS
 62
    4
 10
130.45907
 20
17.882041
 11
131.97949
 21
19.402456
  0
LINE
  8
_0-1_
  6
CONTINUOUS
 62
    4
 10
130.35176
 20
18.057571
 11
131.69665
 21
19.402456
  0
LINE
  8
_0-1_
  6
CONTINUOUS
 62
    4
 10
130.24445
 20
18.2331
 11
131.4138
 21
19.402456
  0
LINE
  8
_0-1_
  6
CONTINUOUS
 62
    4
 10
130.13713
 20
18.408629
 11
131.13096
 21
19.402456
  0
LINE
  8
_0-1_
  6
CONTINUOUS
 62
    4
 10
130.02982
 20
18.584159
 11
130.86872
 21
19.423061
  0
LINE
  8
_0-1_
  6
CONTINUOUS
 62
    4
 10
129.92251
 20
18.759688
 11
131.25509
 21
20.092274
  0
LINE
  8
_0-1_
  6
CONTINUOUS
 62
    4
 10
129.81519
 20
18.935218
 11
131.64146
 21
20.761487
  0
LINE
  8
_0-1_
  6
CONTINUOUS
 62
    4
 10
129.70788
 20
19.110747
 11
131.92617
 21
21.329039
  0
LINE
  8
_0-1_
  6
CONTINUOUS
 62
    4
 10
129.60057
 20
19.286276
 11
131.81991
 21
21.50562
  0
LINE
  8
_0-1_
  6
CONTINUOUS
 62
    4
 10
129.49325
 20
19.461806
 11
131.71365
 21
21.682201
  0
LINE
  8
_0-1_
  6
CONTINUOUS
 62
    4
 10
129.38594
 20
19.637335
 11
131.60739
 21
21.858783
  0
LINE
  8
_0-1_
  6
CONTINUOUS
 62
    4
 10
129.27863
 20
19.812864
 11
131.50113
 21
22.035364
  0
LINE
  8
_0-1_
  6
CONTINUOUS
 62
    4
 10
129.17131
 20
19.988394
 11
131.39487
 21
22.211946
  0
LINE
  8
_0-1_
  6
CONTINUOUS
 62
    4
 10
122.45567
 20
13.555593
 11
123.45738
 21
14.5573
  0
LINE
  8
_0-1_
  6
CONTINUOUS
 62
    4
 10
129.064
 20
20.163923
 11
131.2886
 21
22.388527
  0
LINE
  8
_0-1_
  6
CONTINUOUS
 62
    4
 10
121.99323
 20
13.375995
 11
124.39382
 21
15.776581
  0
LINE
  8
_0-1_
  6
CONTINUOUS
 62
    4
 10
128.95669
 20
20.339453
 11
131.18234
 21
22.565108
  0
LINE
  8
_0-1_
  6
CONTINUOUS
 62
    4
 10
121.66919
 20
13.334794
 11
125.33025
 21
16.995863
  0
LINE
  8
_0-1_
  6
CONTINUOUS
 62
    4
 10
128.84937
 20
20.514982
 11
131.07608
 21
22.74169
  0
LINE
  8
_0-1_
  6
CONTINUOUS
 62
    4
 10
121.52162
 20
13.470066
 11
126.26669
 21
18.215144
  0
LINE
  8
_0-1_
  6
CONTINUOUS
 62
    4
 10
128.74206
 20
20.690511
 11
130.96982
 21
22.918271
  0
LINE
  8
_0-1_
  6
CONTINUOUS
 62
    4
 10
121.38941
 20
13.620704
 11
127.20313
 21
19.434426
  0
LINE
  8
_0-1_
  6
CONTINUOUS
 62
    4
 10
128.63475
 20
20.866041
 11
130.86356
 21
23.094852
  0
LINE
  8
_0-1_
  6
CONTINUOUS
 62
    4
 10
121.27156
 20
13.785695
 11
128.13957
 21
20.653707
  0
LINE
  8
_0-1_
  6
CONTINUOUS
 62
    4
 10
128.52743
 20
21.04157
 11
130.7573
 21
23.271434
  0
LINE
  8
_0-1_
  6
CONTINUOUS
 62
    4
 10
121.18277
 20
13.97975
 11
130.65104
 21
23.448015
  0
LINE
  8
_0-1_
  6
CONTINUOUS
 62
    4
 10
121.11812
 20
14.197943
 11
130.54477
 21
23.624596
  0
LINE
  8
_0-1_
  6
CONTINUOUS
 62
    4
 10
121.05347
 20
14.416136
 11
130.43851
 21
23.801178
  0
LINE
  8
_0-1_
  6
CONTINUOUS
 62
    4
 10
121.12177
 20
14.767281
 11
130.32684
 21
23.972344
  0
LINE
  8
_0-1_
  6
CONTINUOUS
 62
    4
 10
121.39849
 20
15.326843
 11
130.20483
 21
24.133176
  0
LINE
  8
_0-1_
  6
CONTINUOUS
 62
    4
 10
122.08178
 20
16.292968
 11
130.08282
 21
24.294008
  0
LINE
  8
_0-1_
  6
CONTINUOUS
 62
    4
 10
122.88081
 20
17.374842
 11
129.9608
 21
24.45484
  0
LINE
  8
_0-1_
  6
CONTINUOUS
 62
    4
 10
123.67984
 20
18.456715
 11
129.83822
 21
24.615095
  0
LINE
  8
_0-1_
  6
CONTINUOUS
 62
    4
 10
124.47887
 20
19.538589
 11
129.71251
 21
24.77223
  0
LINE
  8
_0-1_
  6
CONTINUOUS
 62
    4
 10
125.2779
 20
20.620462
 11
129.5282
 21
24.870765
  0
LINE
  8
_0-1_
  6
CONTINUOUS
 62
    4
 10
126.07693
 20
21.702335
 11
129.31607
 21
24.941475
  0
LINE
  8
_0-1_
  6
CONTINUOUS
 62
    4
 10
126.87596
 20
22.784209
 11
129.08689
 21
24.995137
  0
LINE
  8
_0-1_
  6
CONTINUOUS
 62
    4
 10
127.16372
 20
23.354814
 11
128.7855
 21
24.97659
  0
LINE
  8
_0-1_
  6
CONTINUOUS
 62
    4
 10
127.16372
 20
23.637657
 11
128.43531
 21
24.909246
  0
LINE
  8
_0-1_
  6
CONTINUOUS
 62
    4
 10
127.79859
 20
24.555365
 11
128.10303
 21
24.859804
  0
LINE
  8
_0-1_
  6
CONTINUOUS
 62
    4
 10
121.21008
 20
13.887579
 11
121.79408
 21
13.303578
  0
LINE
  8
_0-1_
  6
CONTINUOUS
 62
    4
 10
121.09099
 20
14.289514
 11
122.0015
 21
13.379003
  0
LINE
  8
_0-1_
  6
CONTINUOUS
 62
    4
 10
121.06706
 20
14.596289
 11
122.20892
 21
13.454427
  0
LINE
  8
_0-1_
  6
CONTINUOUS
 62
    4
 10
121.13562
 20
14.810564
 11
122.40974
 21
13.536453
  0
LINE
  8
_0-1_
  6
CONTINUOUS
 62
    4
 10
121.20419
 20
15.024839
 11
122.60939
 21
13.619642
  0
LINE
  8
_0-1_
  6
CONTINUOUS
 62
    4
 10
121.31077
 20
15.201105
 11
122.80456
 21
13.70731
  0
LINE
  8
_0-1_
  6
CONTINUOUS
 62
    4
 10
121.42701
 20
15.367711
 11
122.92743
 21
13.867287
  0
LINE
  8
_0-1_
  6
CONTINUOUS
 62
    4
 10
121.54324
 20
15.534317
 11
123.0503
 21
14.027263
  0
LINE
  8
_0-1_
  6
CONTINUOUS
 62
    4
 10
121.65948
 20
15.700923
 11
123.17316
 21
14.18724
  0
LINE
  8
_0-1_
  6
CONTINUOUS
 62
    4
 10
121.77572
 20
15.867529
 11
123.29603
 21
14.347217
  0
LINE
  8
_0-1_
  6
CONTINUOUS
 62
    4
 10
121.89195
 20
16.034135
 11
123.41889
 21
14.507193
  0
LINE
  8
_0-1_
  6
CONTINUOUS
 62
    4
 10
122.01134
 20
16.197594
 11
123.54176
 21
14.66717
  0
LINE
  8
_0-1_
  6
CONTINUOUS
 62
    4
 10
122.13149
 20
16.360282
 11
123.66463
 21
14.827146
  0
LINE
  8
_0-1_
  6
CONTINUOUS
 62
    4
 10
122.25165
 20
16.522969
 11
123.78749
 21
14.987123
  0
LINE
  8
_0-1_
  6
CONTINUOUS
 62
    4
 10
122.3718
 20
16.685657
 11
123.91036
 21
15.1471
  0
LINE
  8
_0-1_
  6
CONTINUOUS
 62
    4
 10
122.49196
 20
16.848345
 11
124.03322
 21
15.307076
  0
LINE
  8
_0-1_
  6
CONTINUOUS
 62
    4
 10
122.61211
 20
17.011033
 11
124.15609
 21
15.467053
  0
LINE
  8
_0-1_
  6
CONTINUOUS
 62
    4
 10
122.73227
 20
17.17372
 11
124.27896
 21
15.62703
  0
LINE
  8
_0-1_
  6
CONTINUOUS
 62
    4
 10
122.85242
 20
17.336408
 11
124.40182
 21
15.787006
  0
LINE
  8
_0-1_
  6
CONTINUOUS
 62
    4
 10
122.97258
 20
17.499096
 11
124.52469
 21
15.946983
  0
LINE
  8
_0-1_
  6
CONTINUOUS
 62
    4
 10
123.09273
 20
17.661784
 11
124.64755
 21
16.10696
  0
LINE
  8
_0-1_
  6
CONTINUOUS
 62
    4
 10
123.21289
 20
17.824471
 11
124.77042
 21
16.266936
  0
LINE
  8
_0-1_
  6
CONTINUOUS
 62
    4
 10
123.33304
 20
17.987159
 11
124.89329
 21
16.426913
  0
LINE
  8
_0-1_
  6
CONTINUOUS
 62
    4
 10
123.4532
 20
18.149847
 11
125.01615
 21
16.58689
  0
LINE
  8
_0-1_
  6
CONTINUOUS
 62
    4
 10
123.57335
 20
18.312534
 11
125.13902
 21
16.746866
  0
LINE
  8
_0-1_
  6
CONTINUOUS
 62
    4
 10
123.69351
 20
18.475222
 11
125.26189
 21
16.906843
  0
LINE
  8
_0-1_
  6
CONTINUOUS
 62
    4
 10
123.81366
 20
18.63791
 11
125.38475
 21
17.066819
  0
LINE
  8
_0-1_
  6
CONTINUOUS
 62
    4
 10
123.93382
 20
18.800598
 11
125.50762
 21
17.226796
  0
LINE
  8
_0-1_
  6
CONTINUOUS
 62
    4
 10
124.05397
 20
18.963285
 11
125.63048
 21
17.386773
  0
LINE
  8
_0-1_
  6
CONTINUOUS
 62
    4
 10
124.17413
 20
19.125973
 11
125.75335
 21
17.546749
  0
LINE
  8
_0-1_
  6
CONTINUOUS
 62
    4
 10
124.29428
 20
19.288661
 11
125.87622
 21
17.706726
  0
LINE
  8
_0-1_
  6
CONTINUOUS
 62
    4
 10
124.41444
 20
19.451348
 11
125.99908
 21
17.866703
  0
LINE
  8
_0-1_
  6
CONTINUOUS
 62
    4
 10
124.53459
 20
19.614036
 11
126.12195
 21
18.026679
  0
LINE
  8
_0-1_
  6
CONTINUOUS
 62
    4
 10
124.65475
 20
19.776724
 11
126.24481
 21
18.186656
  0
LINE
  8
_0-1_
  6
CONTINUOUS
 62
    4
 10
124.7749
 20
19.939412
 11
126.36768
 21
18.346633
  0
LINE
  8
_0-1_
  6
CONTINUOUS
 62
    4
 10
124.89506
 20
20.102099
 11
126.49055
 21
18.506609
  0
LINE
  8
_0-1_
  6
CONTINUOUS
 62
    4
 10
125.01521
 20
20.264787
 11
126.61341
 21
18.666586
  0
LINE
  8
_0-1_
  6
CONTINUOUS
 62
    4
 10
125.13537
 20
20.427475
 11
126.73628
 21
18.826563
  0
LINE
  8
_0-1_
  6
CONTINUOUS
 62
    4
 10
125.25552
 20
20.590163
 11
126.85914
 21
18.986539
  0
LINE
  8
_0-1_
  6
CONTINUOUS
 62
    4
 10
125.37568
 20
20.75285
 11
126.98201
 21
19.146516
  0
LINE
  8
_0-1_
  6
CONTINUOUS
 62
    4
 10
125.49583
 20
20.915538
 11
127.10488
 21
19.306492
  0
LINE
  8
_0-1_
  6
CONTINUOUS
 62
    4
 10
125.61599
 20
21.078226
 11
127.22774
 21
19.466469
  0
LINE
  8
_0-1_
  6
CONTINUOUS
 62
    4
 10
125.73614
 20
21.240913
 11
127.35061
 21
19.626446
  0
LINE
  8
_0-1_
  6
CONTINUOUS
 62
    4
 10
131.98487
 20
14.992189
 11
133.08181
 21
13.895244
  0
LINE
  8
_0-1_
  6
CONTINUOUS
 62
    4
 10
125.8563
 20
21.403601
 11
127.47347
 21
19.786422
  0
LINE
  8
_0-1_
  6
CONTINUOUS
 62
    4
 10
131.96662
 20
15.293279
 11
133.48948
 21
13.770421
  0
LINE
  8
_0-1_
  6
CONTINUOUS
 62
    4
 10
125.97645
 20
21.566289
 11
127.59634
 21
19.946399
  0
LINE
  8
_0-1_
  6
CONTINUOUS
 62
    4
 10
131.71503
 20
15.827709
 11
133.69789
 21
13.844853
  0
LINE
  8
_0-1_
  6
CONTINUOUS
 62
    4
 10
126.09661
 20
21.728977
 11
127.71921
 21
20.106376
  0
LINE
  8
_0-1_
  6
CONTINUOUS
 62
    4
 10
131.27008
 20
16.555503
 11
133.9063
 21
13.919285
  0
LINE
  8
_0-1_
  6
CONTINUOUS
 62
    4
 10
126.21676
 20
21.891664
 11
127.84207
 21
20.266352
  0
LINE
  8
_0-1_
  6
CONTINUOUS
 62
    4
 10
130.82513
 20
17.283297
 11
134.1161
 21
13.992328
  0
LINE
  8
_0-1_
  6
CONTINUOUS
 62
    4
 10
126.33692
 20
22.054352
 11
127.96494
 21
20.426329
  0
LINE
  8
_0-1_
  6
CONTINUOUS
 62
    4
 10
130.38018
 20
18.011091
 11
134.33367
 21
14.0576
  0
LINE
  8
_0-1_
  6
CONTINUOUS
 62
    4
 10
126.45707
 20
22.21704
 11
128.0878
 21
20.586306
  0
LINE
  8
_0-1_
  6
CONTINUOUS
 62
    4
 10
129.93523
 20
18.738884
 11
134.55124
 21
14.122871
  0
LINE
  8
_0-1_
  6
CONTINUOUS
 62
    4
 10
126.57723
 20
22.379728
 11
128.21067
 21
20.746282
  0
LINE
  8
_0-1_
  6
CONTINUOUS
 62
    4
 10
129.49028
 20
19.466678
 11
134.76881
 21
14.188143
  0
LINE
  8
_0-1_
  6
CONTINUOUS
 62
    4
 10
126.69738
 20
22.542415
 11
128.33354
 21
20.906259
  0
LINE
  8
_0-1_
  6
CONTINUOUS
 62
    4
 10
129.04532
 20
20.194472
 11
134.98638
 21
14.253414
  0
LINE
  8
_0-1_
  6
CONTINUOUS
 62
    4
 10
126.81754
 20
22.705103
 11
128.4564
 21
21.066235
  0
LINE
  8
_0-1_
  6
CONTINUOUS
 62
    4
 10
128.60037
 20
20.922266
 11
135.18431
 21
14.338324
  0
LINE
  8
_0-1_
  6
CONTINUOUS
 62
    4
 10
126.93769
 20
22.867791
 11
135.30271
 21
14.502768
  0
LINE
  8
_0-1_
  6
CONTINUOUS
 62
    4
 10
127.05785
 20
23.030478
 11
135.42111
 21
14.667211
  0
LINE
  8
_0-1_
  6
CONTINUOUS
 62
    4
 10
127.16372
 20
23.207444
 11
130.89778
 21
19.473388
  0
LINE
  8
_0-1_
  6
CONTINUOUS
 62
    4
 10
130.96871
 20
19.402456
 11
135.49863
 21
14.872538
  0
LINE
  8
_0-1_
  6
CONTINUOUS
 62
    4
 10
127.16372
 20
23.490286
 11
131.00131
 21
19.652703
  0
LINE
  8
_0-1_
  6
CONTINUOUS
 62
    4
 10
131.25155
 20
19.402456
 11
135.43124
 21
15.222765
  0
LINE
  8
_0-1_
  6
CONTINUOUS
 62
    4
 10
127.19023
 20
23.746627
 11
131.10483
 21
19.832018
  0
LINE
  8
_0-1_
  6
CONTINUOUS
 62
    4
 10
131.5344
 20
19.402456
 11
135.17726
 21
15.759596
  0
LINE
  8
_0-1_
  6
CONTINUOUS
 62
    4
 10
127.27508
 20
23.944617
 11
131.20836
 21
20.011333
  0
LINE
  8
_0-1_
  6
CONTINUOUS
 62
    4
 10
131.81724
 20
19.402456
 11
134.78779
 21
16.431903
  0
LINE
  8
_0-1_
  6
CONTINUOUS
 62
    4
 10
127.39226
 20
24.110276
 11
131.31189
 21
20.190648
  0
LINE
  8
_0-1_
  6
CONTINUOUS
 62
    4
 10
132.10008
 20
19.402456
 11
134.39833
 21
17.104211
  0
LINE
  8
_0-1_
  6
CONTINUOUS
 62
    4
 10
127.52536
 20
24.260016
 11
131.41542
 21
20.369963
  0
LINE
  8
_0-1_
  6
CONTINUOUS
 62
    4
 10
132.38292
 20
19.402456
 11
134.00886
 21
17.776518
  0
LINE
  8
_0-1_
  6
CONTINUOUS
 62
    4
 10
127.65847
 20
24.409756
 11
131.51894
 21
20.549278
  0
LINE
  8
_0-1_
  6
CONTINUOUS
 62
    4
 10
132.66577
 20
19.402456
 11
133.6194
 21
18.448825
  0
LINE
  8
_0-1_
  6
CONTINUOUS
 62
    4
 10
127.79741
 20
24.553659
 11
131.62247
 21
20.728593
  0
LINE
  8
_0-1_
  6
CONTINUOUS
 62
    4
 10
132.94861
 20
19.402456
 11
133.22993
 21
19.121132
  0
LINE
  8
_0-1_
  6
CONTINUOUS
 62
    4
 10
127.91312
 20
24.720793
 11
131.726
 21
20.907908
  0
LINE
  8
_0-1_
  6
CONTINUOUS
 62
    4
 10
128.06237
 20
24.854383
 11
131.82953
 21
21.087223
  0
LINE
  8
_0-1_
  6
CONTINUOUS
 62
    4
 10
128.31194
 20
24.887659
 11
131.93306
 21
21.266539
  0
LINE
  8
_0-1_
  6
CONTINUOUS
 62
    4
 10
128.55095
 20
24.931485
 11
131.58281
 21
21.899627
  0
LINE
  8
_0-1_
  6
CONTINUOUS
 62
    4
 10
128.78817
 20
24.977104
 11
131.1554
 21
22.609876
  0
LINE
  8
_0-1_
  6
CONTINUOUS
 62
    4
 10
129.04922
 20
24.998905
 11
130.728
 21
23.320126
  0
LINE
  8
_0-1_
  6
CONTINUOUS
 62
    4
 10
129.4262
 20
24.904765
 11
130.22694
 21
24.104022
  0
LINE
  8
_0-1_
  6
CONTINUOUS
 62
    7
 10
136.18781
 20
22.460123
 11
136.18781
 21
25.384147
  0
LINE
  8
_0-1_
  6
CONTINUOUS
 62
    7
 10
135.98781
 20
22.502007
 11
135.98781
 21
25.342263
  0
LINE
  8
_0-1_
  6
CONTINUOUS
 62
    7
 10
135.78781
 20
22.574527
 11
135.78781
 21
25.269743
  0
LINE
  8
_0-1_
  6
CONTINUOUS
 62
    7
 10
135.58781
 20
22.68305
 11
135.58781
 21
25.161221
  0
LINE
  8
_0-1_
  6
CONTINUOUS
 62
    7
 10
135.38781
 20
22.838337
 11
135.38781
 21
25.005933
  0
LINE
  8
_0-1_
  6
CONTINUOUS
 62
    7
 10
135.18781
 20
23.065454
 11
135.18781
 21
24.778816
  0
LINE
  8
_0-1_
  6
CONTINUOUS
 62
    7
 10
134.98781
 20
23.460413
 11
134.98781
 21
24.383858
  0
TEXT
  8
_0-1_
 62
    3
 10
196.77357
 20
17.95337
 40
6
 41
1
 50
0
  1
アドヴァン
  0
TEXT
  8
_0-1_
 62
    7
 10
172.27357
 20
13.93838
 40
3
 41
1
 50
0
  1
TEL 03-3475-0281　　FAX 03-3475-0429
  0
TEXT
  8
_0-1_
 62
    3
 10
173.27357
 20
18.45337
 40
5
 41
1
 50
0
  1
株式会社
  0
LINE
  8
_0-1_
  6
CONTINUOUS
 62
    2
 10
306.75121
 20
19.338966
 11
241.75121
 21
19.338966
  0
LINE
  8
_0-1_
  6
CONTINUOUS
 62
    2
 10
281.75121
 20
19.338966
 11
281.75121
 21
10.338966
  0
LINE
  8
_0-1_
  6
CONTINUOUS
 62
    2
 10
296.75121
 20
19.338966
 11
296.75121
 21
10.338966
  0
LINE
  8
_0-1_
  6
CONTINUOUS
 62
    2
 10
306.75121
 20
16.338966
 11
281.75121
 21
16.338966
  0
LINE
  8
ADD_LINE
  6
DOT
 62
    7
 10
289.25121
 20
19.338966
 11
289.25121
 21
10.338966
  0
TEXT
  8
_0-0_
 62
    4
 10
286.12621
 20
16.588966
 40
2.5
 41
1
 50
0
  1
SCALE
  0
TEXT
  8
_0-0_
 62
    4
 10
298.62621
 20
16.588966
 40
2.5
 41
1
 50
0
  1
DRAWN
  0
TEXT
  8
_0-0_
 62
    7
 10
298.37621
 20
11.838966
 40
3
 41
1
 50
0
  1
K・S
  0
LINE
  8
ADD_LINE
  6
DOT
 62
    7
 10
281.75121
 20
17.838966
 11
306.75121
 21
17.838966
  0
LINE
  8
ADD_LINE
  6
DOT
 62
    7
 10
281.75121
 20
13.338966
 11
306.75121
 21
13.338966
  0
LINE
  8
ADD_LINE
  6
DOT
 62
    7
 10
301.75121
 20
19.338966
 11
301.75121
 21
10.338966
  0
LINE
  8
ADD_LINE
  6
DOT
 62
    7
 10
306.75121
 20
26.088966
 11
241.75121
 21
26.088966
  0
LINE
  8
ADD_LINE
  6
DOT
 62
    7
 10
306.75121
 20
23.838966
 11
241.75121
 21
23.838966
  0
LINE
  8
ADD_LINE
  6
DOT
 62
    7
 10
306.75121
 20
21.588966
 11
241.75121
 21
21.588966
  0
LINE
  8
ADD_LINE
  6
DOT
 62
    7
 10
281.75121
 20
12.588966
 11
241.75121
 21
12.588966
  0
LINE
  8
ADD_LINE
  6
DOT
 62
    7
 10
281.75121
 20
14.838966
 11
241.75121
 21
14.838966
  0
LINE
  8
ADD_LINE
  6
DOT
 62
    7
 10
281.75121
 20
17.088966
 11
241.75121
 21
17.088966
  0
LINE
  8
ADD_LINE
  6
DOT
 62
    7
 10
242.75121
 20
28.338966
 11
242.75121
 21
10.338966
  0
LINE
  8
ADD_LINE
  6
DOT
 62
    7
 10
274.25121
 20
28.338966
 11
274.25121
 21
19.338966
  0
TEXT
  8
_0-0_
 62
    7
 10
285.00121
 20
11.838966
 40
3
 41
1
 50
0
  1
S=1/1
  0
LINE
  8
_0-0_
  6
CONTINUOUS
 62
    7
 10
239.80142
 20
171.07886
 11
231.18662
 21
171.07886
  0
LINE
  8
_0-0_
  6
CONTINUOUS
 62
    7
 10
231.1656
 20
166.12585
 11
239.80142
 21
166.12585
  0
LINE
  8
_0-0_
  6
CONTINUOUS
 62
    7
 10
239.80142
 20
166.12585
 11
239.80142
 21
171.07886
  0
LINE
  8
_0-0_
  6
CONTINUOUS
 62
    7
 10
231.86392
 20
166.12585
 11
231.86392
 21
171.07886
  0
LINE
  8
_0-0_
  6
CONTINUOUS
 62
    7
 10
181.23325
 20
171.07886
 11
189.86924
 21
171.07886
  0
LINE
  8
_0-0_
  6
CONTINUOUS
 62
    7
 10
189.86924
 20
166.12585
 11
181.23325
 21
166.12585
  0
LINE
  8
_0-0_
  6
CONTINUOUS
 62
    7
 10
181.23325
 20
166.12585
 11
181.23325
 21
171.07886
  0
LINE
  8
_0-0_
  6
CONTINUOUS
 62
    7
 10
237.24034
 20
166.12585
 11
232.28732
 21
171.07886
  0
LINE
  8
_0-0_
  6
CONTINUOUS
 62
    7
 10
231.86392
 20
168.6871
 11
234.44637
 21
166.12585
  0
LINE
  8
_0-0_
  6
CONTINUOUS
 62
    7
 10
239.80142
 20
166.35874
 11
235.0813
 21
171.07886
  0
LINE
  8
_0-0_
  6
CONTINUOUS
 62
    7
 10
237.89663
 20
171.07886
 11
239.80142
 21
169.1739
  0
LINE
  8
_0-0_
  6
CONTINUOUS
 62
    7
 10
239.80142
 20
168.07319
 11
237.85425
 21
166.12585
  0
LINE
  8
_0-0_
  6
CONTINUOUS
 62
    7
 10
235.03892
 20
166.12585
 11
239.80142
 21
170.88835
  0
LINE
  8
_0-0_
  6
CONTINUOUS
 62
    7
 10
237.19796
 20
171.07886
 11
232.22393
 21
166.12585
  0
LINE
  8
_0-0_
  6
CONTINUOUS
 62
    7
 10
231.86392
 20
168.55998
 11
234.38298
 21
171.07886
  0
LINE
  8
_0-0_
  6
CONTINUOUS
 62
    7
 10
241.05027
 20
155.26742
 11
231.1656
 21
155.26742
  0
LINE
  8
_0-0_
  6
CONTINUOUS
 62
    7
 10
241.05027
 20
155.26742
 11
241.05027
 21
152.79092
  0
LINE
  8
_0-0_
  6
CONTINUOUS
 62
    7
 10
240.30957
 20
152.79092
 11
241.05027
 21
152.79092
  0
LINE
  8
_0-0_
  6
CONTINUOUS
 62
    7
 10
236.33014
 20
150.8012
 11
231.1656
 21
150.8012
  0
LINE
  8
_0-0_
  6
CONTINUOUS
 62
    7
 10
231.61002
 20
155.26742
 11
231.61002
 21
152.79092
  0
LINE
  8
_0-0_
  6
CONTINUOUS
 62
    7
 10
240.30957
 20
152.79092
 11
239.73803
 21
152.15581
  0
LINE
  8
_0-0_
  6
CONTINUOUS
 62
    7
 10
239.73803
 20
152.15581
 11
239.1031
 21
151.64783
  0
LINE
  8
_0-0_
  6
CONTINUOUS
 62
    7
 10
239.1031
 20
151.64783
 11
238.36206
 21
151.24562
  0
LINE
  8
_0-0_
  6
CONTINUOUS
 62
    7
 10
238.36206
 20
151.24562
 11
237.57899
 21
150.97053
  0
LINE
  8
_0-0_
  6
CONTINUOUS
 62
    7
 10
237.57899
 20
150.97053
 11
236.75355
 21
150.82239
  0
LINE
  8
_0-0_
  6
CONTINUOUS
 62
    7
 10
236.75355
 20
150.82239
 11
235.90674
 21
150.82239
  0
LINE
  8
_0-0_
  6
CONTINUOUS
 62
    7
 10
235.90674
 20
150.82239
 11
235.0813
 21
150.97053
  0
LINE
  8
_0-0_
  6
CONTINUOUS
 62
    7
 10
235.0813
 20
150.97053
 11
234.29823
 21
151.24562
  0
LINE
  8
_0-0_
  6
CONTINUOUS
 62
    7
 10
234.29823
 20
151.24562
 11
233.57855
 21
151.64783
  0
LINE
  8
_0-0_
  6
CONTINUOUS
 62
    7
 10
233.57855
 20
151.64783
 11
232.92226
 21
152.15581
  0
LINE
  8
_0-0_
  6
CONTINUOUS
 62
    7
 10
232.92226
 20
152.15581
 11
232.35071
 21
152.79092
  0
LINE
  8
_0-0_
  6
CONTINUOUS
 62
    7
 10
231.1656
 20
152.79092
 11
232.35071
 21
152.79092
  0
LINE
  8
_0-0_
  6
CONTINUOUS
 62
    7
 10
189.86924
 20
152.79092
 11
178.50284
 21
152.79092
  0
LINE
  8
_0-0_
  6
CONTINUOUS
 62
    7
 10
178.50284
 20
155.26742
 11
178.50284
 21
152.79092
  0
LINE
  8
_0-0_
  6
CONTINUOUS
 62
    7
 10
178.50284
 20
155.26742
 11
189.86924
 21
155.26742
  0
LINE
  8
_0-0_
  6
CONTINUOUS
 62
    7
 10
179.24371
 20
152.79092
 11
179.75168
 21
152.21938
  0
LINE
  8
_0-0_
  6
CONTINUOUS
 62
    7
 10
179.75168
 20
152.21938
 11
180.34424
 21
151.73258
  0
LINE
  8
_0-0_
  6
CONTINUOUS
 62
    7
 10
180.34424
 20
151.73258
 11
181.00053
 21
151.33037
  0
LINE
  8
_0-0_
  6
CONTINUOUS
 62
    7
 10
181.00053
 20
151.33037
 11
181.72021
 21
151.03409
  0
LINE
  8
_0-0_
  6
CONTINUOUS
 62
    7
 10
181.72021
 20
151.03409
 11
182.46091
 21
150.86459
  0
LINE
  8
_0-0_
  6
CONTINUOUS
 62
    7
 10
182.46091
 20
150.86459
 11
183.22296
 21
150.8012
  0
LINE
  8
_0-0_
  6
CONTINUOUS
 62
    7
 10
183.22296
 20
150.8012
 11
189.86924
 21
150.8012
  0
LINE
  8
_0-0_
  6
CONTINUOUS
 62
    7
 10
239.25124
 20
151.7536
 11
235.73759
 21
155.26742
  0
LINE
  8
_0-0_
  6
CONTINUOUS
 62
    7
 10
234.3406
 20
155.26742
 11
238.36206
 21
151.24562
  0
LINE
  8
_0-0_
  6
CONTINUOUS
 62
    7
 10
237.30373
 20
150.90697
 11
232.94361
 21
155.26742
  0
LINE
  8
_0-0_
  6
CONTINUOUS
 62
    7
 10
231.61002
 20
155.18267
 11
235.99149
 21
150.82239
  0
LINE
  8
_0-0_
  6
CONTINUOUS
 62
    7
 10
234.02296
 20
151.37274
 11
231.61002
 21
153.78569
  0
LINE
  8
_0-0_
  6
CONTINUOUS
 62
    7
 10
237.15559
 20
155.26742
 11
239.99194
 21
152.43108
  0
LINE
  8
_0-0_
  6
CONTINUOUS
 62
    7
 10
241.02925
 20
152.79092
 11
238.55257
 21
155.26742
  0
LINE
  8
_0-0_
  6
CONTINUOUS
 62
    7
 10
239.94956
 20
155.26742
 11
241.05027
 21
154.1879
  0
LINE
  8
_0-0_
  6
CONTINUOUS
 62
    7
 10
241.05027
 20
152.85431
 11
240.98688
 21
152.79092
  0
LINE
  8
_0-0_
  6
CONTINUOUS
 62
    7
 10
237.81188
 20
151.03409
 11
241.05027
 21
154.25129
  0
LINE
  8
_0-0_
  6
CONTINUOUS
 62
    7
 10
240.64823
 20
155.26742
 11
236.182
 21
150.8012
  0
LINE
  8
_0-0_
  6
CONTINUOUS
 62
    7
 10
234.97553
 20
150.99172
 11
239.25124
 21
155.26742
  0
LINE
  8
_0-0_
  6
CONTINUOUS
 62
    7
 10
237.85425
 20
155.26742
 11
233.98059
 21
151.39376
  0
LINE
  8
_0-0_
  6
CONTINUOUS
 62
    7
 10
233.13413
 20
151.9653
 11
236.43591
 21
155.26742
  0
LINE
  8
_0-0_
  6
CONTINUOUS
 62
    7
 10
235.03892
 20
155.26742
 11
232.45648
 21
152.68498
  0
LINE
  8
_0-0_
  6
CONTINUOUS
 62
    7
 10
231.61002
 20
153.25652
 11
233.64194
 21
155.26742
  0
LINE
  8
_0-0_
  6
CONTINUOUS
 62
    7
 10
232.22393
 20
155.26742
 11
231.61002
 21
154.65351
  0
LINE
  8
_0-0_
  6
CONTINUOUS
 62
    7
 10
179.24371
 20
152.79092
 11
178.50284
 21
152.79092
  0
LINE
  8
_0-0_
  6
CONTINUOUS
 62
    7
 10
232.35071
 20
152.79092
 11
231.61002
 21
152.79092
  0
LINE
  8
_0-0_
  6
CONTINUOUS
 62
    7
 10
210.52793
 20
160.89774
 11
228.87944
 21
160.89774
  0
LINE
  8
_0-0_
  6
CONTINUOUS
 62
    7
 10
210.52793
 20
158.42124
 11
227.86348
 21
158.42124
  0
LINE
  8
_0-0_
  6
CONTINUOUS
 62
    7
 10
210.52793
 20
157.93427
 11
227.86348
 21
157.93427
  0
LINE
  8
_0-0_
  6
CONTINUOUS
 62
    7
 10
214.29566
 20
157.93427
 11
214.29566
 21
158.42124
  0
LINE
  8
_0-0_
  6
CONTINUOUS
 62
    7
 10
218.55001
 20
157.93427
 11
218.55001
 21
158.42124
  0
LINE
  8
_0-0_
  6
CONTINUOUS
 62
    7
 10
226.10648
 20
157.93427
 11
226.10648
 21
158.42124
  0
LINE
  8
_0-0_
  6
CONTINUOUS
 62
    7
 10
228.87944
 20
158.9504
 11
228.81605
 21
158.56938
  0
LINE
  8
_0-0_
  6
CONTINUOUS
 62
    7
 10
228.81605
 20
158.56938
 11
228.58316
 21
158.23072
  0
LINE
  8
_0-0_
  6
CONTINUOUS
 62
    7
 10
228.58316
 20
158.23072
 11
228.2445
 21
157.99783
  0
LINE
  8
_0-0_
  6
CONTINUOUS
 62
    7
 10
228.2445
 20
157.99783
 11
227.86348
 21
157.93427
  0
LINE
  8
_0-0_
  6
CONTINUOUS
 62
    7
 10
228.39264
 20
158.9504
 11
228.32925
 21
158.69633
  0
LINE
  8
_0-0_
  6
CONTINUOUS
 62
    7
 10
228.32925
 20
158.69633
 11
228.11738
 21
158.48463
  0
LINE
  8
_0-0_
  6
CONTINUOUS
 62
    7
 10
228.11738
 20
158.48463
 11
227.86348
 21
158.42124
  0
LINE
  8
_0-0_
  6
CONTINUOUS
 62
    7
 10
228.39264
 20
158.9504
 11
228.39264
 21
160.89774
  0
LINE
  8
_0-0_
  6
CONTINUOUS
 62
    7
 10
227.48245
 20
157.93427
 11
226.99566
 21
158.42124
  0
LINE
  8
_0-0_
  6
CONTINUOUS
 62
    7
 10
226.29699
 20
158.42124
 11
226.78413
 21
157.93427
  0
LINE
  8
_0-0_
  6
CONTINUOUS
 62
    7
 10
228.58316
 20
158.23072
 11
228.2445
 21
158.59056
  0
LINE
  8
_0-0_
  6
CONTINUOUS
 62
    7
 10
228.39264
 20
159.14074
 11
228.85842
 21
158.67514
  0
LINE
  8
_0-0_
  6
CONTINUOUS
 62
    7
 10
228.87944
 20
160.05094
 11
228.39264
 21
160.5379
  0
LINE
  8
_0-0_
  6
CONTINUOUS
 62
    7
 10
228.7313
 20
160.89774
 11
228.87944
 21
160.7496
  0
LINE
  8
_0-0_
  6
CONTINUOUS
 62
    7
 10
217.66117
 20
157.93427
 11
217.17438
 21
158.42124
  0
LINE
  8
_0-0_
  6
CONTINUOUS
 62
    7
 10
216.4547
 20
158.42124
 11
216.96251
 21
157.93427
  0
LINE
  8
_0-0_
  6
CONTINUOUS
 62
    7
 10
215.56552
 20
157.93427
 11
215.05771
 21
158.42124
  0
LINE
  8
_0-0_
  6
CONTINUOUS
 62
    7
 10
214.35905
 20
158.42124
 11
214.84584
 21
157.93427
  0
LINE
  8
_0-0_
  6
CONTINUOUS
 62
    7
 10
228.87944
 20
160.89774
 11
228.87944
 21
158.9504
  0
LINE
  8
_0-0_
  6
CONTINUOUS
 62
    7
 10
210.52793
 20
160.89774
 11
210.52793
 21
157.93427
  0
LINE
  8
_0-0_
  6
CONTINUOUS
 62
    7
 10
186.20745
 20
132.87292
 11
186.20745
 21
123.05165
  0
LINE
  8
_0-0_
  6
CONTINUOUS
 62
    7
 10
234.84841
 20
132.87292
 11
234.84841
 21
123.05165
  0
LINE
  8
_0-0_
  6
CONTINUOUS
 62
    7
 10
210.52793
 20
126.33258
 11
210.52793
 21
119.34748
  0
LINE
  8
_0-0_
  6
CONTINUOUS
 62
    7
 10
210.52793
 20
118.33152
 11
210.52793
 21
117.33658
  0
LINE
  8
_0-0_
  6
CONTINUOUS
 62
    7
 10
210.52793
 20
116.32062
 11
210.52793
 21
110.88081
  0
LINE
  8
_0-0_
  6
CONTINUOUS
 62
    7
 10
241.76995
 20
145.55191
 11
241.79131
 21
148.32469
  0
LINE
  8
_0-0_
  6
CONTINUOUS
 62
    7
 10
231.1656
 20
148.32469
 11
241.79131
 21
148.32469
  0
LINE
  8
_0-0_
  6
CONTINUOUS
 62
    7
 10
241.05027
 20
148.32469
 11
241.79131
 21
148.32469
  0
LINE
  8
_0-0_
  6
CONTINUOUS
 62
    7
 10
240.58449
 20
148.32469
 11
239.92855
 21
147.75315
  0
LINE
  8
_0-0_
  6
CONTINUOUS
 62
    7
 10
239.92855
 20
147.75315
 11
239.16649
 21
147.30874
  0
LINE
  8
_0-0_
  6
CONTINUOUS
 62
    7
 10
239.16649
 20
147.30874
 11
238.34105
 21
147.01229
  0
LINE
  8
_0-0_
  6
CONTINUOUS
 62
    7
 10
238.34105
 20
147.01229
 11
237.47323
 21
146.84296
  0
LINE
  8
_0-0_
  6
CONTINUOUS
 62
    7
 10
237.47323
 20
146.84296
 11
236.60541
 21
146.84296
  0
LINE
  8
_0-0_
  6
CONTINUOUS
 62
    7
 10
236.60541
 20
146.84296
 11
235.73759
 21
147.01229
  0
LINE
  8
_0-0_
  6
CONTINUOUS
 62
    7
 10
235.73759
 20
147.01229
 11
234.91214
 21
147.30874
  0
LINE
  8
_0-0_
  6
CONTINUOUS
 62
    7
 10
234.91214
 20
147.30874
 11
234.1711
 21
147.75315
  0
LINE
  8
_0-0_
  6
CONTINUOUS
 62
    7
 10
234.1711
 20
147.75315
 11
233.4938
 21
148.32469
  0
LINE
  8
_0-0_
  6
CONTINUOUS
 62
    7
 10
235.63148
 20
145.04376
 11
241.26214
 21
145.04376
  0
LINE
  8
_0-0_
  6
CONTINUOUS
 62
    7
 10
230.38219
 20
146.39854
 11
232.11783
 21
148.32469
  0
LINE
  8
_0-0_
  6
CONTINUOUS
 62
    7
 10
234.84841
 20
122.71299
 11
231.33476
 21
122.71299
  0
LINE
  8
_0-0_
  6
CONTINUOUS
 62
    7
 10
227.65195
 20
112.78595
 11
227.65195
 21
119.94004
  0
LINE
  8
_0-0_
  6
CONTINUOUS
 62
    7
 10
218.21135
 20
112.78595
 11
202.82332
 21
122.71299
  0
LINE
  8
_0-0_
  6
CONTINUOUS
 62
    7
 10
214.63431
 20
120.40581
 11
202.82332
 21
112.78595
  0
LINE
  8
_0-0_
  6
CONTINUOUS
 62
    7
 10
218.21135
 20
116.49012
 11
218.21135
 21
112.78595
  0
LINE
  8
_0-0_
  6
CONTINUOUS
 62
    7
 10
219.48156
 20
112.78595
 11
219.22731
 21
113.95005
  0
LINE
  8
_0-0_
  6
CONTINUOUS
 62
    7
 10
219.22731
 20
113.95005
 11
218.84663
 21
115.09313
  0
LINE
  8
_0-0_
  6
CONTINUOUS
 62
    7
 10
218.84663
 20
115.09313
 11
218.38085
 21
116.19384
  0
LINE
  8
_0-0_
  6
CONTINUOUS
 62
    7
 10
218.38085
 20
116.19384
 11
217.76694
 21
117.2098
  0
LINE
  8
_0-0_
  6
CONTINUOUS
 62
    7
 10
217.76694
 20
117.2098
 11
217.04726
 21
118.11999
  0
LINE
  8
_0-0_
  6
CONTINUOUS
 62
    7
 10
217.04726
 20
118.11999
 11
216.24283
 21
118.96645
  0
LINE
  8
_0-0_
  6
CONTINUOUS
 62
    7
 10
216.24283
 20
118.96645
 11
215.37501
 21
119.74952
  0
LINE
  8
_0-0_
  6
CONTINUOUS
 62
    7
 10
215.37501
 20
119.74952
 11
214.48617
 21
120.53294
  0
LINE
  8
_0-0_
  6
CONTINUOUS
 62
    7
 10
214.48617
 20
120.53294
 11
213.66073
 21
121.35838
  0
LINE
  8
_0-0_
  6
CONTINUOUS
 62
    7
 10
213.66073
 20
121.35838
 11
212.87731
 21
122.24722
  0
LINE
  8
_0-0_
  6
CONTINUOUS
 62
    7
 10
212.87731
 20
122.24722
 11
212.20001
 21
123.19979
  0
LINE
  8
_0-0_
  6
CONTINUOUS
 62
    7
 10
212.20001
 20
123.19979
 11
211.56507
 21
124.19473
  0
LINE
  8
_0-0_
  6
CONTINUOUS
 62
    7
 10
211.56507
 20
124.19473
 11
211.01489
 21
125.25306
  0
LINE
  8
_0-0_
  6
CONTINUOUS
 62
    7
 10
211.01489
 20
125.25306
 11
210.52793
 21
126.33258
  0
LINE
  8
_0-0_
  6
CONTINUOUS
 62
    7
 10
210.52793
 20
148.32469
 11
210.52793
 21
126.33258
  0
LINE
  8
_0-0_
  6
CONTINUOUS
 62
    7
 10
234.84841
 20
122.71299
 11
234.84841
 21
144.26069
  0
LINE
  8
_0-0_
  6
CONTINUOUS
 62
    7
 10
210.52793
 20
148.32469
 11
179.24371
 21
148.32469
  0
LINE
  8
_0-0_
  6
CONTINUOUS
 62
    7
 10
179.28591
 20
145.55191
 11
179.24371
 21
148.32469
  0
LINE
  8
_0-0_
  6
CONTINUOUS
 62
    7
 10
210.52793
 20
145.04376
 11
179.77287
 21
145.04376
  0
LINE
  8
_0-0_
  6
CONTINUOUS
 62
    7
 10
186.20745
 20
122.71299
 11
212.53866
 21
122.71299
  0
LINE
  8
_0-0_
  6
CONTINUOUS
 62
    7
 10
202.82332
 20
122.71299
 11
202.82332
 21
112.78595
  0
LINE
  8
_0-0_
  6
CONTINUOUS
 62
    7
 10
179.28591
 20
145.55191
 11
210.52793
 21
145.55191
  0
LINE
  8
_0-0_
  6
CONTINUOUS
 62
    7
 10
187.20239
 20
144.07017
 11
210.52793
 21
144.07017
  0
LINE
  8
_0-0_
  6
CONTINUOUS
 62
    7
 10
189.9328
 20
113.78055
 11
189.9328
 21
119.24172
  0
LINE
  8
_0-0_
  6
CONTINUOUS
 62
    7
 10
186.20745
 20
122.71299
 11
186.20745
 21
144.26069
  0
LINE
  8
_0-0_
  6
CONTINUOUS
 62
    7
 10
230.12828
 20
112.78595
 11
231.12323
 21
113.78055
  0
LINE
  8
_0-0_
  6
CONTINUOUS
 62
    7
 10
190.92757
 20
112.78595
 11
189.9328
 21
113.78055
  0
LINE
  8
_0-0_
  6
CONTINUOUS
 62
    7
 10
190.92757
 20
112.78595
 11
230.12828
 21
112.78595
  0
LINE
  8
_0-0_
  6
CONTINUOUS
 62
    7
 10
231.22899
 20
136.40776
 11
231.22899
 21
147.43569
  0
LINE
  8
_0-0_
  6
CONTINUOUS
 62
    7
 10
202.82332
 20
113.78055
 11
189.9328
 21
113.78055
  0
LINE
  8
_0-0_
  6
CONTINUOUS
 62
    7
 10
219.26969
 20
113.78055
 11
218.21135
 21
113.78055
  0
LINE
  8
_0-0_
  6
CONTINUOUS
 62
    7
 10
185.40319
 20
145.04376
 11
185.69947
 21
144.98037
  0
LINE
  8
_0-0_
  6
CONTINUOUS
 62
    7
 10
185.69947
 20
144.98037
 11
185.97456
 21
144.81104
  0
LINE
  8
_0-0_
  6
CONTINUOUS
 62
    7
 10
185.97456
 20
144.81104
 11
186.14406
 21
144.55697
  0
LINE
  8
_0-0_
  6
CONTINUOUS
 62
    7
 10
186.14406
 20
144.55697
 11
186.20745
 21
144.26069
  0
LINE
  8
_0-0_
  6
CONTINUOUS
 62
    7
 10
234.84841
 20
144.26069
 11
234.91214
 21
144.55697
  0
LINE
  8
_0-0_
  6
CONTINUOUS
 62
    7
 10
234.91214
 20
144.55697
 11
235.0813
 21
144.81104
  0
LINE
  8
_0-0_
  6
CONTINUOUS
 62
    7
 10
235.0813
 20
144.81104
 11
235.3352
 21
144.98037
  0
LINE
  8
_0-0_
  6
CONTINUOUS
 62
    7
 10
235.3352
 20
144.98037
 11
235.63148
 21
145.04376
  0
LINE
  8
_0-0_
  6
CONTINUOUS
 62
    7
 10
190.92757
 20
112.78595
 11
190.92757
 21
119.24172
  0
LINE
  8
_0-0_
  6
CONTINUOUS
 62
    7
 10
230.38219
 20
123.89828
 11
228.51977
 21
122.0567
  0
LINE
  8
_0-0_
  6
CONTINUOUS
 62
    7
 10
230.61507
 20
123.89828
 11
211.75559
 21
123.89828
  0
LINE
  8
_0-0_
  6
CONTINUOUS
 62
    7
 10
179.28591
 20
145.55191
 11
179.77287
 21
145.04376
  0
LINE
  8
_0-0_
  6
CONTINUOUS
 62
    7
 10
241.76995
 20
145.55191
 11
241.26214
 21
145.04376
  0
LINE
  8
_0-0_
  6
CONTINUOUS
 62
    7
 10
230.38219
 20
136.40776
 11
230.38219
 21
146.39854
  0
LINE
  8
_0-0_
  6
CONTINUOUS
 62
    7
 10
189.69991
 20
122.71299
 11
190.92757
 21
121.48551
  0
LINE
  8
_0-0_
  6
CONTINUOUS
 62
    7
 10
231.61002
 20
136.40776
 11
230.38219
 21
136.40776
  0
LINE
  8
_0-0_
  6
CONTINUOUS
 62
    7
 10
231.61002
 20
124.89322
 11
231.61002
 21
136.40776
  0
LINE
  8
_0-0_
  6
CONTINUOUS
 62
    7
 10
227.65195
 20
119.94004
 11
227.71534
 21
120.53294
  0
LINE
  8
_0-0_
  6
CONTINUOUS
 62
    7
 10
227.71534
 20
120.53294
 11
227.88449
 21
121.08312
  0
LINE
  8
_0-0_
  6
CONTINUOUS
 62
    7
 10
227.88449
 20
121.08312
 11
228.15976
 21
121.59127
  0
LINE
  8
_0-0_
  6
CONTINUOUS
 62
    7
 10
228.15976
 20
121.59127
 11
228.51977
 21
122.0567
  0
LINE
  8
_0-0_
  6
CONTINUOUS
 62
    7
 10
227.16481
 20
119.94004
 11
215.16348
 21
119.94004
  0
LINE
  8
_0-0_
  6
CONTINUOUS
 62
    7
 10
228.03298
 20
122.0567
 11
213.04681
 21
122.0567
  0
LINE
  8
_0-0_
  6
CONTINUOUS
 62
    7
 10
231.61002
 20
124.89322
 11
231.54663
 21
124.51219
  0
LINE
  8
_0-0_
  6
CONTINUOUS
 62
    7
 10
231.54663
 20
124.51219
 11
231.33476
 21
124.19473
  0
LINE
  8
_0-0_
  6
CONTINUOUS
 62
    7
 10
231.33476
 20
124.19473
 11
230.9961
 21
123.98303
  0
LINE
  8
_0-0_
  6
CONTINUOUS
 62
    7
 10
230.9961
 20
123.98303
 11
230.61507
 21
123.89828
  0
LINE
  8
_0-0_
  6
CONTINUOUS
 62
    7
 10
202.82332
 20
119.24172
 11
189.9328
 21
119.24172
  0
LINE
  8
_0-0_
  6
CONTINUOUS
 62
    7
 10
190.92757
 20
119.24172
 11
190.92757
 21
121.48551
  0
LINE
  8
_0-0_
  6
CONTINUOUS
 62
    7
 10
231.33476
 20
122.71299
 11
230.10727
 21
121.48551
  0
LINE
  8
_0-0_
  6
CONTINUOUS
 62
    7
 10
230.10727
 20
119.24172
 11
230.10727
 21
121.48551
  0
LINE
  8
_0-0_
  6
CONTINUOUS
 62
    7
 10
231.12323
 20
113.78055
 11
231.12323
 21
119.24172
  0
LINE
  8
_0-0_
  6
CONTINUOUS
 62
    7
 10
230.10727
 20
112.78595
 11
230.10727
 21
119.24172
  0
LINE
  8
_0-0_
  6
CONTINUOUS
 62
    7
 10
230.10727
 20
112.78595
 11
231.12323
 21
113.78055
  0
LINE
  8
_0-0_
  6
CONTINUOUS
 62
    7
 10
230.10727
 20
119.24172
 11
231.12323
 21
119.24172
  0
LINE
  8
_0-0_
  6
CONTINUOUS
 62
    7
 10
231.27137
 20
122.62824
 11
230.19167
 21
123.70776
  0
LINE
  8
_0-0_
  6
CONTINUOUS
 62
    7
 10
229.13334
 20
122.67062
 11
230.21303
 21
121.59127
  0
LINE
  8
_0-0_
  6
CONTINUOUS
 62
    7
 10
231.12323
 20
118.58542
 11
230.46694
 21
119.24172
  0
LINE
  8
_0-0_
  6
CONTINUOUS
 62
    7
 10
230.10727
 20
119.58037
 11
228.13874
 21
121.56991
  0
LINE
  8
_0-0_
  6
CONTINUOUS
 62
    7
 10
227.65195
 20
119.94004
 11
230.10727
 21
117.4637
  0
LINE
  8
_0-0_
  6
CONTINUOUS
 62
    7
 10
230.10727
 20
117.4637
 11
231.12323
 21
116.46876
  0
LINE
  8
_0-0_
  6
CONTINUOUS
 62
    7
 10
231.12323
 20
114.37345
 11
230.10727
 21
115.36805
  0
LINE
  8
_0-0_
  6
CONTINUOUS
 62
    7
 10
230.10727
 20
115.36805
 11
227.65195
 21
117.82337
  0
LINE
  8
_0-0_
  6
CONTINUOUS
 62
    7
 10
227.65195
 20
115.72806
 11
230.10727
 21
113.25138
  0
LINE
  8
_0-0_
  6
CONTINUOUS
 62
    7
 10
230.10727
 20
113.25138
 11
230.36117
 21
113.01884
  0
LINE
  8
_0-0_
  6
CONTINUOUS
 62
    7
 10
228.47739
 20
112.78595
 11
227.65195
 21
113.6114
  0
LINE
  8
_0-0_
  6
CONTINUOUS
 62
    7
 10
231.52527
 20
124.49101
 11
233.30328
 21
122.71299
  0
LINE
  8
_0-0_
  6
CONTINUOUS
 62
    7
 10
234.84841
 20
123.28453
 11
231.61002
 21
126.50191
  0
LINE
  8
_0-0_
  6
CONTINUOUS
 62
    7
 10
231.61002
 20
128.59739
 11
234.84841
 21
125.38001
  0
LINE
  8
_0-0_
  6
CONTINUOUS
 62
    7
 10
234.84841
 20
127.47549
 11
231.61002
 21
130.71406
  0
LINE
  8
_0-0_
  6
CONTINUOUS
 62
    7
 10
231.61002
 20
132.80953
 11
234.84841
 21
129.59216
  0
LINE
  8
_0-0_
  6
CONTINUOUS
 62
    7
 10
234.84841
 20
131.68764
 11
231.61002
 21
134.9262
  0
LINE
  8
_0-0_
  6
CONTINUOUS
 62
    7
 10
230.38219
 20
138.27053
 11
234.84841
 21
133.80431
  0
LINE
  8
_0-0_
  6
CONTINUOUS
 62
    7
 10
234.84841
 20
135.89979
 11
231.22899
 21
139.54056
  0
LINE
  8
_0-0_
  6
CONTINUOUS
 62
    7
 10
231.22899
 20
139.54056
 11
230.38219
 21
140.38719
  0
LINE
  8
_0-0_
  6
CONTINUOUS
 62
    7
 10
230.38219
 20
142.48267
 11
231.22899
 21
141.63604
  0
LINE
  8
_0-0_
  6
CONTINUOUS
 62
    7
 10
231.22899
 20
141.63604
 11
234.84841
 21
138.01645
  0
LINE
  8
_0-0_
  6
CONTINUOUS
 62
    7
 10
234.84841
 20
140.11193
 11
231.22899
 21
143.75271
  0
LINE
  8
_0-0_
  6
CONTINUOUS
 62
    7
 10
231.22899
 20
143.75271
 11
230.38219
 21
144.57815
  0
LINE
  8
_0-0_
  6
CONTINUOUS
 62
    7
 10
230.50931
 20
146.54668
 11
231.22899
 21
145.84819
  0
LINE
  8
_0-0_
  6
CONTINUOUS
 62
    7
 10
231.22899
 20
145.84819
 11
234.84841
 21
142.2286
  0
LINE
  8
_0-0_
  6
CONTINUOUS
 62
    7
 10
234.84841
 20
144.32425
 11
231.52527
 21
147.66858
  0
LINE
  8
_0-0_
  6
CONTINUOUS
 62
    7
 10
232.96463
 20
148.32469
 11
236.24539
 21
145.04376
  0
LINE
  8
_0-0_
  6
CONTINUOUS
 62
    7
 10
238.34105
 20
145.04376
 11
236.52066
 21
146.86415
  0
LINE
  8
_0-0_
  6
CONTINUOUS
 62
    7
 10
238.44681
 20
147.03347
 11
240.43635
 21
145.04376
  0
LINE
  8
_0-0_
  6
CONTINUOUS
 62
    7
 10
241.76995
 20
145.827
 11
239.88617
 21
147.73197
  0
LINE
  8
_0-0_
  6
CONTINUOUS
 62
    7
 10
241.38892
 20
148.32469
 11
241.79131
 21
147.92248
  0
LINE
  8
_0-0_
  6
CONTINUOUS
 62
    7
 10
190.92757
 20
121.48551
 11
202.82332
 21
121.48551
  0
LINE
  8
_0-0_
  6
CONTINUOUS
 62
    7
 10
230.78457
 20
124.89322
 11
211.18422
 21
124.89322
  0
LINE
  8
_0-0_
  6
CONTINUOUS
 62
    7
 10
210.52793
 20
192.56299
 11
210.52793
 21
185.57806
  0
LINE
  8
_0-0_
  6
CONTINUOUS
 62
    7
 10
210.52793
 20
184.5621
 11
210.52793
 21
183.56716
  0
LINE
  8
_0-0_
  6
CONTINUOUS
 62
    7
 10
210.52793
 20
182.5512
 11
210.52793
 21
175.56627
  0
LINE
  8
_0-0_
  6
CONTINUOUS
 62
    7
 10
210.52793
 20
174.55014
 11
210.52793
 21
173.55537
  0
LINE
  8
_0-0_
  6
CONTINUOUS
 62
    7
 10
210.52793
 20
172.53941
 11
210.52793
 21
165.55431
  0
LINE
  8
_0-0_
  6
CONTINUOUS
 62
    7
 10
210.52793
 20
164.53835
 11
210.52793
 21
163.54358
  0
LINE
  8
_0-0_
  6
CONTINUOUS
 62
    7
 10
210.52793
 20
162.52745
 11
210.52793
 21
155.54251
  0
LINE
  8
_0-0_
  6
CONTINUOUS
 62
    7
 10
210.52793
 20
154.52656
 11
210.52793
 21
153.53161
  0
LINE
  8
_0-0_
  6
CONTINUOUS
 62
    7
 10
210.52793
 20
152.51565
 11
210.52793
 21
148.32469
  0
LINE
  8
_0-0_
  6
CONTINUOUS
 62
    7
 10
254.70284
 20
112.78595
 11
230.12828
 21
112.78595
  0
LINE
  8
_0-0_
  6
CONTINUOUS
 62
    7
 10
189.9328
 20
100.99615
 11
189.9328
 21
113.75953
  0
LINE
  8
_0-0_
  6
CONTINUOUS
 62
    7
 10
231.12323
 20
100.99615
 11
231.12323
 21
113.75953
  0
LINE
  8
_0-0_
  6
CONTINUOUS
 62
    7
 10
221.40771
 20
222.81024
 11
237.81188
 21
239.23542
  0
LINE
  8
_0-0_
  6
CONTINUOUS
 62
    7
 10
239.46277
 20
240.8653
 11
241.09264
 21
242.49517
  0
LINE
  8
_0-0_
  6
CONTINUOUS
 62
    7
 10
237.81188
 20
233.60511
 11
231.69477
 21
227.48799
  0
LINE
  8
_0-0_
  6
CONTINUOUS
 62
    7
 10
229.55674
 20
225.35014
 11
224.05355
 21
219.84677
  0
LINE
  8
_0-0_
  6
CONTINUOUS
 62
    7
 10
227.03803
 20
217.20094
 11
229.23945
 21
219.42354
  0
LINE
  8
_0-0_
  6
CONTINUOUS
 62
    7
 10
236.58405
 20
243.59588
 11
214.48617
 21
221.51902
  0
LINE
  8
_0-0_
  6
CONTINUOUS
 62
    7
 10
214.48617
 20
227.12815
 11
231.9063
 21
244.54828
  0
LINE
  8
_0-0_
  6
CONTINUOUS
 62
    7
 10
227.08041
 20
245.33152
 11
214.48617
 21
232.73729
  0
LINE
  8
_0-0_
  6
CONTINUOUS
 62
    7
 10
214.48617
 20
238.36761
 11
222.06366
 21
245.92408
  0
LINE
  8
_0-0_
  6
CONTINUOUS
 62
    7
 10
216.83573
 20
246.32629
 11
213.19495
 21
242.68569
  0
LINE
  8
_0-0_
  6
CONTINUOUS
 62
    7
 10
210.52793
 20
245.6278
 11
211.39592
 21
246.49562
  0
LINE
  8
_0-0_
  6
CONTINUOUS
 62
    7
 10
192.2188
 20
217.20094
 11
191.92252
 21
217.20094
  0
LINE
  8
_0-0_
  6
CONTINUOUS
 62
    7
 10
191.92252
 20
217.20094
 11
191.90133
 21
217.51858
  0
LINE
  8
_0-0_
  6
CONTINUOUS
 62
    7
 10
213.957
 20
219.88915
 11
214.21091
 21
219.59287
  0
LINE
  8
_0-0_
  6
CONTINUOUS
 62
    7
 10
238.06578
 20
241.20395
 11
237.81188
 21
241.20395
  0
LINE
  8
_0-0_
  6
CONTINUOUS
 62
    7
 10
214.21091
 20
219.59287
 11
214.78245
 21
219.59287
  0
LINE
  8
_0-0_
  6
CONTINUOUS
 62
    7
 10
210.52793
 20
219.59287
 11
214.21091
 21
219.59287
  0
LINE
  8
_0-0_
  6
CONTINUOUS
 62
    7
 10
213.957
 20
219.88915
 11
214.48617
 21
219.88915
  0
LINE
  8
_0-0_
  6
CONTINUOUS
 62
    7
 10
210.52793
 20
219.88915
 11
213.957
 21
219.88915
  0
LINE
  8
_0-0_
  6
CONTINUOUS
 62
    7
 10
242.48963
 20
240.03985
 11
237.81188
 21
240.03985
  0
LINE
  8
_0-0_
  6
CONTINUOUS
 62
    7
 10
216.05231
 20
222.81024
 11
215.98892
 21
219.59287
  0
LINE
  8
_0-0_
  6
CONTINUOUS
 62
    7
 10
223.94778
 20
221.8153
 11
222.91046
 21
222.81024
  0
LINE
  8
_0-0_
  6
CONTINUOUS
 62
    7
 10
216.05231
 20
222.81024
 11
222.91046
 21
222.81024
  0
LINE
  8
_0-0_
  6
CONTINUOUS
 62
    7
 10
223.94778
 20
221.8153
 11
224.18033
 21
217.20094
  0
LINE
  8
_0-0_
  6
CONTINUOUS
 62
    7
 10
229.85302
 20
226.98001
 11
237.81188
 21
229.11787
  0
LINE
  8
_0-0_
  6
CONTINUOUS
 62
    7
 10
237.81188
 20
229.11787
 11
237.81188
 21
241.26751
  0
LINE
  8
_0-0_
  6
CONTINUOUS
 62
    7
 10
237.81188
 20
241.26751
 11
238.06578
 21
241.20395
  0
LINE
  8
_0-0_
  6
CONTINUOUS
 62
    7
 10
229.5781
 20
225.66761
 11
229.38759
 21
225.94287
  0
LINE
  8
_0-0_
  6
CONTINUOUS
 62
    7
 10
229.38759
 20
225.94287
 11
229.32385
 21
226.26033
  0
LINE
  8
_0-0_
  6
CONTINUOUS
 62
    7
 10
229.32385
 20
226.26033
 11
229.4086
 21
226.55661
  0
LINE
  8
_0-0_
  6
CONTINUOUS
 62
    7
 10
229.4086
 20
226.55661
 11
229.5781
 21
226.83188
  0
LINE
  8
_0-0_
  6
CONTINUOUS
 62
    7
 10
229.5781
 20
226.83188
 11
229.85302
 21
226.98001
  0
LINE
  8
_0-0_
  6
CONTINUOUS
 62
    7
 10
210.52793
 20
244.23081
 11
214.48617
 21
241.92363
  0
LINE
  8
_0-0_
  6
CONTINUOUS
 62
    7
 10
215.98892
 20
219.59287
 11
214.78245
 21
219.59287
  0
LINE
  8
_0-0_
  6
CONTINUOUS
 62
    7
 10
214.48617
 20
241.92363
 11
214.48617
 21
219.88915
  0
LINE
  8
_0-0_
  6
CONTINUOUS
 62
    7
 10
242.78591
 20
240.25156
 11
242.78591
 21
241.73312
  0
LINE
  8
_0-0_
  6
CONTINUOUS
 62
    7
 10
242.48963
 20
240.03985
 11
240.28821
 21
240.65377
  0
LINE
  8
_0-0_
  6
CONTINUOUS
 62
    7
 10
240.28821
 20
240.65377
 11
238.06578
 21
241.20395
  0
LINE
  8
_0-0_
  6
CONTINUOUS
 62
    7
 10
242.48963
 20
242.11415
 11
238.57393
 21
243.13011
  0
LINE
  8
_0-0_
  6
CONTINUOUS
 62
    7
 10
238.57393
 20
243.13011
 11
234.63688
 21
244.01911
  0
LINE
  8
_0-0_
  6
CONTINUOUS
 62
    7
 10
234.63688
 20
244.01911
 11
230.65745
 21
244.78117
  0
LINE
  8
_0-0_
  6
CONTINUOUS
 62
    7
 10
230.65745
 20
244.78117
 11
226.657
 21
245.39491
  0
LINE
  8
_0-0_
  6
CONTINUOUS
 62
    7
 10
226.657
 20
245.39491
 11
222.6352
 21
245.88188
  0
LINE
  8
_0-0_
  6
CONTINUOUS
 62
    7
 10
222.6352
 20
245.88188
 11
218.61374
 21
246.22053
  0
LINE
  8
_0-0_
  6
CONTINUOUS
 62
    7
 10
218.61374
 20
246.22053
 11
214.57092
 21
246.43223
  0
LINE
  8
_0-0_
  6
CONTINUOUS
 62
    7
 10
214.57092
 20
246.43223
 11
210.52793
 21
246.49562
  0
LINE
  8
_0-0_
  6
CONTINUOUS
 62
    7
 10
242.48963
 20
242.11415
 11
242.78591
 21
241.73312
  0
LINE
  8
_0-0_
  6
CONTINUOUS
 62
    7
 10
242.48963
 20
240.03985
 11
242.78591
 21
240.25156
  0
LINE
  8
_0-0_
  6
CONTINUOUS
 62
    7
 10
214.78245
 20
219.59287
 11
214.48617
 21
219.88915
  0
LINE
  8
_0-0_
  6
CONTINUOUS
 62
    7
 10
228.83706
 20
217.20094
 11
229.1547
 21
217.51858
  0
LINE
  8
_0-0_
  6
CONTINUOUS
 62
    7
 10
224.18033
 20
217.20094
 11
228.83706
 21
217.20094
  0
LINE
  8
_0-0_
  6
CONTINUOUS
 62
    7
 10
229.1547
 20
217.51858
 11
229.5781
 21
225.66761
  0
LINE
  8
_0-0_
  6
CONTINUOUS
 62
    7
 10
210.52793
 20
241.92363
 11
214.48617
 21
241.92363
  0
LINE
  8
_0-0_
  6
CONTINUOUS
 62
    7
 10
205.02456
 20
240.03985
 11
205.23626
 21
222.81024
  0
LINE
  8
_0-0_
  6
CONTINUOUS
 62
    7
 10
198.14539
 20
222.81024
 11
205.23626
 21
222.81024
  0
LINE
  8
_0-0_
  6
CONTINUOUS
 62
    7
 10
197.08706
 20
221.8153
 11
198.14539
 21
222.81024
  0
LINE
  8
_0-0_
  6
CONTINUOUS
 62
    7
 10
205.00355
 20
222.81024
 11
205.04575
 21
219.59287
  0
LINE
  8
_0-0_
  6
CONTINUOUS
 62
    7
 10
210.52793
 20
219.59287
 11
205.04575
 21
219.59287
  0
LINE
  8
_0-0_
  6
CONTINUOUS
 62
    7
 10
191.47793
 20
225.66761
 11
191.64726
 21
225.94287
  0
LINE
  8
_0-0_
  6
CONTINUOUS
 62
    7
 10
191.64726
 20
225.94287
 11
191.71082
 21
226.26033
  0
LINE
  8
_0-0_
  6
CONTINUOUS
 62
    7
 10
191.71082
 20
226.26033
 11
191.64726
 21
226.55661
  0
LINE
  8
_0-0_
  6
CONTINUOUS
 62
    7
 10
191.64726
 20
226.55661
 11
191.45674
 21
226.83188
  0
LINE
  8
_0-0_
  6
CONTINUOUS
 62
    7
 10
191.45674
 20
226.83188
 11
191.18165
 21
226.98001
  0
LINE
  8
_0-0_
  6
CONTINUOUS
 62
    7
 10
190.86418
 20
227.08578
 11
190.65248
 21
240.03985
  0
LINE
  8
_0-0_
  6
CONTINUOUS
 62
    7
 10
196.85434
 20
217.20094
 11
197.08706
 21
221.8153
  0
LINE
  8
_0-0_
  6
CONTINUOUS
 62
    7
 10
191.43573
 20
240.03985
 11
191.62607
 21
226.93764
  0
LINE
  8
_0-0_
  6
CONTINUOUS
 62
    7
 10
190.86418
 20
240.03985
 11
191.03351
 21
227.08578
  0
LINE
  8
_0-0_
  6
CONTINUOUS
 62
    7
 10
194.12376
 20
217.20094
 11
194.58954
 21
240.03985
  0
LINE
  8
_0-0_
  6
CONTINUOUS
 62
    7
 10
186.10168
 20
228.46158
 11
186.3344
 21
240.03985
  0
LINE
  8
_0-0_
  6
CONTINUOUS
 62
    7
 10
184.11197
 20
228.99074
 11
183.94264
 21
240.03985
  0
LINE
  8
_0-0_
  6
CONTINUOUS
 62
    7
 10
191.5203
 20
226.98001
 11
191.18165
 21
226.98001
  0
LINE
  8
_0-0_
  6
CONTINUOUS
 62
    7
 10
191.79539
 20
225.66761
 11
191.47793
 21
225.66761
  0
LINE
  8
_0-0_
  6
CONTINUOUS
 62
    7
 10
190.86418
 20
227.08578
 11
186.27101
 21
228.31344
  0
LINE
  8
_0-0_
  6
CONTINUOUS
 62
    7
 10
194.54716
 20
217.20094
 11
196.85434
 21
217.20094
  0
LINE
  8
_0-0_
  6
CONTINUOUS
 62
    7
 10
191.03351
 20
227.08578
 11
191.11809
 21
227.08578
  0
LINE
  8
_0-0_
  6
CONTINUOUS
 62
    7
 10
191.11809
 20
227.08578
 11
191.28741
 21
227.04358
  0
LINE
  8
_0-0_
  6
CONTINUOUS
 62
    7
 10
191.28741
 20
227.04358
 11
191.5203
 21
226.98001
  0
LINE
  8
_0-0_
  6
CONTINUOUS
 62
    7
 10
191.62607
 20
226.93764
 11
191.5203
 21
226.98001
  0
LINE
  8
_0-0_
  6
CONTINUOUS
 62
    7
 10
194.12376
 20
217.20094
 11
194.54716
 21
217.20094
  0
LINE
  8
_0-0_
  6
CONTINUOUS
 62
    7
 10
186.50373
 20
228.31344
 11
186.48271
 21
228.33463
  0
LINE
  8
_0-0_
  6
CONTINUOUS
 62
    7
 10
186.48271
 20
228.33463
 11
186.3344
 21
228.39819
  0
LINE
  8
_0-0_
  6
CONTINUOUS
 62
    7
 10
186.3344
 20
228.39819
 11
186.10168
 21
228.46158
  0
LINE
  8
_0-0_
  6
CONTINUOUS
 62
    7
 10
183.5828
 20
229.11787
 11
184.11197
 21
228.99074
  0
LINE
  8
_0-0_
  6
CONTINUOUS
 62
    7
 10
183.5828
 20
229.11787
 11
183.66755
 21
240.03985
  0
LINE
  8
_0-0_
  6
CONTINUOUS
 62
    7
 10
191.62607
 20
226.93764
 11
191.83777
 21
226.74713
  0
LINE
  8
_0-0_
  6
CONTINUOUS
 62
    7
 10
191.83777
 20
226.74713
 11
191.98591
 21
226.49322
  0
LINE
  8
_0-0_
  6
CONTINUOUS
 62
    7
 10
191.98591
 20
226.49322
 11
192.02828
 21
226.19677
  0
LINE
  8
_0-0_
  6
CONTINUOUS
 62
    7
 10
192.02828
 20
226.19677
 11
191.96489
 21
225.92168
  0
LINE
  8
_0-0_
  6
CONTINUOUS
 62
    7
 10
191.96489
 20
225.92168
 11
191.79539
 21
225.66761
  0
LINE
  8
_0-0_
  6
CONTINUOUS
 62
    7
 10
191.03351
 20
227.08578
 11
190.86418
 21
227.08578
  0
LINE
  8
_0-0_
  6
CONTINUOUS
 62
    7
 10
186.10168
 20
228.46158
 11
184.11197
 21
228.99074
  0
LINE
  8
_0-0_
  6
CONTINUOUS
 62
    7
 10
186.50373
 20
228.31344
 11
186.27101
 21
228.31344
  0
LINE
  8
_0-0_
  6
CONTINUOUS
 62
    7
 10
183.5828
 20
229.11787
 11
183.22296
 21
229.11787
  0
LINE
  8
_0-0_
  6
CONTINUOUS
 62
    7
 10
210.52793
 20
242.11415
 11
178.54521
 21
242.11415
  0
LINE
  8
_0-0_
  6
CONTINUOUS
 62
    7
 10
210.52793
 20
241.73312
 11
178.24876
 21
241.73312
  0
LINE
  8
_0-0_
  6
CONTINUOUS
 62
    7
 10
210.52793
 20
240.03985
 11
178.54521
 21
240.03985
  0
LINE
  8
_0-0_
  6
CONTINUOUS
 62
    7
 10
210.52793
 20
240.25156
 11
178.24876
 21
240.25156
  0
LINE
  8
_0-0_
  6
CONTINUOUS
 62
    7
 10
178.54521
 20
242.11415
 11
182.46091
 21
243.13011
  0
LINE
  8
_0-0_
  6
CONTINUOUS
 62
    7
 10
182.46091
 20
243.13011
 11
186.39796
 21
244.01911
  0
LINE
  8
_0-0_
  6
CONTINUOUS
 62
    7
 10
186.39796
 20
244.01911
 11
190.37739
 21
244.78117
  0
LINE
  8
_0-0_
  6
CONTINUOUS
 62
    7
 10
190.37739
 20
244.78117
 11
194.37784
 21
245.39491
  0
LINE
  8
_0-0_
  6
CONTINUOUS
 62
    7
 10
194.37784
 20
245.39491
 11
198.39947
 21
245.88188
  0
LINE
  8
_0-0_
  6
CONTINUOUS
 62
    7
 10
198.39947
 20
245.88188
 11
202.44229
 21
246.22053
  0
LINE
  8
_0-0_
  6
CONTINUOUS
 62
    7
 10
202.44229
 20
246.22053
 11
206.48511
 21
246.43223
  0
LINE
  8
_0-0_
  6
CONTINUOUS
 62
    7
 10
206.48511
 20
246.43223
 11
210.52793
 21
246.49562
  0
LINE
  8
_0-0_
  6
CONTINUOUS
 62
    7
 10
178.54521
 20
242.11415
 11
178.24876
 21
241.73312
  0
LINE
  8
_0-0_
  6
CONTINUOUS
 62
    7
 10
178.24876
 20
240.25156
 11
178.24876
 21
241.73312
  0
LINE
  8
_0-0_
  6
CONTINUOUS
 62
    7
 10
178.54521
 20
240.03985
 11
178.24876
 21
240.25156
  0
LINE
  8
_0-0_
  6
CONTINUOUS
 62
    7
 10
192.49406
 20
217.20094
 11
192.2188
 21
217.20094
  0
LINE
  8
_0-0_
  6
CONTINUOUS
 62
    7
 10
192.17642
 20
217.51858
 11
191.90133
 21
217.51858
  0
LINE
  8
_0-0_
  6
CONTINUOUS
 62
    7
 10
192.17642
 20
217.51858
 11
191.79539
 21
225.66761
  0
LINE
  8
_0-0_
  6
CONTINUOUS
 62
    7
 10
194.12376
 20
217.20094
 11
192.49406
 21
217.20094
  0
LINE
  8
_0-0_
  6
CONTINUOUS
 62
    7
 10
192.49406
 20
217.20094
 11
192.17642
 21
217.51858
  0
LINE
  8
_0-0_
  6
CONTINUOUS
 62
    7
 10
191.90133
 20
217.51858
 11
191.47793
 21
225.66761
  0
LINE
  8
_0-0_
  6
CONTINUOUS
 62
    7
 10
192.2188
 20
217.20094
 11
191.90133
 21
217.51858
  0
LINE
  8
_0-0_
  6
CONTINUOUS
 62
    7
 10
183.22296
 20
229.11787
 11
183.22296
 21
240.03985
  0
LINE
  8
_0-0_
  6
CONTINUOUS
 62
    7
 10
191.18165
 20
226.98001
 11
183.22296
 21
229.11787
  0
LINE
  8
_0-0_
  6
CONTINUOUS
 62
    7
 10
186.50373
 20
228.33463
 11
186.73662
 21
240.03985
  0
LINE
  8
_0-0_
  6
CONTINUOUS
 62
    7
 10
194.54716
 20
217.20094
 11
194.99158
 21
240.03985
  0
LINE
  8
_0-0_
  6
CONTINUOUS
 62
    7
 10
210.52793
 20
249.48011
 11
210.52793
 21
242.49517
  0
LINE
  8
_0-0_
  6
CONTINUOUS
 62
    7
 10
210.52793
 20
241.47922
 11
210.52793
 21
240.48427
  0
LINE
  8
_0-0_
  6
CONTINUOUS
 62
    7
 10
210.52793
 20
239.46831
 11
210.52793
 21
232.48338
  0
LINE
  8
_0-0_
  6
CONTINUOUS
 62
    7
 10
210.52793
 20
231.46742
 11
210.52793
 21
230.47248
  0
LINE
  8
_0-0_
  6
CONTINUOUS
 62
    7
 10
210.52793
 20
229.45652
 11
210.52793
 21
222.47159
  0
LINE
  8
_0-0_
  6
CONTINUOUS
 62
    7
 10
210.52793
 20
221.45546
 11
210.52793
 21
220.46069
  0
LINE
  8
_0-0_
  6
CONTINUOUS
 62
    7
 10
210.52793
 20
219.44473
 11
210.52793
 21
214.7246
  0
LINE
  8
_0-0_
  6
CONTINUOUS
 62
    7
 10
178.24876
 20
256.06299
 11
178.24876
 21
240.99242
  0
LINE
  8
_0-0_
  6
CONTINUOUS
 62
    7
 10
242.78591
 20
256.06299
 11
242.78591
 21
240.99242
  0
LINE
  8
_0-0_
  6
CONTINUOUS
 62
    7
 10
210.52793
 20
190.67922
 11
179.45523
 21
190.67922
  0
LINE
  8
_0-0_
  6
CONTINUOUS
 62
    7
 10
179.24371
 20
190.4887
 11
179.24371
 21
189.68427
  0
LINE
  8
_0-0_
  6
CONTINUOUS
 62
    7
 10
189.86924
 20
178.27549
 11
189.86924
 21
148.32469
  0
LINE
  8
_0-0_
  6
CONTINUOUS
 62
    7
 10
179.45523
 20
190.67922
 11
179.24371
 21
190.4887
  0
LINE
  8
_0-0_
  6
CONTINUOUS
 62
    7
 10
210.52793
 20
190.67922
 11
241.6008
 21
190.67922
  0
LINE
  8
_0-0_
  6
CONTINUOUS
 62
    7
 10
231.1656
 20
178.27549
 11
231.1656
 21
137.08524
  0
LINE
  8
_0-0_
  6
CONTINUOUS
 62
    7
 10
241.6008
 20
190.67922
 11
241.79131
 21
190.4887
  0
LINE
  8
_0-0_
  6
CONTINUOUS
 62
    7
 10
180.97934
 20
188.71069
 11
179.24371
 21
189.68427
  0
LINE
  8
_0-0_
  6
CONTINUOUS
 62
    7
 10
241.79131
 20
190.4887
 11
241.79131
 21
189.68427
  0
LINE
  8
_0-0_
  6
CONTINUOUS
 62
    7
 10
230.17066
 20
136.0903
 11
230.17066
 21
178.27549
  0
LINE
  8
_0-0_
  6
CONTINUOUS
 62
    7
 10
190.86418
 20
148.32469
 11
190.86418
 21
178.27549
  0
LINE
  8
_0-0_
  6
CONTINUOUS
 62
    7
 10
210.52793
 20
178.27549
 11
189.86924
 21
178.27549
  0
LINE
  8
_0-0_
  6
CONTINUOUS
 62
    7
 10
230.17066
 20
178.27549
 11
231.1656
 21
178.27549
  0
LINE
  8
_0-0_
  6
CONTINUOUS
 62
    7
 10
230.17066
 20
136.0903
 11
231.1656
 21
137.08524
  0
LINE
  8
_0-0_
  6
CONTINUOUS
 62
    7
 10
210.52793
 20
136.0903
 11
230.17066
 21
136.0903
  0
LINE
  8
_0-0_
  6
CONTINUOUS
 62
    7
 10
180.97934
 20
188.71069
 11
187.56206
 21
186.55165
  0
LINE
  8
_0-0_
  6
CONTINUOUS
 62
    7
 10
228.9852
 20
136.0903
 11
228.68892
 21
136.38675
  0
LINE
  8
_0-0_
  6
CONTINUOUS
 62
    7
 10
210.52793
 20
136.38675
 11
228.68892
 21
136.38675
  0
LINE
  8
_0-0_
  6
CONTINUOUS
 62
    7
 10
229.64149
 20
187.22895
 11
231.94867
 21
188.13915
  0
LINE
  8
_0-0_
  6
CONTINUOUS
 62
    7
 10
231.94867
 20
188.13915
 11
234.31924
 21
188.94358
  0
LINE
  8
_0-0_
  6
CONTINUOUS
 62
    7
 10
234.31924
 20
188.94358
 11
236.71117
 21
189.64207
  0
LINE
  8
_0-0_
  6
CONTINUOUS
 62
    7
 10
236.71117
 20
189.64207
 11
239.14548
 21
190.21344
  0
LINE
  8
_0-0_
  6
CONTINUOUS
 62
    7
 10
239.14548
 20
190.21344
 11
241.6008
 21
190.67922
  0
LINE
  8
_0-0_
  6
CONTINUOUS
 62
    7
 10
228.68892
 20
157.93427
 11
228.68892
 21
136.38675
  0
LINE
  8
_0-0_
  6
CONTINUOUS
 62
    7
 10
228.94283
 20
157.93427
 11
210.52793
 21
157.93427
  0
LINE
  8
_0-0_
  6
CONTINUOUS
 62
    7
 10
228.94283
 20
157.93427
 11
228.94283
 21
177.59819
  0
LINE
  8
_0-0_
  6
CONTINUOUS
 62
    7
 10
229.64149
 20
187.22895
 11
229.1547
 21
178.08498
  0
LINE
  8
_0-0_
  6
CONTINUOUS
 62
    7
 10
210.52793
 20
177.59819
 11
228.94283
 21
177.59819
  0
LINE
  8
_0-0_
  6
CONTINUOUS
 62
    7
 10
210.52793
 20
177.89447
 11
228.85842
 21
177.89447
  0
LINE
  8
_0-0_
  6
CONTINUOUS
 62
    7
 10
229.1547
 20
178.08498
 11
229.09131
 21
177.83108
  0
LINE
  8
_0-0_
  6
CONTINUOUS
 62
    7
 10
229.09131
 20
177.83108
 11
228.94283
 21
177.59819
  0
LINE
  8
_0-0_
  6
CONTINUOUS
 62
    7
 10
188.93803
 20
184.73126
 11
189.86924
 21
178.27549
  0
LINE
  8
_0-0_
  6
CONTINUOUS
 62
    7
 10
188.93803
 20
184.73126
 11
188.85328
 21
185.21822
  0
LINE
  8
_0-0_
  6
CONTINUOUS
 62
    7
 10
188.85328
 20
185.21822
 11
188.66277
 21
185.66264
  0
LINE
  8
_0-0_
  6
CONTINUOUS
 62
    7
 10
188.66277
 20
185.66264
 11
188.36649
 21
186.04367
  0
LINE
  8
_0-0_
  6
CONTINUOUS
 62
    7
 10
188.36649
 20
186.04367
 11
188.00665
 21
186.36113
  0
LINE
  8
_0-0_
  6
CONTINUOUS
 62
    7
 10
188.00665
 20
186.36113
 11
187.56206
 21
186.55165
  0
LINE
  8
_0-0_
  6
CONTINUOUS
 62
    7
 10
232.11783
 20
184.73126
 11
231.1656
 21
178.27549
  0
LINE
  8
_0-0_
  6
CONTINUOUS
 62
    7
 10
232.11783
 20
184.73126
 11
232.18156
 21
185.21822
  0
LINE
  8
_0-0_
  6
CONTINUOUS
 62
    7
 10
232.18156
 20
185.21822
 11
232.37207
 21
185.66264
  0
LINE
  8
_0-0_
  6
CONTINUOUS
 62
    7
 10
232.37207
 20
185.66264
 11
232.66835
 21
186.04367
  0
LINE
  8
_0-0_
  6
CONTINUOUS
 62
    7
 10
232.66835
 20
186.04367
 11
233.04938
 21
186.36113
  0
LINE
  8
_0-0_
  6
CONTINUOUS
 62
    7
 10
233.04938
 20
186.36113
 11
233.4938
 21
186.55165
  0
LINE
  8
_0-0_
  6
CONTINUOUS
 62
    7
 10
240.07668
 20
188.71069
 11
233.4938
 21
186.55165
  0
LINE
  8
_0-0_
  6
CONTINUOUS
 62
    7
 10
240.07668
 20
188.71069
 11
241.79131
 21
189.68427
  0
LINE
  8
_0-0_
  6
CONTINUOUS
 62
    7
 10
179.24371
 20
206.59659
 11
179.24371
 21
190.4887
  0
LINE
  8
_0-0_
  6
CONTINUOUS
 62
    7
 10
241.79131
 20
206.59659
 11
241.79131
 21
190.4887
  0
LINE
  8
_0-0_
  6
CONTINUOUS
 62
    7
 10
210.52793
 20
184.73126
 11
190.25027
 21
184.73126
  0
LINE
  8
_0-0_
  6
CONTINUOUS
 62
    7
 10
210.52793
 20
189.68427
 11
179.24371
 21
189.68427
  0
LINE
  8
_0-0_
  6
CONTINUOUS
 62
    7
 10
210.52793
 20
186.55165
 11
189.10736
 21
186.55165
  0
LINE
  8
_0-0_
  6
CONTINUOUS
 62
    7
 10
229.36623
 20
136.0903
 11
230.17066
 21
136.89473
  0
LINE
  8
_0-0_
  6
CONTINUOUS
 62
    7
 10
230.17066
 20
136.89473
 11
231.1656
 21
137.8895
  0
LINE
  8
_0-0_
  6
CONTINUOUS
 62
    7
 10
231.1656
 20
140.70466
 11
230.17066
 21
139.70989
  0
LINE
  8
_0-0_
  6
CONTINUOUS
 62
    7
 10
230.17066
 20
139.70989
 11
228.68892
 21
138.20697
  0
LINE
  8
_0-0_
  6
CONTINUOUS
 62
    7
 10
228.68892
 20
141.02213
 11
230.17066
 21
142.50386
  0
LINE
  8
_0-0_
  6
CONTINUOUS
 62
    7
 10
230.17066
 20
142.50386
 11
231.1656
 21
143.49863
  0
LINE
  8
_0-0_
  6
CONTINUOUS
 62
    7
 10
231.1656
 20
146.31379
 11
230.17066
 21
145.31902
  0
LINE
  8
_0-0_
  6
CONTINUOUS
 62
    7
 10
230.17066
 20
145.31902
 11
228.68892
 21
143.83729
  0
LINE
  8
_0-0_
  6
CONTINUOUS
 62
    7
 10
228.68892
 20
146.63126
 11
230.17066
 21
148.13418
  0
LINE
  8
_0-0_
  6
CONTINUOUS
 62
    7
 10
230.17066
 20
148.13418
 11
231.1656
 21
149.10776
  0
LINE
  8
_0-0_
  6
CONTINUOUS
 62
    7
 10
231.1656
 20
151.92292
 11
230.17066
 21
150.92815
  0
LINE
  8
_0-0_
  6
CONTINUOUS
 62
    7
 10
230.17066
 20
150.92815
 11
228.68892
 21
149.44659
  0
LINE
  8
_0-0_
  6
CONTINUOUS
 62
    7
 10
228.68892
 20
152.26175
 11
230.17066
 21
153.74331
  0
LINE
  8
_0-0_
  6
CONTINUOUS
 62
    7
 10
230.17066
 20
153.74331
 11
231.1656
 21
154.73826
  0
LINE
  8
_0-0_
  6
CONTINUOUS
 62
    7
 10
231.1656
 20
157.53223
 11
230.17066
 21
156.55847
  0
LINE
  8
_0-0_
  6
CONTINUOUS
 62
    7
 10
230.17066
 20
156.55847
 11
228.68892
 21
155.05572
  0
LINE
  8
_0-0_
  6
CONTINUOUS
 62
    7
 10
228.68892
 20
157.87088
 11
228.75231
 21
157.93427
  0
LINE
  8
_0-0_
  6
CONTINUOUS
 62
    7
 10
228.94283
 20
158.12479
 11
231.1656
 21
160.34739
  0
LINE
  8
_0-0_
  6
CONTINUOUS
 62
    7
 10
231.1656
 20
163.16255
 11
230.17066
 21
162.16761
  0
LINE
  8
_0-0_
  6
CONTINUOUS
 62
    7
 10
230.17066
 20
162.16761
 11
228.94283
 21
160.91876
  0
LINE
  8
_0-0_
  6
CONTINUOUS
 62
    7
 10
228.94283
 20
163.73409
 11
230.17066
 21
164.98294
  0
LINE
  8
_0-0_
  6
CONTINUOUS
 62
    7
 10
230.17066
 20
164.98294
 11
231.1656
 21
165.95652
  0
LINE
  8
_0-0_
  6
CONTINUOUS
 62
    7
 10
231.1656
 20
168.77168
 11
228.94283
 21
166.54908
  0
LINE
  8
_0-0_
  6
CONTINUOUS
 62
    7
 10
228.94283
 20
169.34322
 11
230.17066
 21
170.59207
  0
LINE
  8
_0-0_
  6
CONTINUOUS
 62
    7
 10
230.17066
 20
170.59207
 11
231.1656
 21
171.58684
  0
LINE
  8
_0-0_
  6
CONTINUOUS
 62
    7
 10
231.1656
 20
174.38081
 11
228.94283
 21
172.15838
  0
LINE
  8
_0-0_
  6
CONTINUOUS
 62
    7
 10
228.94283
 20
174.97354
 11
231.1656
 21
177.19597
  0
LINE
  8
_0-0_
  6
CONTINUOUS
 62
    7
 10
241.72757
 20
190.55209
 11
239.75905
 21
188.60492
  0
LINE
  8
_0-0_
  6
CONTINUOUS
 62
    7
 10
231.46188
 20
180.30741
 11
229.13334
 21
177.97922
  0
LINE
  8
_0-0_
  6
CONTINUOUS
 62
    7
 10
229.30284
 20
180.94251
 11
231.94867
 21
183.58835
  0
LINE
  8
_0-0_
  6
CONTINUOUS
 62
    7
 10
235.61046
 20
187.25014
 11
238.40444
 21
190.04411
  0
LINE
  8
_0-0_
  6
CONTINUOUS
 62
    7
 10
234.57314
 20
189.02815
 11
229.45098
 21
183.90581
  0
LINE
  8
_0-0_
  6
CONTINUOUS
 62
    7
 10
229.62048
 20
186.86911
 11
230.21303
 21
187.48303
  0
LINE
  8
_0-0_
  6
CONTINUOUS
 62
    7
 10
229.64149
 20
187.22895
 11
210.52793
 21
187.22895
  0
LINE
  8
_0-0_
  6
CONTINUOUS
 62
    7
 10
257.62393
 20
189.68427
 11
241.81232
 21
189.68427
  0
LINE
  8
_0-0_
  6
CONTINUOUS
 62
    7
 10
257.62393
 20
190.67922
 11
241.6008
 21
190.67922
  0
LINE
  8
_0-0_
  6
CONTINUOUS
 62
    7
 10
210.52793
 20
97.82115
 11
210.52793
 21
90.835874
  0
LINE
  8
_0-0_
  6
CONTINUOUS
 62
    7
 10
210.52793
 20
89.819915
 11
210.52793
 21
88.825316
  0
LINE
  8
_0-0_
  6
CONTINUOUS
 62
    7
 10
210.52793
 20
87.809013
 11
210.52793
 21
80.824082
  0
LINE
  8
_0-0_
  6
CONTINUOUS
 62
    7
 10
210.52793
 20
79.808123
 11
210.52793
 21
78.81318
  0
LINE
  8
_0-0_
  6
CONTINUOUS
 62
    7
 10
210.52793
 20
77.797221
 11
210.52793
 21
70.81229
  0
LINE
  8
_0-0_
  6
CONTINUOUS
 62
    7
 10
210.52793
 20
69.796331
 11
210.52793
 21
68.801388
  0
LINE
  8
_0-0_
  6
CONTINUOUS
 62
    7
 10
210.52793
 20
67.785429
 11
210.52793
 21
63.086663
  0
LINE
  8
_0-0_
  6
CONTINUOUS
 62
    7
 10
213.85107
 20
64.589414
 11
213.76632
 21
65.287735
  0
LINE
  8
_0-0_
  6
CONTINUOUS
 62
    7
 10
213.76632
 20
65.287735
 11
213.55479
 21
65.944026
  0
LINE
  8
_0-0_
  6
CONTINUOUS
 62
    7
 10
213.55479
 20
65.944026
 11
213.21614
 21
66.536582
  0
LINE
  8
_0-0_
  6
CONTINUOUS
 62
    7
 10
213.21614
 20
66.536582
 11
212.75036
 21
67.065749
  0
LINE
  8
_0-0_
  6
CONTINUOUS
 62
    7
 10
212.75036
 20
67.065749
 11
212.17882
 21
67.468136
  0
LINE
  8
_0-0_
  6
CONTINUOUS
 62
    7
 10
212.17882
 20
67.468136
 11
211.54389
 21
67.764414
  0
LINE
  8
_0-0_
  6
CONTINUOUS
 62
    7
 10
211.54389
 20
67.764414
 11
210.86658
 21
67.891194
  0
LINE
  8
_0-0_
  6
CONTINUOUS
 62
    7
 10
210.86658
 20
67.891194
 11
210.16809
 21
67.891194
  0
LINE
  8
_0-0_
  6
CONTINUOUS
 62
    7
 10
210.16809
 20
67.891194
 11
209.49078
 21
67.764414
  0
LINE
  8
_0-0_
  6
CONTINUOUS
 62
    7
 10
209.49078
 20
67.764414
 11
208.85568
 21
67.468136
  0
LINE
  8
_0-0_
  6
CONTINUOUS
 62
    7
 10
208.85568
 20
67.468136
 11
208.28431
 21
67.065749
  0
LINE
  8
_0-0_
  6
CONTINUOUS
 62
    7
 10
208.28431
 20
67.065749
 11
207.81853
 21
66.536582
  0
LINE
  8
_0-0_
  6
CONTINUOUS
 62
    7
 10
207.81853
 20
66.536582
 11
207.47988
 21
65.944026
  0
LINE
  8
_0-0_
  6
CONTINUOUS
 62
    7
 10
207.47988
 20
65.944026
 11
207.26818
 21
65.287735
  0
LINE
  8
_0-0_
  6
CONTINUOUS
 62
    7
 10
207.26818
 20
65.287735
 11
207.1836
 21
64.589414
  0
LINE
  8
_0-0_
  6
CONTINUOUS
 62
    7
 10
248.77607
 20
64.589414
 11
241.79114
 21
64.589414
  0
LINE
  8
_0-0_
  6
CONTINUOUS
 62
    7
 10
240.77518
 20
64.589414
 11
239.78023
 21
64.589414
  0
LINE
  8
_0-0_
  6
CONTINUOUS
 62
    7
 10
238.76428
 20
64.589414
 11
231.77934
 21
64.589414
  0
LINE
  8
_0-0_
  6
CONTINUOUS
 62
    7
 10
230.76339
 20
64.589414
 11
229.76844
 21
64.589414
  0
LINE
  8
_0-0_
  6
CONTINUOUS
 62
    7
 10
228.75248
 20
64.589414
 11
221.76755
 21
64.589414
  0
LINE
  8
_0-0_
  6
CONTINUOUS
 62
    7
 10
220.75125
 20
64.589414
 11
219.75665
 21
64.589414
  0
LINE
  8
_0-0_
  6
CONTINUOUS
 62
    7
 10
218.74069
 20
64.589414
 11
211.75542
 21
64.589414
  0
LINE
  8
_0-0_
  6
CONTINUOUS
 62
    7
 10
210.73963
 20
64.589414
 11
209.74469
 21
64.589414
  0
LINE
  8
_0-0_
  6
CONTINUOUS
 62
    7
 10
208.72873
 20
64.589414
 11
201.7438
 21
64.589414
  0
LINE
  8
_0-0_
  6
CONTINUOUS
 62
    7
 10
200.72767
 20
64.589414
 11
199.73289
 21
64.589414
  0
LINE
  8
_0-0_
  6
CONTINUOUS
 62
    7
 10
198.71694
 20
64.589414
 11
191.73183
 21
64.589414
  0
LINE
  8
_0-0_
  6
CONTINUOUS
 62
    7
 10
190.71587
 20
64.589414
 11
189.7211
 21
64.589414
  0
LINE
  8
_0-0_
  6
CONTINUOUS
 62
    7
 10
188.70514
 20
64.589414
 11
181.72004
 21
64.589414
  0
LINE
  8
_0-0_
  6
CONTINUOUS
 62
    7
 10
180.70408
 20
64.589414
 11
179.70931
 21
64.589414
  0
LINE
  8
_0-0_
  6
CONTINUOUS
 62
    7
 10
178.69318
 20
64.589414
 11
172.78777
 21
64.589414
  0
LINE
  8
_0-0_
  6
CONTINUOUS
 62
    7
 10
229.23928
 20
64.589414
 11
229.15453
 21
66.261663
  0
LINE
  8
_0-0_
  6
CONTINUOUS
 62
    7
 10
229.15453
 20
66.261663
 11
228.92164
 21
67.933568
  0
LINE
  8
_0-0_
  6
CONTINUOUS
 62
    7
 10
228.92164
 20
67.933568
 11
228.56197
 21
69.563443
  0
LINE
  8
_0-0_
  6
CONTINUOUS
 62
    7
 10
228.56197
 20
69.563443
 11
228.0328
 21
71.172303
  0
LINE
  8
_0-0_
  6
CONTINUOUS
 62
    7
 10
228.0328
 20
71.172303
 11
227.37651
 21
72.717428
  0
LINE
  8
_0-0_
  6
CONTINUOUS
 62
    7
 10
227.37651
 20
72.717428
 11
226.57208
 21
74.199163
  0
LINE
  8
_0-0_
  6
CONTINUOUS
 62
    7
 10
226.57208
 20
74.199163
 11
225.66223
 21
75.59615
  0
LINE
  8
_0-0_
  6
CONTINUOUS
 62
    7
 10
225.66223
 20
75.59615
 11
224.6039
 21
76.908387
  0
LINE
  8
_0-0_
  6
CONTINUOUS
 62
    7
 10
224.6039
 20
76.908387
 11
223.46082
 21
78.114859
  0
LINE
  8
_0-0_
  6
CONTINUOUS
 62
    7
 10
223.46082
 20
78.114859
 11
222.19061
 21
79.215567
  0
LINE
  8
_0-0_
  6
CONTINUOUS
 62
    7
 10
222.19061
 20
79.215567
 11
220.836
 21
80.210511
  0
LINE
  8
_0-0_
  6
CONTINUOUS
 62
    7
 10
220.836
 20
80.210511
 11
219.37562
 21
81.07833
  0
LINE
  8
_0-0_
  6
CONTINUOUS
 62
    7
 10
219.37562
 20
81.07833
 11
217.87287
 21
81.798011
  0
LINE
  8
_0-0_
  6
CONTINUOUS
 62
    7
 10
217.87287
 20
81.798011
 11
216.30639
 21
82.390567
  0
LINE
  8
_0-0_
  6
CONTINUOUS
 62
    7
 10
216.30639
 20
82.390567
 11
214.67651
 21
82.834984
  0
LINE
  8
_0-0_
  6
CONTINUOUS
 62
    7
 10
214.67651
 20
82.834984
 11
213.02562
 21
83.131263
  0
LINE
  8
_0-0_
  6
CONTINUOUS
 62
    7
 10
213.02562
 20
83.131263
 11
211.35337
 21
83.279402
  0
LINE
  8
_0-0_
  6
CONTINUOUS
 62
    7
 10
211.35337
 20
83.279402
 11
209.6813
 21
83.279402
  0
LINE
  8
_0-0_
  6
CONTINUOUS
 62
    7
 10
209.6813
 20
83.279402
 11
208.00905
 21
83.131263
  0
LINE
  8
_0-0_
  6
CONTINUOUS
 62
    7
 10
208.00905
 20
83.131263
 11
206.35816
 21
82.834984
  0
LINE
  8
_0-0_
  6
CONTINUOUS
 62
    7
 10
206.35816
 20
82.834984
 11
204.72828
 21
82.390567
  0
LINE
  8
_0-0_
  6
CONTINUOUS
 62
    7
 10
204.72828
 20
82.390567
 11
203.16197
 21
81.798011
  0
LINE
  8
_0-0_
  6
CONTINUOUS
 62
    7
 10
203.16197
 20
81.798011
 11
201.65905
 21
81.07833
  0
LINE
  8
_0-0_
  6
CONTINUOUS
 62
    7
 10
201.65905
 20
81.07833
 11
200.21969
 21
80.210511
  0
LINE
  8
_0-0_
  6
CONTINUOUS
 62
    7
 10
200.21969
 20
80.210511
 11
198.84389
 21
79.215567
  0
LINE
  8
_0-0_
  6
CONTINUOUS
 62
    7
 10
198.84389
 20
79.215567
 11
197.59504
 21
78.114859
  0
LINE
  8
_0-0_
  6
CONTINUOUS
 62
    7
 10
197.59504
 20
78.114859
 11
196.43094
 21
76.908387
  0
LINE
  8
_0-0_
  6
CONTINUOUS
 62
    7
 10
196.43094
 20
76.908387
 11
195.37261
 21
75.59615
  0
LINE
  8
_0-0_
  6
CONTINUOUS
 62
    7
 10
195.37261
 20
75.59615
 11
194.46241
 21
74.199163
  0
LINE
  8
_0-0_
  6
CONTINUOUS
 62
    7
 10
194.46241
 20
74.199163
 11
193.65816
 21
72.717428
  0
LINE
  8
_0-0_
  6
CONTINUOUS
 62
    7
 10
193.65816
 20
72.717428
 11
193.00187
 21
71.172303
  0
LINE
  8
_0-0_
  6
CONTINUOUS
 62
    7
 10
193.00187
 20
71.172303
 11
192.4727
 21
69.563443
  0
LINE
  8
_0-0_
  6
CONTINUOUS
 62
    7
 10
192.4727
 20
69.563443
 11
192.11286
 21
67.933568
  0
LINE
  8
_0-0_
  6
CONTINUOUS
 62
    7
 10
192.11286
 20
67.933568
 11
191.88014
 21
66.261663
  0
LINE
  8
_0-0_
  6
CONTINUOUS
 62
    7
 10
191.88014
 20
66.261663
 11
191.79539
 21
64.589414
  0
LINE
  8
_0-0_
  6
CONTINUOUS
 62
    7
 10
227.52465
 20
64.589414
 11
227.46126
 21
66.219289
  0
LINE
  8
_0-0_
  6
CONTINUOUS
 62
    7
 10
227.46126
 20
66.219289
 11
227.22837
 21
67.806789
  0
LINE
  8
_0-0_
  6
CONTINUOUS
 62
    7
 10
227.22837
 20
67.806789
 11
226.84735
 21
69.394289
  0
LINE
  8
_0-0_
  6
CONTINUOUS
 62
    7
 10
226.84735
 20
69.394289
 11
226.31818
 21
70.918055
  0
LINE
  8
_0-0_
  6
CONTINUOUS
 62
    7
 10
226.31818
 20
70.918055
 11
225.64087
 21
72.378775
  0
LINE
  8
_0-0_
  6
CONTINUOUS
 62
    7
 10
225.64087
 20
72.378775
 11
224.83644
 21
73.796776
  0
LINE
  8
_0-0_
  6
CONTINUOUS
 62
    7
 10
224.83644
 20
73.796776
 11
223.88422
 21
75.109013
  0
LINE
  8
_0-0_
  6
CONTINUOUS
 62
    7
 10
223.88422
 20
75.109013
 11
222.82589
 21
76.336845
  0
LINE
  8
_0-0_
  6
CONTINUOUS
 62
    7
 10
222.82589
 20
76.336845
 11
221.66144
 21
77.458568
  0
LINE
  8
_0-0_
  6
CONTINUOUS
 62
    7
 10
221.66144
 20
77.458568
 11
220.39158
 21
78.453512
  0
LINE
  8
_0-0_
  6
CONTINUOUS
 62
    7
 10
220.39158
 20
78.453512
 11
219.01561
 21
79.321331
  0
LINE
  8
_0-0_
  6
CONTINUOUS
 62
    7
 10
219.01561
 20
79.321331
 11
217.57625
 21
80.062027
  0
LINE
  8
_0-0_
  6
CONTINUOUS
 62
    7
 10
217.57625
 20
80.062027
 11
216.0735
 21
80.675943
  0
LINE
  8
_0-0_
  6
CONTINUOUS
 62
    7
 10
216.0735
 20
80.675943
 11
214.52837
 21
81.12036
  0
LINE
  8
_0-0_
  6
CONTINUOUS
 62
    7
 10
214.52837
 20
81.12036
 11
212.94087
 21
81.437998
  0
LINE
  8
_0-0_
  6
CONTINUOUS
 62
    7
 10
212.94087
 20
81.437998
 11
211.33236
 21
81.586137
  0
LINE
  8
_0-0_
  6
CONTINUOUS
 62
    7
 10
211.33236
 20
81.586137
 11
209.70248
 21
81.586137
  0
LINE
  8
_0-0_
  6
CONTINUOUS
 62
    7
 10
209.70248
 20
81.586137
 11
208.0938
 21
81.437998
  0
LINE
  8
_0-0_
  6
CONTINUOUS
 62
    7
 10
208.0938
 20
81.437998
 11
206.5063
 21
81.12036
  0
LINE
  8
_0-0_
  6
CONTINUOUS
 62
    7
 10
206.5063
 20
81.12036
 11
204.961
 21
80.675943
  0
LINE
  8
_0-0_
  6
CONTINUOUS
 62
    7
 10
204.961
 20
80.675943
 11
203.45825
 21
80.062027
  0
LINE
  8
_0-0_
  6
CONTINUOUS
 62
    7
 10
203.45825
 20
80.062027
 11
202.01889
 21
79.321331
  0
LINE
  8
_0-0_
  6
CONTINUOUS
 62
    7
 10
202.01889
 20
79.321331
 11
200.64309
 21
78.453512
  0
LINE
  8
_0-0_
  6
CONTINUOUS
 62
    7
 10
200.64309
 20
78.453512
 11
199.37305
 21
77.458568
  0
LINE
  8
_0-0_
  6
CONTINUOUS
 62
    7
 10
199.37305
 20
77.458568
 11
198.20896
 21
76.336845
  0
LINE
  8
_0-0_
  6
CONTINUOUS
 62
    7
 10
198.20896
 20
76.336845
 11
197.15062
 21
75.109013
  0
LINE
  8
_0-0_
  6
CONTINUOUS
 62
    7
 10
197.15062
 20
75.109013
 11
196.19805
 21
73.796776
  0
LINE
  8
_0-0_
  6
CONTINUOUS
 62
    7
 10
196.19805
 20
73.796776
 11
195.3938
 21
72.378775
  0
LINE
  8
_0-0_
  6
CONTINUOUS
 62
    7
 10
195.3938
 20
72.378775
 11
194.71649
 21
70.918055
  0
LINE
  8
_0-0_
  6
CONTINUOUS
 62
    7
 10
194.71649
 20
70.918055
 11
194.18732
 21
69.394289
  0
LINE
  8
_0-0_
  6
CONTINUOUS
 62
    7
 10
194.18732
 20
69.394289
 11
193.8063
 21
67.806789
  0
LINE
  8
_0-0_
  6
CONTINUOUS
 62
    7
 10
193.8063
 20
67.806789
 11
193.57341
 21
66.219289
  0
LINE
  8
_0-0_
  6
CONTINUOUS
 62
    7
 10
193.57341
 20
66.219289
 11
193.50985
 21
64.589414
  0
LINE
  8
_0-0_
  6
CONTINUOUS
 62
    7
 10
200.53732
 20
75.871068
 11
199.54238
 21
74.897484
  0
LINE
  8
_0-0_
  6
CONTINUOUS
 62
    7
 10
199.54238
 20
74.897484
 11
198.63219
 21
73.839151
  0
LINE
  8
_0-0_
  6
CONTINUOUS
 62
    7
 10
198.63219
 20
73.839151
 11
197.84912
 21
72.717428
  0
LINE
  8
_0-0_
  6
CONTINUOUS
 62
    7
 10
197.84912
 20
72.717428
 11
197.15062
 21
71.510955
  0
LINE
  8
_0-0_
  6
CONTINUOUS
 62
    7
 10
197.15062
 20
71.510955
 11
196.55789
 21
70.262108
  0
LINE
  8
_0-0_
  6
CONTINUOUS
 62
    7
 10
196.55789
 20
70.262108
 11
196.11348
 21
68.949527
  0
LINE
  8
_0-0_
  6
CONTINUOUS
 62
    7
 10
196.11348
 20
68.949527
 11
195.77482
 21
67.594915
  0
LINE
  8
_0-0_
  6
CONTINUOUS
 62
    7
 10
202.33635
 20
64.589414
 11
202.25178
 21
65.372484
  0
LINE
  8
_0-0_
  6
CONTINUOUS
 62
    7
 10
202.25178
 20
65.372484
 11
202.01889
 21
66.11318
  0
LINE
  8
_0-0_
  6
CONTINUOUS
 62
    7
 10
202.01889
 20
66.11318
 11
201.65905
 21
66.79083
  0
LINE
  8
_0-0_
  6
CONTINUOUS
 62
    7
 10
201.65905
 20
66.79083
 11
201.17226
 21
67.404402
  0
LINE
  8
_0-0_
  6
CONTINUOUS
 62
    7
 10
201.17226
 20
67.404402
 11
200.55834
 21
67.891194
  0
LINE
  8
_0-0_
  6
CONTINUOUS
 62
    7
 10
200.55834
 20
67.891194
 11
199.88103
 21
68.251206
  0
LINE
  8
_0-0_
  6
CONTINUOUS
 62
    7
 10
199.88103
 20
68.251206
 11
199.14017
 21
68.484095
  0
LINE
  8
_0-0_
  6
CONTINUOUS
 62
    7
 10
199.14017
 20
68.484095
 11
198.3571
 21
68.568844
  0
LINE
  8
_0-0_
  6
CONTINUOUS
 62
    7
 10
198.3571
 20
68.568844
 11
197.57385
 21
68.484095
  0
LINE
  8
_0-0_
  6
CONTINUOUS
 62
    7
 10
197.57385
 20
68.484095
 11
196.83316
 21
68.251206
  0
LINE
  8
_0-0_
  6
CONTINUOUS
 62
    7
 10
196.83316
 20
68.251206
 11
196.15568
 21
67.891194
  0
LINE
  8
_0-0_
  6
CONTINUOUS
 62
    7
 10
196.15568
 20
67.891194
 11
195.54194
 21
67.404402
  0
LINE
  8
_0-0_
  6
CONTINUOUS
 62
    7
 10
195.54194
 20
67.404402
 11
195.05514
 21
66.79083
  0
LINE
  8
_0-0_
  6
CONTINUOUS
 62
    7
 10
195.05514
 20
66.79083
 11
194.6953
 21
66.11318
  0
LINE
  8
_0-0_
  6
CONTINUOUS
 62
    7
 10
194.6953
 20
66.11318
 11
194.46241
 21
65.372484
  0
LINE
  8
_0-0_
  6
CONTINUOUS
 62
    7
 10
194.46241
 20
65.372484
 11
194.37767
 21
64.589414
  0
LINE
  8
_0-0_
  6
CONTINUOUS
 62
    7
 10
226.65683
 20
64.589414
 11
226.57208
 21
65.372484
  0
LINE
  8
_0-0_
  6
CONTINUOUS
 62
    7
 10
226.57208
 20
65.372484
 11
226.33954
 21
66.11318
  0
LINE
  8
_0-0_
  6
CONTINUOUS
 62
    7
 10
226.33954
 20
66.11318
 11
225.97953
 21
66.79083
  0
LINE
  8
_0-0_
  6
CONTINUOUS
 62
    7
 10
225.97953
 20
66.79083
 11
225.49273
 21
67.404402
  0
LINE
  8
_0-0_
  6
CONTINUOUS
 62
    7
 10
225.49273
 20
67.404402
 11
224.87882
 21
67.891194
  0
LINE
  8
_0-0_
  6
CONTINUOUS
 62
    7
 10
224.87882
 20
67.891194
 11
224.20151
 21
68.251206
  0
LINE
  8
_0-0_
  6
CONTINUOUS
 62
    7
 10
224.20151
 20
68.251206
 11
223.46082
 21
68.484095
  0
LINE
  8
_0-0_
  6
CONTINUOUS
 62
    7
 10
223.46082
 20
68.484095
 11
222.67775
 21
68.568844
  0
LINE
  8
_0-0_
  6
CONTINUOUS
 62
    7
 10
222.67775
 20
68.568844
 11
221.89433
 21
68.484095
  0
LINE
  8
_0-0_
  6
CONTINUOUS
 62
    7
 10
221.89433
 20
68.484095
 11
221.15364
 21
68.251206
  0
LINE
  8
_0-0_
  6
CONTINUOUS
 62
    7
 10
221.15364
 20
68.251206
 11
220.47633
 21
67.891194
  0
LINE
  8
_0-0_
  6
CONTINUOUS
 62
    7
 10
220.47633
 20
67.891194
 11
219.86241
 21
67.404402
  0
LINE
  8
_0-0_
  6
CONTINUOUS
 62
    7
 10
219.86241
 20
67.404402
 11
219.37562
 21
66.79083
  0
LINE
  8
_0-0_
  6
CONTINUOUS
 62
    7
 10
219.37562
 20
66.79083
 11
219.01561
 21
66.11318
  0
LINE
  8
_0-0_
  6
CONTINUOUS
 62
    7
 10
219.01561
 20
66.11318
 11
218.78307
 21
65.372484
  0
LINE
  8
_0-0_
  6
CONTINUOUS
 62
    7
 10
218.78307
 20
65.372484
 11
218.69832
 21
64.589414
  0
LINE
  8
_0-0_
  6
CONTINUOUS
 62
    7
 10
213.15275
 20
77.0989
 11
212.83511
 21
76.400235
  0
LINE
  8
_0-0_
  6
CONTINUOUS
 62
    7
 10
212.83511
 20
76.400235
 11
212.66561
 21
75.63818
  0
LINE
  8
_0-0_
  6
CONTINUOUS
 62
    7
 10
212.66561
 20
75.63818
 11
212.6446
 21
74.85511
  0
LINE
  8
_0-0_
  6
CONTINUOUS
 62
    7
 10
212.6446
 20
74.85511
 11
212.77172
 21
74.093055
  0
LINE
  8
_0-0_
  6
CONTINUOUS
 62
    7
 10
212.77172
 20
74.093055
 11
213.04664
 21
73.373374
  0
LINE
  8
_0-0_
  6
CONTINUOUS
 62
    7
 10
213.04664
 20
73.373374
 11
213.44903
 21
72.696068
  0
LINE
  8
_0-0_
  6
CONTINUOUS
 62
    7
 10
213.44903
 20
72.696068
 11
213.97819
 21
72.145887
  0
LINE
  8
_0-0_
  6
CONTINUOUS
 62
    7
 10
213.97819
 20
72.145887
 11
214.61312
 21
71.68011
  0
LINE
  8
_0-0_
  6
CONTINUOUS
 62
    7
 10
214.61312
 20
71.68011
 11
215.3328
 21
71.362816
  0
LINE
  8
_0-0_
  6
CONTINUOUS
 62
    7
 10
215.3328
 20
71.362816
 11
216.0735
 21
71.193318
  0
LINE
  8
_0-0_
  6
CONTINUOUS
 62
    7
 10
216.0735
 20
71.193318
 11
216.85691
 21
71.150943
  0
LINE
  8
_0-0_
  6
CONTINUOUS
 62
    7
 10
216.85691
 20
71.150943
 11
217.61862
 21
71.278067
  0
LINE
  8
_0-0_
  6
CONTINUOUS
 62
    7
 10
217.61862
 20
71.278067
 11
218.35966
 21
71.55333
  0
LINE
  8
_0-0_
  6
CONTINUOUS
 62
    7
 10
218.35966
 20
71.55333
 11
219.01561
 21
71.976388
  0
LINE
  8
_0-0_
  6
CONTINUOUS
 62
    7
 10
219.01561
 20
71.976388
 11
219.58715
 21
72.505555
  0
LINE
  8
_0-0_
  6
CONTINUOUS
 62
    7
 10
219.58715
 20
72.505555
 11
220.03191
 21
73.14083
  0
LINE
  8
_0-0_
  6
CONTINUOUS
 62
    7
 10
220.03191
 20
73.14083
 11
220.34921
 21
73.839151
  0
LINE
  8
_0-0_
  6
CONTINUOUS
 62
    7
 10
220.34921
 20
73.839151
 11
220.53972
 21
74.601206
  0
LINE
  8
_0-0_
  6
CONTINUOUS
 62
    7
 10
220.53972
 20
74.601206
 11
220.56108
 21
75.384276
  0
LINE
  8
_0-0_
  6
CONTINUOUS
 62
    7
 10
220.56108
 20
75.384276
 11
220.43396
 21
76.146331
  0
LINE
  8
_0-0_
  6
CONTINUOUS
 62
    7
 10
220.43396
 20
76.146331
 11
220.15869
 21
76.887027
  0
LINE
  8
_0-0_
  6
CONTINUOUS
 62
    7
 10
220.15869
 20
76.887027
 11
219.75665
 21
77.543318
  0
LINE
  8
_0-0_
  6
CONTINUOUS
 62
    7
 10
219.75665
 20
77.543318
 11
219.22748
 21
78.114859
  0
LINE
  8
_0-0_
  6
CONTINUOUS
 62
    7
 10
219.22748
 20
78.114859
 11
218.59255
 21
78.559276
  0
LINE
  8
_0-0_
  6
CONTINUOUS
 62
    7
 10
218.59255
 20
78.559276
 11
217.87287
 21
78.876914
  0
LINE
  8
_0-0_
  6
CONTINUOUS
 62
    7
 10
217.87287
 20
78.876914
 11
217.11082
 21
79.067428
  0
LINE
  8
_0-0_
  6
CONTINUOUS
 62
    7
 10
217.11082
 20
79.067428
 11
216.34876
 21
79.088443
  0
LINE
  8
_0-0_
  6
CONTINUOUS
 62
    7
 10
216.34876
 20
79.088443
 11
215.56569
 21
78.961663
  0
LINE
  8
_0-0_
  6
CONTINUOUS
 62
    7
 10
215.56569
 20
78.961663
 11
214.84601
 21
78.6864
  0
LINE
  8
_0-0_
  6
CONTINUOUS
 62
    7
 10
214.84601
 20
78.6864
 11
214.18972
 21
78.284013
  0
LINE
  8
_0-0_
  6
CONTINUOUS
 62
    7
 10
214.18972
 20
78.284013
 11
213.61818
 21
77.733831
  0
LINE
  8
_0-0_
  6
CONTINUOUS
 62
    7
 10
213.61818
 20
77.733831
 11
213.15275
 21
77.0989
  0
LINE
  8
_0-0_
  6
CONTINUOUS
 62
    7
 10
201.00293
 20
73.14083
 11
201.44735
 21
72.505555
  0
LINE
  8
_0-0_
  6
CONTINUOUS
 62
    7
 10
201.44735
 20
72.505555
 11
202.01889
 21
71.976388
  0
LINE
  8
_0-0_
  6
CONTINUOUS
 62
    7
 10
202.01889
 20
71.976388
 11
202.67501
 21
71.55333
  0
LINE
  8
_0-0_
  6
CONTINUOUS
 62
    7
 10
202.67501
 20
71.55333
 11
203.41587
 21
71.278067
  0
LINE
  8
_0-0_
  6
CONTINUOUS
 62
    7
 10
203.41587
 20
71.278067
 11
204.17793
 21
71.150943
  0
LINE
  8
_0-0_
  6
CONTINUOUS
 62
    7
 10
204.17793
 20
71.150943
 11
204.961
 21
71.193318
  0
LINE
  8
_0-0_
  6
CONTINUOUS
 62
    7
 10
204.961
 20
71.193318
 11
205.72305
 21
71.362816
  0
LINE
  8
_0-0_
  6
CONTINUOUS
 62
    7
 10
205.72305
 20
71.362816
 11
206.42155
 21
71.68011
  0
LINE
  8
_0-0_
  6
CONTINUOUS
 62
    7
 10
206.42155
 20
71.68011
 11
207.05665
 21
72.145887
  0
LINE
  8
_0-0_
  6
CONTINUOUS
 62
    7
 10
207.05665
 20
72.145887
 11
207.58582
 21
72.696068
  0
LINE
  8
_0-0_
  6
CONTINUOUS
 62
    7
 10
207.58582
 20
72.696068
 11
208.00905
 21
73.373374
  0
LINE
  8
_0-0_
  6
CONTINUOUS
 62
    7
 10
208.00905
 20
73.373374
 11
208.26312
 21
74.093055
  0
LINE
  8
_0-0_
  6
CONTINUOUS
 62
    7
 10
208.26312
 20
74.093055
 11
208.39007
 21
74.85511
  0
LINE
  8
_0-0_
  6
CONTINUOUS
 62
    7
 10
208.39007
 20
74.85511
 11
208.36889
 21
75.63818
  0
LINE
  8
_0-0_
  6
CONTINUOUS
 62
    7
 10
208.36889
 20
75.63818
 11
208.19956
 21
76.400235
  0
LINE
  8
_0-0_
  6
CONTINUOUS
 62
    7
 10
208.19956
 20
76.400235
 11
207.8821
 21
77.0989
  0
LINE
  8
_0-0_
  6
CONTINUOUS
 62
    7
 10
207.8821
 20
77.0989
 11
207.41649
 21
77.733831
  0
LINE
  8
_0-0_
  6
CONTINUOUS
 62
    7
 10
207.41649
 20
77.733831
 11
206.84495
 21
78.284013
  0
LINE
  8
_0-0_
  6
CONTINUOUS
 62
    7
 10
206.84495
 20
78.284013
 11
206.18883
 21
78.6864
  0
LINE
  8
_0-0_
  6
CONTINUOUS
 62
    7
 10
206.18883
 20
78.6864
 11
205.46915
 21
78.961663
  0
LINE
  8
_0-0_
  6
CONTINUOUS
 62
    7
 10
205.46915
 20
78.961663
 11
204.7071
 21
79.088443
  0
LINE
  8
_0-0_
  6
CONTINUOUS
 62
    7
 10
204.7071
 20
79.088443
 11
203.92385
 21
79.067428
  0
LINE
  8
_0-0_
  6
CONTINUOUS
 62
    7
 10
203.92385
 20
79.067428
 11
203.16197
 21
78.876914
  0
LINE
  8
_0-0_
  6
CONTINUOUS
 62
    7
 10
203.16197
 20
78.876914
 11
202.44229
 21
78.559276
  0
LINE
  8
_0-0_
  6
CONTINUOUS
 62
    7
 10
202.44229
 20
78.559276
 11
201.82837
 21
78.114859
  0
LINE
  8
_0-0_
  6
CONTINUOUS
 62
    7
 10
201.82837
 20
78.114859
 11
201.27802
 21
77.543318
  0
LINE
  8
_0-0_
  6
CONTINUOUS
 62
    7
 10
201.27802
 20
77.543318
 11
200.87598
 21
76.887027
  0
LINE
  8
_0-0_
  6
CONTINUOUS
 62
    7
 10
200.87598
 20
76.887027
 11
200.60071
 21
76.146331
  0
LINE
  8
_0-0_
  6
CONTINUOUS
 62
    7
 10
200.60071
 20
76.146331
 11
200.47376
 21
75.384276
  0
LINE
  8
_0-0_
  6
CONTINUOUS
 62
    7
 10
200.47376
 20
75.384276
 11
200.49495
 21
74.601206
  0
LINE
  8
_0-0_
  6
CONTINUOUS
 62
    7
 10
200.49495
 20
74.601206
 11
200.68546
 21
73.839151
  0
LINE
  8
_0-0_
  6
CONTINUOUS
 62
    7
 10
200.68546
 20
73.839151
 11
201.00293
 21
73.14083
  0
LINE
  8
_0-0_
  6
CONTINUOUS
 62
    7
 10
225.28121
 20
67.594915
 11
224.92119
 21
68.949527
  0
LINE
  8
_0-0_
  6
CONTINUOUS
 62
    7
 10
224.92119
 20
68.949527
 11
224.47678
 21
70.262108
  0
LINE
  8
_0-0_
  6
CONTINUOUS
 62
    7
 10
224.47678
 20
70.262108
 11
223.88422
 21
71.510955
  0
LINE
  8
_0-0_
  6
CONTINUOUS
 62
    7
 10
223.88422
 20
71.510955
 11
223.20691
 21
72.717428
  0
LINE
  8
_0-0_
  6
CONTINUOUS
 62
    7
 10
223.20691
 20
72.717428
 11
222.40248
 21
73.839151
  0
LINE
  8
_0-0_
  6
CONTINUOUS
 62
    7
 10
222.40248
 20
73.839151
 11
221.49229
 21
74.897484
  0
LINE
  8
_0-0_
  6
CONTINUOUS
 62
    7
 10
221.49229
 20
74.897484
 11
220.49735
 21
75.871068
  0
LINE
  8
_0-0_
  6
CONTINUOUS
 62
    7
 10
215.29043
 20
78.876914
 11
213.95683
 21
79.257942
  0
LINE
  8
_0-0_
  6
CONTINUOUS
 62
    7
 10
213.95683
 20
79.257942
 11
212.60222
 21
79.511845
  0
LINE
  8
_0-0_
  6
CONTINUOUS
 62
    7
 10
212.60222
 20
79.511845
 11
211.20523
 21
79.638969
  0
LINE
  8
_0-0_
  6
CONTINUOUS
 62
    7
 10
211.20523
 20
79.638969
 11
209.82944
 21
79.638969
  0
LINE
  8
_0-0_
  6
CONTINUOUS
 62
    7
 10
209.82944
 20
79.638969
 11
208.45364
 21
79.511845
  0
LINE
  8
_0-0_
  6
CONTINUOUS
 62
    7
 10
208.45364
 20
79.511845
 11
207.07767
 21
79.257942
  0
LINE
  8
_0-0_
  6
CONTINUOUS
 62
    7
 10
207.07767
 20
79.257942
 11
205.74424
 21
78.876914
  0
LINE
  8
_0-0_
  6
CONTINUOUS
 62
    7
 10
241.79114
 20
64.589414
 11
241.70639
 21
66.769471
  0
LINE
  8
_0-0_
  6
CONTINUOUS
 62
    7
 10
241.70639
 20
66.769471
 11
241.49486
 21
68.949527
  0
LINE
  8
_0-0_
  6
CONTINUOUS
 62
    7
 10
241.49486
 20
68.949527
 11
241.11383
 21
71.087553
  0
LINE
  8
_0-0_
  6
CONTINUOUS
 62
    7
 10
241.11383
 20
71.087553
 11
240.58466
 21
73.20422
  0
LINE
  8
_0-0_
  6
CONTINUOUS
 62
    7
 10
240.58466
 20
73.20422
 11
239.90736
 21
75.278512
  0
LINE
  8
_0-0_
  6
CONTINUOUS
 62
    7
 10
239.90736
 20
75.278512
 11
239.08191
 21
77.310429
  0
LINE
  8
_0-0_
  6
CONTINUOUS
 62
    7
 10
239.08191
 20
77.310429
 11
238.12934
 21
79.278957
  0
LINE
  8
_0-0_
  6
CONTINUOUS
 62
    7
 10
238.12934
 20
79.278957
 11
237.02864
 21
81.162735
  0
LINE
  8
_0-0_
  6
CONTINUOUS
 62
    7
 10
237.02864
 20
81.162735
 11
235.82216
 21
82.983123
  0
LINE
  8
_0-0_
  6
CONTINUOUS
 62
    7
 10
235.82216
 20
82.983123
 11
234.46755
 21
84.697747
  0
LINE
  8
_0-0_
  6
CONTINUOUS
 62
    7
 10
234.46755
 20
84.697747
 11
233.00683
 21
86.306263
  0
LINE
  8
_0-0_
  6
CONTINUOUS
 62
    7
 10
233.00683
 20
86.306263
 11
231.44069
 21
87.830373
  0
LINE
  8
_0-0_
  6
CONTINUOUS
 62
    7
 10
231.44069
 20
87.830373
 11
229.76844
 21
89.227359
  0
LINE
  8
_0-0_
  6
CONTINUOUS
 62
    7
 10
229.76844
 20
89.227359
 11
228.01144
 21
90.518581
  0
LINE
  8
_0-0_
  6
CONTINUOUS
 62
    7
 10
228.01144
 20
90.518581
 11
226.14903
 21
91.682679
  0
LINE
  8
_0-0_
  6
CONTINUOUS
 62
    7
 10
226.14903
 20
91.682679
 11
224.22287
 21
92.698637
  0
LINE
  8
_0-0_
  6
CONTINUOUS
 62
    7
 10
224.22287
 20
92.698637
 11
222.23299
 21
93.587816
  0
LINE
  8
_0-0_
  6
CONTINUOUS
 62
    7
 10
222.23299
 20
93.587816
 11
220.18005
 21
94.328512
  0
LINE
  8
_0-0_
  6
CONTINUOUS
 62
    7
 10
220.18005
 20
94.328512
 11
218.0844
 21
94.942428
  0
LINE
  8
_0-0_
  6
CONTINUOUS
 62
    7
 10
218.0844
 20
94.942428
 11
215.94672
 21
95.386845
  0
LINE
  8
_0-0_
  6
CONTINUOUS
 62
    7
 10
215.94672
 20
95.386845
 11
213.78768
 21
95.683123
  0
LINE
  8
_0-0_
  6
CONTINUOUS
 62
    7
 10
213.78768
 20
95.683123
 11
211.60728
 21
95.852622
  0
LINE
  8
_0-0_
  6
CONTINUOUS
 62
    7
 10
211.60728
 20
95.852622
 11
209.42722
 21
95.852622
  0
LINE
  8
_0-0_
  6
CONTINUOUS
 62
    7
 10
209.42722
 20
95.852622
 11
207.24716
 21
95.683123
  0
LINE
  8
_0-0_
  6
CONTINUOUS
 62
    7
 10
207.24716
 20
95.683123
 11
205.08812
 21
95.386845
  0
LINE
  8
_0-0_
  6
CONTINUOUS
 62
    7
 10
205.08812
 20
95.386845
 11
202.95027
 21
94.942428
  0
LINE
  8
_0-0_
  6
CONTINUOUS
 62
    7
 10
202.95027
 20
94.942428
 11
200.85479
 21
94.328512
  0
LINE
  8
_0-0_
  6
CONTINUOUS
 62
    7
 10
200.85479
 20
94.328512
 11
198.80151
 21
93.587816
  0
LINE
  8
_0-0_
  6
CONTINUOUS
 62
    7
 10
198.80151
 20
93.587816
 11
196.81197
 21
92.698637
  0
LINE
  8
_0-0_
  6
CONTINUOUS
 62
    7
 10
196.81197
 20
92.698637
 11
194.88582
 21
91.682679
  0
LINE
  8
_0-0_
  6
CONTINUOUS
 62
    7
 10
194.88582
 20
91.682679
 11
193.02305
 21
90.518581
  0
LINE
  8
_0-0_
  6
CONTINUOUS
 62
    7
 10
193.02305
 20
90.518581
 11
191.26623
 21
89.227359
  0
LINE
  8
_0-0_
  6
CONTINUOUS
 62
    7
 10
191.26623
 20
89.227359
 11
189.59415
 21
87.830373
  0
LINE
  8
_0-0_
  6
CONTINUOUS
 62
    7
 10
189.59415
 20
87.830373
 11
188.02767
 21
86.306263
  0
LINE
  8
_0-0_
  6
CONTINUOUS
 62
    7
 10
188.02767
 20
86.306263
 11
186.56729
 21
84.697747
  0
LINE
  8
_0-0_
  6
CONTINUOUS
 62
    7
 10
186.56729
 20
84.697747
 11
185.21251
 21
82.983123
  0
LINE
  8
_0-0_
  6
CONTINUOUS
 62
    7
 10
185.21251
 20
82.983123
 11
184.00603
 21
81.162735
  0
LINE
  8
_0-0_
  6
CONTINUOUS
 62
    7
 10
184.00603
 20
81.162735
 11
182.9055
 21
79.278957
  0
LINE
  8
_0-0_
  6
CONTINUOUS
 62
    7
 10
182.9055
 20
79.278957
 11
181.95293
 21
77.310429
  0
LINE
  8
_0-0_
  6
CONTINUOUS
 62
    7
 10
181.95293
 20
77.310429
 11
181.12748
 21
75.278512
  0
LINE
  8
_0-0_
  6
CONTINUOUS
 62
    7
 10
181.12748
 20
75.278512
 11
180.45001
 21
73.20422
  0
LINE
  8
_0-0_
  6
CONTINUOUS
 62
    7
 10
180.45001
 20
73.20422
 11
179.92084
 21
71.087553
  0
LINE
  8
_0-0_
  6
CONTINUOUS
 62
    7
 10
179.92084
 20
71.087553
 11
179.561
 21
68.949527
  0
LINE
  8
_0-0_
  6
CONTINUOUS
 62
    7
 10
179.561
 20
68.949527
 11
179.32828
 21
66.769471
  0
LINE
  8
_0-0_
  6
CONTINUOUS
 62
    7
 10
179.32828
 20
66.769471
 11
179.24353
 21
64.589414
  0
LINE
  8
_0-0_
  6
CONTINUOUS
 62
    7
 10
230.69965
 20
64.589414
 11
230.61525
 21
66.346068
  0
LINE
  8
_0-0_
  6
CONTINUOUS
 62
    7
 10
230.61525
 20
66.346068
 11
230.38236
 21
68.103067
  0
LINE
  8
_0-0_
  6
CONTINUOUS
 62
    7
 10
230.38236
 20
68.103067
 11
230.00133
 21
69.817347
  0
LINE
  8
_0-0_
  6
CONTINUOUS
 62
    7
 10
230.00133
 20
69.817347
 11
229.47216
 21
71.489596
  0
LINE
  8
_0-0_
  6
CONTINUOUS
 62
    7
 10
229.47216
 20
71.489596
 11
228.79486
 21
73.119471
  0
LINE
  8
_0-0_
  6
CONTINUOUS
 62
    7
 10
228.79486
 20
73.119471
 11
227.99043
 21
74.685955
  0
LINE
  8
_0-0_
  6
CONTINUOUS
 62
    7
 10
227.99043
 20
74.685955
 11
227.03786
 21
76.167347
  0
LINE
  8
_0-0_
  6
CONTINUOUS
 62
    7
 10
227.03786
 20
76.167347
 11
225.97953
 21
77.564677
  0
LINE
  8
_0-0_
  6
CONTINUOUS
 62
    7
 10
225.97953
 20
77.564677
 11
224.77305
 21
78.855555
  0
LINE
  8
_0-0_
  6
CONTINUOUS
 62
    7
 10
224.77305
 20
78.855555
 11
223.48183
 21
80.041012
  0
LINE
  8
_0-0_
  6
CONTINUOUS
 62
    7
 10
223.48183
 20
80.041012
 11
222.08485
 21
81.12036
  0
LINE
  8
_0-0_
  6
CONTINUOUS
 62
    7
 10
222.08485
 20
81.12036
 11
220.60311
 21
82.051914
  0
LINE
  8
_0-0_
  6
CONTINUOUS
 62
    7
 10
220.60311
 20
82.051914
 11
219.03697
 21
82.877359
  0
LINE
  8
_0-0_
  6
CONTINUOUS
 62
    7
 10
219.03697
 20
82.877359
 11
217.42811
 21
83.554665
  0
LINE
  8
_0-0_
  6
CONTINUOUS
 62
    7
 10
217.42811
 20
83.554665
 11
215.73485
 21
84.083831
  0
LINE
  8
_0-0_
  6
CONTINUOUS
 62
    7
 10
215.73485
 20
84.083831
 11
214.02057
 21
84.464859
  0
LINE
  8
_0-0_
  6
CONTINUOUS
 62
    7
 10
214.02057
 20
84.464859
 11
212.28458
 21
84.697747
  0
LINE
  8
_0-0_
  6
CONTINUOUS
 62
    7
 10
212.28458
 20
84.697747
 11
210.52793
 21
84.761137
  0
LINE
  8
_0-0_
  6
CONTINUOUS
 62
    7
 10
210.52793
 20
84.761137
 11
208.74991
 21
84.697747
  0
LINE
  8
_0-0_
  6
CONTINUOUS
 62
    7
 10
208.74991
 20
84.697747
 11
207.01428
 21
84.464859
  0
LINE
  8
_0-0_
  6
CONTINUOUS
 62
    7
 10
207.01428
 20
84.464859
 11
205.29982
 21
84.083831
  0
LINE
  8
_0-0_
  6
CONTINUOUS
 62
    7
 10
205.29982
 20
84.083831
 11
203.62757
 21
83.554665
  0
LINE
  8
_0-0_
  6
CONTINUOUS
 62
    7
 10
203.62757
 20
83.554665
 11
201.9977
 21
82.877359
  0
LINE
  8
_0-0_
  6
CONTINUOUS
 62
    7
 10
201.9977
 20
82.877359
 11
200.43139
 21
82.051914
  0
LINE
  8
_0-0_
  6
CONTINUOUS
 62
    7
 10
200.43139
 20
82.051914
 11
198.94982
 21
81.12036
  0
LINE
  8
_0-0_
  6
CONTINUOUS
 62
    7
 10
198.94982
 20
81.12036
 11
197.55267
 21
80.041012
  0
LINE
  8
_0-0_
  6
CONTINUOUS
 62
    7
 10
197.55267
 20
80.041012
 11
196.26162
 21
78.855555
  0
LINE
  8
_0-0_
  6
CONTINUOUS
 62
    7
 10
196.26162
 20
78.855555
 11
195.05514
 21
77.564677
  0
LINE
  8
_0-0_
  6
CONTINUOUS
 62
    7
 10
195.05514
 20
77.564677
 11
193.99681
 21
76.167347
  0
LINE
  8
_0-0_
  6
CONTINUOUS
 62
    7
 10
193.99681
 20
76.167347
 11
193.04424
 21
74.685955
  0
LINE
  8
_0-0_
  6
CONTINUOUS
 62
    7
 10
193.04424
 20
74.685955
 11
192.23998
 21
73.119471
  0
LINE
  8
_0-0_
  6
CONTINUOUS
 62
    7
 10
192.23998
 20
73.119471
 11
191.56251
 21
71.489596
  0
LINE
  8
_0-0_
  6
CONTINUOUS
 62
    7
 10
191.56251
 20
71.489596
 11
191.03334
 21
69.817347
  0
LINE
  8
_0-0_
  6
CONTINUOUS
 62
    7
 10
191.03334
 20
69.817347
 11
190.65248
 21
68.103067
  0
LINE
  8
_0-0_
  6
CONTINUOUS
 62
    7
 10
190.65248
 20
68.103067
 11
190.4196
 21
66.346068
  0
LINE
  8
_0-0_
  6
CONTINUOUS
 62
    7
 10
190.4196
 20
66.346068
 11
190.35603
 21
64.589414
  0
TEXT
  8
_0-0_
 62
    3
 10
257.87621
 20
21.338966
 40
5
 41
1
 50
0
  1
RP-147.555.5
  0
LINE
  8
_0-0_
  6
CONTINUOUS
 62
    7
 10
178.24876
 20
256.06299
 11
242.78591
 21
256.06299
  0
LINE
  8
_0-0_
  6
CONTINUOUS
 62
    7
 10
178.24876
 20
256.06299
 11
181.14654
 21
256.83945
  0
LINE
  8
_0-0_
  6
CONTINUOUS
 62
    7
 10
178.24876
 20
256.06299
 11
181.14654
 21
255.28654
  0
LINE
  8
_0-0_
  6
CONTINUOUS
 62
    7
 10
242.78591
 20
256.06299
 11
239.88813
 21
256.83945
  0
LINE
  8
_0-0_
  6
CONTINUOUS
 62
    7
 10
242.78591
 20
256.06299
 11
239.88813
 21
255.28654
  0
TEXT
  8
_0-0_
 62
    7
 10
207.14233
 20
256.06299
 40
3
 41
1
 50
0
  1
φ65
  0
LINE
  8
_0-0_
  6
CONTINUOUS
 62
    7
 10
179.24371
 20
206.59659
 11
241.79131
 21
206.59659
  0
LINE
  8
_0-0_
  6
CONTINUOUS
 62
    7
 10
179.24371
 20
206.59659
 11
182.14148
 21
207.37305
  0
LINE
  8
_0-0_
  6
CONTINUOUS
 62
    7
 10
179.24371
 20
206.59659
 11
182.14148
 21
205.82013
  0
LINE
  8
_0-0_
  6
CONTINUOUS
 62
    7
 10
241.79131
 20
206.59659
 11
238.89353
 21
207.37305
  0
LINE
  8
_0-0_
  6
CONTINUOUS
 62
    7
 10
241.79131
 20
206.59659
 11
238.89353
 21
205.82013
  0
TEXT
  8
_0-0_
 62
    7
 10
207.14251
 20
206.59659
 40
3
 41
1
 50
0
  1
φ63
  0
LINE
  8
_0-0_
  6
CONTINUOUS
 62
    7
 10
189.9328
 20
100.99615
 11
231.12323
 21
100.99615
  0
LINE
  8
_0-0_
  6
CONTINUOUS
 62
    7
 10
189.9328
 20
100.99615
 11
192.83058
 21
101.7726
  0
LINE
  8
_0-0_
  6
CONTINUOUS
 62
    7
 10
189.9328
 20
100.99615
 11
192.83058
 21
100.21969
  0
LINE
  8
_0-0_
  6
CONTINUOUS
 62
    7
 10
231.12323
 20
100.99615
 11
228.22545
 21
101.7726
  0
LINE
  8
_0-0_
  6
CONTINUOUS
 62
    7
 10
231.12323
 20
100.99615
 11
228.22545
 21
100.21969
  0
TEXT
  8
_0-0_
 62
    7
 10
204.52801
 20
100.99615
 40
3
 41
1
 50
0
  1
G-1 1/4
  0
LINE
  8
_0-0_
  6
CONTINUOUS
 62
    7
 10
141.05516
 20
157.93427
 11
141.05516
 21
190.67922
  0
LINE
  8
_0-0_
  6
CONTINUOUS
 62
    7
 10
141.05516
 20
157.93427
 11
140.2787
 21
160.83205
  0
LINE
  8
_0-0_
  6
CONTINUOUS
 62
    7
 10
141.05516
 20
157.93427
 11
141.83162
 21
160.83205
  0
LINE
  8
_0-0_
  6
CONTINUOUS
 62
    7
 10
141.05516
 20
190.67922
 11
140.2787
 21
187.78144
  0
LINE
  8
_0-0_
  6
CONTINUOUS
 62
    7
 10
141.05516
 20
190.67922
 11
141.83162
 21
187.78144
  0
TEXT
  8
_0-0_
 62
    7
 10
141.05516
 20
172.68174
 40
3
 41
1
 50
90
  1
33
  0
LINE
  8
_0-0_
  6
CONTINUOUS
 62
    7
 10
266.95116
 20
112.78595
 11
266.95116
 21
155.26742
  0
LINE
  8
_0-0_
  6
CONTINUOUS
 62
    7
 10
266.95116
 20
112.78595
 11
266.1747
 21
115.68373
  0
LINE
  8
_0-0_
  6
CONTINUOUS
 62
    7
 10
266.95116
 20
112.78595
 11
267.72761
 21
115.68373
  0
LINE
  8
_0-0_
  6
CONTINUOUS
 62
    7
 10
266.95116
 20
155.26742
 11
266.1747
 21
152.36965
  0
LINE
  8
_0-0_
  6
CONTINUOUS
 62
    7
 10
266.95116
 20
155.26742
 11
267.72761
 21
152.36965
  0
LINE
  8
_0-0_
  6
CONTINUOUS
 62
    7
 10
266.95116
 20
155.26742
 11
266.95116
 21
189.68427
  0
LINE
  8
_0-0_
  6
CONTINUOUS
 62
    7
 10
266.95116
 20
155.26742
 11
266.1747
 21
158.1652
  0
LINE
  8
_0-0_
  6
CONTINUOUS
 62
    7
 10
266.95116
 20
155.26742
 11
267.72761
 21
158.1652
  0
LINE
  8
_0-0_
  6
CONTINUOUS
 62
    7
 10
266.95116
 20
189.68427
 11
266.1747
 21
186.78649
  0
LINE
  8
_0-0_
  6
CONTINUOUS
 62
    7
 10
266.95116
 20
189.68427
 11
267.72761
 21
186.78649
  0
TEXT
  8
_0-0_
 62
    7
 10
266.95116
 20
167.35085
 40
3
 41
1
 50
90
  1
26～45
  0
TEXT
  8
_0-0_
 62
    7
 10
266.95116
 20
132.40169
 40
3
 41
1
 50
90
  1
40
  0
LINE
  8
_0-0_
  6
CONTINUOUS
 62
    7
 10
247.15213
 20
112.78595
 11
247.15213
 21
107.78595
  0
LINE
  8
_0-0_
  6
CONTINUOUS
 62
    7
 10
247.15213
 20
122.71299
 11
247.15213
 21
127.71299
  0
LINE
  8
_0-0_
  6
CONTINUOUS
 62
    7
 10
247.15213
 20
112.78595
 11
247.15213
 21
122.71299
  0
LINE
  8
_0-0_
  6
CONTINUOUS
 62
    7
 10
247.15213
 20
112.78595
 11
247.92859
 21
109.88817
  0
LINE
  8
_0-0_
  6
CONTINUOUS
 62
    7
 10
247.15213
 20
112.78595
 11
246.37567
 21
109.88817
  0
LINE
  8
_0-0_
  6
CONTINUOUS
 62
    7
 10
247.15213
 20
122.71299
 11
247.92859
 21
125.61077
  0
LINE
  8
_0-0_
  6
CONTINUOUS
 62
    7
 10
247.15213
 20
122.71299
 11
246.37567
 21
125.61077
  0
TEXT
  8
_0-0_
 62
    7
 10
247.15213
 20
116.12447
 40
3
 41
1
 50
90
  1
10
  0
LINE
  8
_0-0_
  6
CONTINUOUS
 62
    7
 10
266.95116
 20
155.26742
 11
241.05027
 21
155.26742
  0
LINE
  8
_0-0_
  6
CONTINUOUS
 62
    7
 10
247.15213
 20
122.71299
 11
233.11277
 21
122.71299
  0
LINE
  8
_0-0_
  6
CONTINUOUS
 62
    7
 10
250.97604
 20
189.68427
 11
250.97604
 21
184.68427
  0
LINE
  8
_0-0_
  6
CONTINUOUS
 62
    7
 10
250.97604
 20
190.67922
 11
250.97604
 21
195.67922
  0
LINE
  8
_0-0_
  6
CONTINUOUS
 62
    7
 10
250.97604
 20
189.68427
 11
250.97604
 21
190.67922
  0
LINE
  8
_0-0_
  6
CONTINUOUS
 62
    7
 10
250.97604
 20
189.68427
 11
251.7525
 21
186.78649
  0
LINE
  8
_0-0_
  6
CONTINUOUS
 62
    7
 10
250.97604
 20
189.68427
 11
250.19959
 21
186.78649
  0
LINE
  8
_0-0_
  6
CONTINUOUS
 62
    7
 10
250.97604
 20
190.67922
 11
251.7525
 21
193.57699
  0
LINE
  8
_0-0_
  6
CONTINUOUS
 62
    7
 10
250.97604
 20
190.67922
 11
250.19959
 21
193.57699
  0
TEXT
  8
_0-0_
 62
    7
 10
250.97604
 20
189.43174
 40
3
 41
1
 50
90
  1
1
  0
LINE
  8
_0-0_
  6
CONTINUOUS
 62
    7
 10
141.05516
 20
157.93427
 11
210.52793
 21
157.93427
  0
LINE
  8
_0-0_
  6
CONTINUOUS
 62
    7
 10
141.05516
 20
190.67922
 11
179.24371
 21
190.67922
  0
LINE
  8
_0-0_
  6
CONTINUOUS
 62
    7
 10
266.95116
 20
155.26742
 11
241.09264
 21
155.26742
  0
LINE
  8
_0-0_
  6
CONTINUOUS
 62
    7
 10
266.95116
 20
189.68427
 11
241.83334
 21
189.68427
  0
LINE
  8
_0-0_
  6
CONTINUOUS
 62
    7
 10
266.95116
 20
112.78595
 11
230.12828
 21
112.78595
  0
LINE
  8
_0-0_
  6
CONTINUOUS
 62
    7
 10
268.19925
 20
217.20094
 11
268.19925
 21
212.20094
  0
LINE
  8
_0-0_
  6
CONTINUOUS
 62
    7
 10
268.19925
 20
246.49562
 11
268.19925
 21
251.49562
  0
LINE
  8
_0-0_
  6
CONTINUOUS
 62
    7
 10
268.19925
 20
217.20094
 11
268.19925
 21
246.49562
  0
LINE
  8
_0-0_
  6
CONTINUOUS
 62
    7
 10
268.19925
 20
217.20094
 11
268.97571
 21
214.30316
  0
LINE
  8
_0-0_
  6
CONTINUOUS
 62
    7
 10
268.19925
 20
217.20094
 11
267.4228
 21
214.30316
  0
LINE
  8
_0-0_
  6
CONTINUOUS
 62
    7
 10
268.19925
 20
246.49562
 11
268.97571
 21
249.3934
  0
LINE
  8
_0-0_
  6
CONTINUOUS
 62
    7
 10
268.19925
 20
246.49562
 11
267.4228
 21
249.3934
  0
TEXT
  8
_0-0_
 62
    7
 10
268.19925
 20
228.47328
 40
3
 41
1
 50
90
  1
29.5
  0
LINE
  8
_0-0_
  6
CONTINUOUS
 62
    7
 10
268.19925
 20
217.20094
 11
228.83706
 21
217.20094
  0
LINE
  8
_0-0_
  6
CONTINUOUS
 62
    7
 10
268.19925
 20
246.49562
 11
210.52793
 21
246.49562
  0
ENDSEC
  0
EOF
