  0
SECTION
  2
HEADER
  9
$ACADVER
  1
AC1009
  9
$INSBASE
 10
0
 20
0
 30
0
  9
$EXTMIN
 10
0
 20
0
  9
$EXTMAX
 10
2500
 20
1768.25
  9
$LIMMIN
 10
0
 20
0
  9
$LIMMAX
 10
2500
 20
1768.25
  9
$LTSCALE
 40
0.25
  0
ENDSEC
  0
SECTION
  2
TABLES
  0
TABLE
  2
LTYPE
 70
     9
  0
LTYPE
  2
CONTINUOUS
 70
    64
  3
実線
 72
    65
 73
     0
 40
0.0
  0
LTYPE
  2
DASHED1
 70
    64
  3
--  --  --  --  --  --  --  --  
 72
    65
 73
     2
 40
2.5
 49
1.25
 49
-1.25
  0
LTYPE
  2
DASHED2
 70
    64
  3
----    ----    ----    ----    
 72
    65
 73
     2
 40
5.0
 49
2.5
 49
-2.5
  0
LTYPE
  2
DASHED3
 70
    64
  3
------  ------  ------  ------  
 72
    65
 73
     2
 40
5.0
 49
3.75
 49
-1.25
  0
LTYPE
  2
CENTER1
 70
    64
  3
----- - ----- - ----- - ----- - 
 72
    65
 73
     4
 40
10.0
 49
6.25
 49
-1.25
 49
1.25
 49
-1.25
  0
LTYPE
  2
CENTER2
 70
    64
  3
----------  --  ----------  --  
 72
    65
 73
     4
 40
20.0
 49
12.5
 49
-2.5
 49
2.5
 49
-2.5
  0
LTYPE
  2
PHANTOM1
 70
    64
  3
--- - - --- - - --- - - --- - - 
 72
    65
 73
     6
 40
10.0
 49
3.25
 49
-1.25
 49
1.25
 49
-1.25
 49
1.25
 49
-1.25
  0
LTYPE
  2
PHANTOM2
 70
    64
  3
--------  -  -  --------  -  -  
 72
    65
 73
     6
 40
20.0
 49
10.0
 49
-2.5
 49
1.25
 49
-2.5
 49
1.25
 49
-2.5
  0
LTYPE
  2
DOT
 70
    64
  3
-   -   -   -   -   -   -   -   
 72
    65
 73
     2
 40
2.5
 49
0.625
 49
-1.875
  0
LTYPE
  2
DUMMY
 70
    64
  3
ダミー
 72
    65
 73
     0
 40
0.0
  0
LTYPE
  2
RAND1
 70
    64
  3
ランダム線1
 72
    65
 73
     4
 40
10.0
 49
1.0
 49
-2.0
 49
3.0
 49
-4.0
  0
LTYPE
  2
RAND2
 70
    64
  3
ランダム線2
 72
    65
 73
     4
 40
14.0
 49
2.0
 49
-3.0
 49
4.0
 49
-5.0
  0
LTYPE
  2
RAND3
 70
    64
  3
ランダム線3
 72
    65
 73
     4
 40
18.0
 49
3.0
 49
-4.0
 49
5.0
 49
-6.0
  0
LTYPE
  2
RAND4
 70
    64
  3
ランダム線4
 72
    65
 73
     4
 40
22.0
 49
4.0
 49
-5.0
 49
6.0
 49
-7.0
  0
LTYPE
  2
RAND5
 70
    64
  3
ランダム線5
 72
    65
 73
     4
 40
26.0
 49
5.0
 49
-6.0
 49
7.0
 49
-8.0
  0
LTYPE
  2
LONG1
 70
    64
  3
----------  --  ----------  --  
 72
    65
 73
     4
 40
40.0
 49
32.5
 49
-2.5
 49
2.5
 49
-2.5
  0
LTYPE
  2
LONG2
 70
    64
  3
--------  -  -  --------  -  -  
 72
    65
 73
     6
 40
40.0
 49
30.0
 49
-2.5
 49
1.25
 49
-2.5
 49
1.25
 49
-2.5
  0
LTYPE
  2
LONG3
 70
    64
  3
+++++++++++++++..+++++++++++++++
 72
    65
 73
     2
 40
40.0
 49
37.5
 49
-2.5
  0
LTYPE
  2
LONG4
 70
    64
  3
+++++++++++++++..+++++++++++++++
 72
    65
 73
     2
 40
80.0
 49
75.0
 49
-5.0
  0
LTYPE
  2
LONG5
 70
    64
  3
----------  --  ----------  --  
 72
    65
 73
     4
 40
60.0
 49
37.5
 49
-7.5
 49
7.5
 49
-7.5
  0
LTYPE
  2
dashed
 70
   64
  3
-------   -------------   ------
 72
   65
 73
    2
 40
7.5
 49
6
 49
-1.5
  0
LTYPE
  2
dashed_spaced
 70
   64
  3
----        --------        ----
 72
   65
 73
    2
 40
12
 49
6
 49
-6
  0
LTYPE
  2
long_dashed_dotted
 70
   64
  3
------------- --- --------------
 72
   65
 73
    4
 40
15.25
 49
12
 49
-1.5
 49
0.25
 49
-1.5
  0
LTYPE
  2
long_dashed_double-dotted
 70
   64
  3
----------- --- --- ------------
 72
   65
 73
    6
 40
17
 49
12
 49
-1.5
 49
0.25
 49
-1.5
 49
0.25
 49
-1.5
  0
LTYPE
  2
long_dashed_triplicate-dotted
 70
   64
  3
--------- --- --- --- ----------
 72
   65
 73
    8
 40
18.75
 49
12
 49
-1.5
 49
0.25
 49
-1.5
 49
0.25
 49
-1.5
 49
0.25
 49
-1.5
  0
LTYPE
  2
dotted
 70
   64
  3
   -       -       -       -    
 72
   65
 73
    2
 40
1.75
 49
0.25
 49
-1.5
  0
LTYPE
  2
chain
 70
   64
  3
-------------- -- --------------
 72
   65
 73
    4
 40
18.5
 49
12
 49
-1.5
 49
3.5
 49
-1.5
  0
LTYPE
  2
chain_double_dash
 70
   64
  3
------------ -- -- -------------
 72
   65
 73
    6
 40
23.5
 49
12
 49
-1.5
 49
3.5
 49
-1.5
 49
3.5
 49
-1.5
  0
LTYPE
  2
dashed_dotted
 70
   64
  3
-----------     -     ----------
 72
   65
 73
    4
 40
9.25
 49
6
 49
-1.5
 49
0.25
 49
-1.5
  0
LTYPE
  2
double-dashed_dotted
 70
   64
  3
------   -----------   -   -----
 72
   65
 73
    6
 40
16.75
 49
6
 49
-1.5
 49
6
 49
-1.5
 49
0.25
 49
-1.5
  0
LTYPE
  2
dashed_double-dotted
 70
   64
  3
---------    -    -    ---------
 72
   65
 73
    6
 40
11
 49
6
 49
-1.5
 49
0.25
 49
-1.5
 49
0.25
 49
-1.5
  0
LTYPE
  2
double-dashed_double-dotted
 70
   64
  3
-----   ---------   -   -   ----
 72
   65
 73
    8
 40
18.5
 49
6
 49
-1.5
 49
6
 49
-1.5
 49
0.25
 49
-1.5
 49
0.25
 49
-1.5
  0
LTYPE
  2
dashed_triplicate-dotted
 70
   64
  3
-------    -    -    -    ------
 72
   65
 73
    8
 40
12.75
 49
6
 49
-1.5
 49
0.25
 49
-1.5
 49
0.25
 49
-1.5
 49
0.25
 49
-1.5
  0
LTYPE
  2
double-dashed_triplicate-dotted
 70
   64
  3
-----  ---------  -  -  -  -----
 72
   65
 73
   10
 40
20.25
 49
6
 49
-1.5
 49
6
 49
-1.5
 49
0.25
 49
-1.5
 49
0.25
 49
-1.5
 49
0.25
 49
-1.5
  0
LTYPE
  2
undefined
 70
   64
  3
--------------------------------
 72
   65
 73
    0
 40
0
  0
LTYPE
  2
CENTER
 70
   64
  3
----------    ----    ----------
 72
   65
 73
    4
 40
50.799999999999983
 49
31.75
 49
-6.3499999999999979
 49
6.3499999999999979
 49
-6.3499999999999979
  0
LTYPE
  2
HIDDEN
 70
   64
  3
------     -----------     -----
 72
   65
 73
    2
 40
9.524999999999995
 49
6.3499999999999979
 49
-3.174999999999998
  0
LTYPE
  2
CENTER2_19
 70
   64
  3
----------    ----    ----------
 72
   65
 73
    4
 40
28.574999999999996
 49
19.050000000000001
 49
-3.1749999999999989
 49
3.1749999999999989
 49
-3.1749999999999989
  0
LTYPE
  2
DASHED
 70
   64
  3
------     -----------     -----
 72
   65
 73
    2
 40
19.049999999999997
 49
12.699999999999999
 49
-6.3499999999999988
  0
LTYPE
  2
DASHDOT
 70
   64
  3
--------        -        -------
 72
   65
 73
    4
 40
1.01
 49
0.5
 49
-0.25
 49
0.01
 49
-0.25
  0
ENDTAB
  0
TABLE
  2
STYLE
  5
3
100
AcDbSymbolTable
 70
     1
  0
STYLE
  5
10
100
AcDbSymbolTableRecord
100
AcDbTextStyleTableRecord
  2
STANDARD
 70
     0
 40
0.0
 41
1.0
 50
0.0
 71
     0
 42
0.2
  3
txt
  4
bigfont.shx
  0
STYLE
  5
26
100
AcDbSymbolTableRecord
100
AcDbTextStyleTableRecord
  2
TATEGAKI
 70
    68
 40
0.0
 41
1.0
 50
0.0
 71
     0
 42
1.0
  3
txt
  4
bigfont.shx
  0
ENDTAB
  0
TABLE
  2
LAYER
 70
   10
  0
LAYER
  2
_0-1_LYR_00
 70
   64
 62
    7
  6
CONTINUOUS
  0
LAYER
  2
_0-2_0
 70
   64
 62
    7
  6
CONTINUOUS
  0
LAYER
  2
_0-3_寸法線
 70
   64
 62
    7
  6
CONTINUOUS
  0
LAYER
  2
_0-4_中心線
 70
   64
 62
    7
  6
CONTINUOUS
  0
LAYER
  2
_0-6_中線
 70
   64
 62
    7
  6
CONTINUOUS
  0
LAYER
  2
_0-7_図面枠
 70
   64
 62
    7
  6
CONTINUOUS
  0
LAYER
  2
_0-8_細線
 70
   64
 62
    7
  6
CONTINUOUS
  0
LAYER
  2
_0-9__0-0_
 70
   64
 62
    7
  6
CONTINUOUS
  0
LAYER
  2
_0-a_文字
 70
   64
 62
    7
  6
CONTINUOUS
  0
LAYER
  2
ADD_LINE
 70
   64
 62
    7
  6
CONTINUOUS
  0
ENDTAB
  0
ENDSEC
  0
SECTION
  2
BLOCKS
  0
ENDSEC
  0
SECTION
  2
ENTITIES
  0
LINE
  8
_0-6_中線
  6
CONTINUOUS
 62
    6
 10
587.50580938536882
 20
423.25748847355089
 11
587.50580938536882
 21
428.25748847355089
  0
LINE
  8
_0-6_中線
  6
CONTINUOUS
 62
    6
 10
649.50580938536882
 20
423.25748847355089
 11
649.50580938536882
 21
428.25748847355089
  0
ARC
  8
_0-6_中線
  6
CONTINUOUS
 62
    6
 10
657.33080938536909
 20
417.87628550857647
 40
13
 50
99.228601151458918
 51
127.00775239845942
  0
LINE
  8
_0-6_中線
  6
CONTINUOUS
 62
    6
 10
587.50580938536882
 20
428.25748847355089
 11
649.50580938536882
 21
428.25748847355089
  0
LINE
  8
_0-6_中線
  6
CONTINUOUS
 62
    6
 10
587.50580938536882
 20
423.25748847355101
 11
649.50580938536882
 21
423.25748847355089
  0
LINE
  8
_0-6_中線
  6
CONTINUOUS
 62
    6
 10
595.00580938536882
 20
412.77845772059527
 11
595.00580938536882
 21
415.75748847355089
  0
LINE
  8
_0-6_中線
  6
CONTINUOUS
 62
    6
 10
642.00580938536882
 20
412.77845772059527
 11
642.00580938536882
 21
415.75748847355089
  0
LINE
  8
_0-6_中線
  6
CONTINUOUS
 62
    6
 10
587.50580938536882
 20
423.25748847355089
 11
595.00580938536882
 21
415.75748847355089
  0
LINE
  8
_0-6_中線
  6
CONTINUOUS
 62
    6
 10
642.00580938536882
 20
415.75748847355089
 11
649.50580938536882
 21
423.25748847355089
  0
LINE
  8
_0-6_中線
  6
CONTINUOUS
 62
    6
 10
595.00580938536882
 20
415.75748847355089
 11
642.00580938536882
 21
415.75748847355089
  0
LINE
  8
_0-6_中線
  6
CONTINUOUS
 62
    6
 10
642.00580938536882
 20
412.77845772059527
 11
595.00580938536882
 21
412.77845772059527
  0
ARC
  8
_0-6_中線
  6
CONTINUOUS
 62
    6
 10
595.00580955240116
 20
434.29596616641936
 40
21.517508445823921
 50
215.63598603326798
 51
269.99999955523924
  0
LINE
  8
_0-4_中心線
  6
CONTINUOUS
 62
    3
 10
618.50580938536825
 20
361.80491241897391
 11
618.50580938536791
 21
610.84234593641327
  0
ARC
  8
_0-6_中線
  6
CONTINUOUS
 62
    6
 10
418.34570874437782
 20
808.49892713093902
 40
100
 50
180
 51
292.61986494804609
  0
ARC
  8
_0-6_中線
  6
CONTINUOUS
 62
    6
 10
618.34570874437782
 20
328.49892713093902
 40
420
 50
67.380135051953928
 51
112.61986494804601
  0
ARC
  8
_0-6_中線
  6
CONTINUOUS
 62
    6
 10
818.34570874437793
 20
808.49892713093902
 40
100
 50
247.38013505195391
 51
0.0000000000000127
  0
ARC
  8
_0-6_中線
  6
CONTINUOUS
 62
    6
 10
618.34570874437782
 20
808.49892713093902
 40
300
 50
0
 51
180
  0
ARC
  8
_0-6_中線
  6
CONTINUOUS
 62
    6
 10
618.34570874437782
 20
808.49892713093902
 40
311
 50
0
 51
180
  0
ARC
  8
_0-6_中線
  6
CONTINUOUS
 62
    6
 10
818.34570874437793
 20
808.49892713093902
 40
111
 50
247.38013505195391
 51
0.0000000000000127
  0
ARC
  8
_0-6_中線
  6
CONTINUOUS
 62
    6
 10
618.34570874437782
 20
328.49892713093902
 40
409
 50
67.380135051953928
 51
112.61986494804601
  0
ARC
  8
_0-6_中線
  6
CONTINUOUS
 62
    6
 10
418.34570874437782
 20
808.49892713093902
 40
111
 50
180
 51
292.61986494804609
  0
LINE
  8
ADD_LINE
  6
DOT
 62
    7
 10
618.34570874437782
 20
1108.4989271309391
 11
1204.1010863498345
 21
1108.4989271309391
  0
LINE
  8
ADD_LINE
  6
DOT
 62
    7
 10
618.34570874437782
 20
748.49892713093902
 11
1210.7802963649915
 21
748.49892713093902
  0
LINE
  8
_0-6_中線
  6
CONTINUOUS
 62
    6
 10
1042.6795341367126
 20
1117.8164127546299
 11
1042.6795341367126
 21
739.18144150724822
  0
LINE
  8
_0-6_中線
  6
CONTINUOUS
 62
    6
 10
1042.6795341367126
 20
748.49892713093902
 11
1069.0850342941567
 21
755.57425957386602
  0
LINE
  8
_0-6_中線
  6
CONTINUOUS
 62
    6
 10
1042.6795341367126
 20
739.18144150724822
 11
1071.4144057000797
 21
746.88092713726439
  0
LINE
  8
_0-6_中線
  6
CONTINUOUS
 62
    6
 10
1162.6795341367126
 20
947.49892696390714
 11
1157.6795341367126
 21
947.49892696390714
  0
LINE
  8
_0-6_中線
  6
CONTINUOUS
 62
    6
 10
1162.6795341367126
 20
1009.4989271309395
 11
1157.6795341367126
 21
1009.4989271309395
  0
LINE
  8
_0-6_中線
  6
CONTINUOUS
 62
    6
 10
1157.6795341367126
 20
947.49892696390714
 11
1157.6795341367126
 21
1009.4989271309395
  0
LINE
  8
_0-6_中線
  6
CONTINUOUS
 62
    6
 10
1162.6795341367126
 20
947.49892696390714
 11
1162.6795341367126
 21
1009.4989271309395
  0
LINE
  8
_0-6_中線
  6
CONTINUOUS
 62
    6
 10
1173.1585648896687
 20
954.99892696390714
 11
1170.1795341367126
 21
954.99892696390714
  0
LINE
  8
_0-6_中線
  6
CONTINUOUS
 62
    6
 10
1173.1585648896687
 20
1001.9989271309394
 11
1170.1795341367126
 21
1001.9989271309394
  0
LINE
  8
_0-6_中線
  6
CONTINUOUS
 62
    6
 10
1162.6795341367126
 20
947.49892696390714
 11
1170.1795341367126
 21
954.99892696390714
  0
LINE
  8
_0-6_中線
  6
CONTINUOUS
 62
    6
 10
1170.1795341367126
 20
1001.9989271309394
 11
1162.6795341367126
 21
1009.4989271309395
  0
LINE
  8
_0-6_中線
  6
CONTINUOUS
 62
    6
 10
1170.1795341367126
 20
954.99892696390702
 11
1170.1795341367126
 21
1001.9989271309394
  0
LINE
  8
_0-6_中線
  6
CONTINUOUS
 62
    6
 10
1173.1585648896687
 20
1001.9989271309394
 11
1173.1585648896687
 21
954.99892696390714
  0
LINE
  8
_0-4_中心線
  6
CONTINUOUS
 62
    3
 10
537.00580938536882
 20
978.49892713093891
 11
700.00580938536882
 21
978.49892713093891
  0
LINE
  8
_0-6_中線
  6
CONTINUOUS
 62
    6
 10
1042.6795341367126
 20
1108.4989271309391
 11
1087.4859768213025
 21
1096.4930769978914
  0
ARC
  8
_0-6_中線
  6
CONTINUOUS
 62
    6
 10
1063.4400829421106
 20
1007.617842872892
 40
92.070691608257334
 50
5.382578659205592
 51
74.860637383168424
  0
ARC
  8
_0-6_中線
  6
CONTINUOUS
 62
    6
 10
1168.0607371016877
 20
1017.3239271309393
 40
13
 50
184.71829637425779
 51
217.00775239845231
  0
LINE
  8
_0-6_中線
  6
CONTINUOUS
 62
    6
 10
1042.6795341367126
 20
1117.8164127546299
 11
1089.8153500631406
 21
1105.1864089425612
  0
ARC
  8
_0-6_中線
  6
CONTINUOUS
 62
    6
 10
1043.2031297839046
 20
852.16684220277273
 40
100
 50
284.99999999999437
 51
343.7932857531207
  0
ARC
  8
_0-6_中線
  6
CONTINUOUS
 62
    6
 10
757.3031394970883
 20
935.43878623772321
 40
397.78014388497672
 50
343.76922090421306
 51
0.6100361661687848
  0
ARC
  8
_0-6_中線
  6
CONTINUOUS
 62
    6
 10
1168.0607371016877
 20
939.67392696390732
 40
13
 50
142.99224760154769
 51
181.00945595417249
  0
ARC
  8
_0-6_中線
  6
CONTINUOUS
 62
    6
 10
1043.2031297839046
 20
852.16684220277273
 40
109
 50
284.99999999999437
 51
343.7932857531207
  0
ARC
  8
_0-6_中線
  6
CONTINUOUS
 62
    6
 10
1063.1266242760667
 20
1007.1055255395439
 40
101.6471729648969
 50
8.2596693766360652
 51
74.777840633310774
  0
ARC
  8
_0-6_中線
  6
CONTINUOUS
 62
    6
 10
1168.4272661515365
 20
1022.1786952720732
 40
4.7312988665455613
 50
185.70806215133371
 51
230.24517787499093
  0
ARC
  8
_0-6_中線
  6
CONTINUOUS
 62
    6
 10
1151.6410564438445
 20
1001.9989269639071
 40
21.517508445823921
 50
0
 51
50.245177430221688
  0
ARC
  8
_0-6_中線
  6
CONTINUOUS
 62
    6
 10
1151.6410564438445
 20
954.99892713093936
 40
21.517508445823921
 50
310.74478505074842
 51
0.0000000000000254
  0
ARC
  8
_0-6_中線
  6
CONTINUOUS
 62
    6
 10
1168.6367095585656
 20
935.27086992523277
 40
4.5218553311108707
 50
130.74478505074831
 51
180.3980647647802
  0
ARC
  8
_0-6_中線
  6
CONTINUOUS
 62
    6
 10
755.12483419055764
 20
935.89793325035043
 40
408.99999999997578
 50
343.7932857531207
 51
359.95393986451319
  0
LINE
  8
ADD_LINE
  6
DOT
 62
    7
 10
318.34570874437782
 20
808.49892713093902
 11
318.34570874437782
 21
545.51821399362552
  0
LINE
  8
ADD_LINE
  6
DOT
 62
    7
 10
918.34570874437793
 20
808.49892713093902
 11
918.34570874437793
 21
545.51821399362552
  0
LINE
  8
_0-6_中線
  6
CONTINUOUS
 62
    6
 10
309.63398269809909
 20
543.25748847355101
 11
927.05743479065711
 21
543.25748847355101
  0
LINE
  8
_0-6_中線
  6
CONTINUOUS
 62
    6
 10
318.95146832178966
 20
543.25748847355089
 11
325.42104118730481
 21
519.11271383618168
  0
LINE
  8
_0-6_中線
  6
CONTINUOUS
 62
    6
 10
309.63398269809909
 20
543.25748847355089
 11
316.72770875070296
 21
516.78334243025893
  0
ARC
  8
_0-6_中線
  6
CONTINUOUS
 62
    6
 10
422.01362381621152
 20
544.99461834643375
 40
100
 50
195.00000000000071
 51
253.79328575312371
  0
ARC
  8
_0-6_中線
  6
CONTINUOUS
 62
    6
 10
422.01362381621152
 20
544.99461834643353
 40
109
 50
195.00000000000071
 51
253.79328575312371
  0
ARC
  8
_0-6_中線
  6
CONTINUOUS
 62
    6
 10
505.74471486379275
 20
833.07291393980472
 40
409
 50
253.79328575312371
 51
267.40058391406052
  0
LINE
  8
_0-6_中線
  6
CONTINUOUS
 62
    6
 10
917.73994916696586
 20
543.25748847355101
 11
911.27037630145082
 21
519.11271383618168
  0
LINE
  8
_0-6_中線
  6
CONTINUOUS
 62
    6
 10
927.05743479065654
 20
543.25748847355089
 11
919.96370873805211
 21
516.78334243025893
  0
ARC
  8
_0-6_中線
  6
CONTINUOUS
 62
    6
 10
814.677793672544
 20
544.99461834643375
 40
100
 50
286.20671424687634
 51
344.99999999999937
  0
ARC
  8
_0-6_中線
  6
CONTINUOUS
 62
    6
 10
814.677793672544
 20
544.99461834643353
 40
109
 50
286.20671424687634
 51
344.99999999999937
  0
ARC
  8
_0-6_中線
  6
CONTINUOUS
 62
    6
 10
505.74471486379275
 20
833.07291393980472
 40
400
 50
253.79328575312371
 51
267.40058391406052
  0
ARC
  8
_0-6_中線
  6
CONTINUOUS
 62
    6
 10
730.94670262496243
 20
833.07291393980472
 40
400
 50
272.59941608593965
 51
286.20671424687634
  0
ARC
  8
_0-6_中線
  6
CONTINUOUS
 62
    6
 10
626.41464043526287
 20
3529.7925334308538
 40
3108.4179984606922
 50
267.43298901145039
 51
269.098673530101
  0
ARC
  8
_0-6_中線
  6
CONTINUOUS
 62
    6
 10
642.00580921833694
 20
434.29596616641936
 40
21.517508445823921
 50
270.00000044476059
 51
324.36401396673199
  0
ARC
  8
_0-6_中線
  6
CONTINUOUS
 62
    6
 10
610.59697833546193
 20
3529.7925334311531
 40
3108.4179984609909
 50
270.901326469899
 51
272.5670109885495
  0
ARC
  8
_0-6_中線
  6
CONTINUOUS
 62
    6
 10
730.94670262496243
 20
833.07291393980472
 40
409
 50
272.59941608593965
 51
286.20671424687634
  0
ARC
  8
_0-6_中線
  6
CONTINUOUS
 62
    6
 10
624.78114547633834
 20
3487.6432026996349
 40
3057.2378146985402
 50
267.42828819744028
 51
269.1938191774571
  0
ARC
  8
_0-6_中線
  6
CONTINUOUS
 62
    6
 10
579.68080938536843
 20
417.87628550857647
 40
13
 50
52.992247601540541
 51
80.771398849055913
  0
ARC
  8
_0-6_中線
  6
CONTINUOUS
 62
    6
 10
612.23047329161875
 20
3487.6432027750229
 40
3057.2378147739769
 50
270.80618082256888
 51
272.5717118025467
  0
CIRCLE
  8
_0-6_中線
  6
CONTINUOUS
 62
    6
 10
618.50580938536882
 20
978.49892713093948
 40
23.5
  0
CIRCLE
  8
_0-6_中線
  6
CONTINUOUS
 62
    6
 10
618.50580938536882
 20
978.49892713093948
 40
31.5
  0
LINE
  8
_0-4_中心線
  6
CONTINUOUS
 62
    3
 10
971.50169784129434
 20
978.49892713093902
 11
1223.1585648896687
 21
978.49892713093902
  0
LINE
  8
_0-4_中心線
  6
CONTINUOUS
 62
    3
 10
618.50580938536825
 20
698.4580654017351
 11
618.50580938536825
 21
1156.2382016108645
  0
LINE
  8
_0-3_寸法線
  6
CENTER
 62
    1
 10
303.63398269809909
 20
543.25748847355101
 11
283.17412882613985
 21
543.25748847355101
  0
LINE
  8
_0-3_寸法線
  6
CENTER
 62
    1
 10
657.64252699696794
 20
959.51031647639445
 11
668.43886288982287
 21
954.27207905445084
  0
LINE
  8
_0-3_寸法線
  6
CENTER
 62
    1
 10
579.36909177376924
 20
997.48753778548485
 11
539.52547121680334
 21
1016.8191282712291
  0
LINE
  8
_0-3_寸法線
  6
CENTER
 62
    1
 10
646.8461911041129
 20
964.74855389833795
 11
590.16542766662417
 21
992.24930036354124
  0
LINE
  8
_0-3_寸法線
  6
CENTER
 62
    1
 10
587.55115530502621
 20
961.11907124067136
 11
577.08761026378443
 21
955.24419037635573
  0
LINE
  8
_0-3_寸法線
  6
CENTER
 62
    1
 10
649.46046346570927
 20
995.87878302120635
 11
688.07592730838951
 21
1017.5598909728483
  0
LINE
  8
_0-3_寸法線
  6
CENTER
 62
    1
 10
598.01470034626823
 20
966.99395210498676
 11
638.99691842446759
 21
990.00390215689072
  0
TEXT
  8
_0-3_寸法線
 62
    7
 10
213.00108133025469
 20
891.35604938340589
 40
12
 41
1
 50
90
  1
422
  0
TEXT
  8
_0-3_寸法線
 62
    7
 10
600.91713731580626
 20
1190.946167862679
 40
12
 41
1
 50
0
  1
622
  0
LINE
  8
_0-2_0
  6
CONTINUOUS
 62
    7
 10
917.3457087443777
 20
1193.161558142679
 11
929.34570874437782
 21
1189.946167862679
  0
LINE
  8
_0-2_0
  6
CONTINUOUS
 62
    7
 10
929.34570874437782
 20
1189.946167862679
 11
917.3457087443777
 21
1186.7307775826791
  0
LINE
  8
_0-2_0
  6
CONTINUOUS
 62
    7
 10
929.34570874437782
 20
1189.946167862679
 11
917.3457087443777
 21
1189.946167862679
  0
LINE
  8
_0-2_0
  6
CONTINUOUS
 62
    7
 10
319.34570874437782
 20
1186.7307775826791
 11
307.34570874437782
 21
1189.946167862679
  0
LINE
  8
_0-2_0
  6
CONTINUOUS
 62
    7
 10
307.34570874437782
 20
1189.946167862679
 11
319.34570874437782
 21
1193.161558142679
  0
LINE
  8
_0-2_0
  6
CONTINUOUS
 62
    7
 10
307.34570874437782
 20
1189.946167862679
 11
319.34570874437782
 21
1189.946167862679
  0
TEXT
  8
_0-3_寸法線
 62
    7
 10
257.55375303764254
 20
460.0179730970732
 40
12
 41
1
 50
90
  1
130
  0
TEXT
  8
_0-3_寸法線
 62
    7
 10
282.17412882613985
 20
467.75748847355089
 40
12
 41
1
 50
90
  1
115
  0
TEXT
  8
_0-3_寸法線
 62
    7
 10
1082.1794145130675
 20
1149.2573183467534
 40
12
 41
1
 50
0
  1
115
  0
TEXT
  8
_0-3_寸法線
 62
    7
 10
251.7898359715283
 20
891.35606971767027
 40
12
 41
1
 50
90
  1
400
  0
TEXT
  8
_0-3_寸法線
 62
    7
 10
600.91713731580626
 20
1163.4646654365079
 40
12
 41
1
 50
0
  1
600
  0
LINE
  8
_0-2_0
  6
CONTINUOUS
 62
    7
 10
906.34570874437782
 20
1165.6800557165079
 11
918.34570874437793
 21
1162.4646654365079
  0
LINE
  8
_0-2_0
  6
CONTINUOUS
 62
    7
 10
918.34570874437793
 20
1162.4646654365079
 11
906.34570874437782
 21
1159.249275156508
  0
LINE
  8
_0-2_0
  6
CONTINUOUS
 62
    7
 10
918.34570874437793
 20
1162.4646654365079
 11
906.34570874437782
 21
1162.4646654365079
  0
LINE
  8
_0-2_0
  6
CONTINUOUS
 62
    7
 10
330.34570874437782
 20
1159.249275156508
 11
318.34570874437782
 21
1162.4646654365079
  0
LINE
  8
_0-2_0
  6
CONTINUOUS
 62
    7
 10
318.34570874437782
 20
1162.4646654365079
 11
330.34570874437782
 21
1165.6800557165079
  0
LINE
  8
_0-2_0
  6
CONTINUOUS
 62
    7
 10
318.34570874437782
 20
1162.4646654365079
 11
330.34570874437782
 21
1162.4646654365079
  0
LINE
  8
_0-2_0
  6
CONTINUOUS
 62
    7
 10
580.77267324800664
 20
1000.3804072429433
 11
590.16542766662417
 21
992.24930036354124
  0
LINE
  8
_0-2_0
  6
CONTINUOUS
 62
    7
 10
590.16542766662417
 20
992.24930036354124
 11
577.96551029953173
 21
994.59466832802639
  0
LINE
  8
_0-2_0
  6
CONTINUOUS
 62
    7
 10
590.16542766662417
 20
992.24930036354124
 11
579.36909177376924
 21
997.48753778548485
  0
LINE
  8
_0-2_0
  6
CONTINUOUS
 62
    7
 10
656.23894552273055
 20
956.6174470189361
 11
646.8461911041129
 21
964.74855389833795
  0
LINE
  8
_0-2_0
  6
CONTINUOUS
 62
    7
 10
646.8461911041129
 20
964.74855389833795
 11
659.04610847120534
 21
962.40318593385302
  0
LINE
  8
_0-2_0
  6
CONTINUOUS
 62
    7
 10
646.8461911041129
 20
964.74855389833795
 11
657.64252699696794
 21
959.51031647639456
  0
LINE
  8
_0-2_0
  6
CONTINUOUS
 62
    7
 10
651.03463303464935
 20
993.07508460287693
 11
638.99691842446759
 21
990.00390215689072
  0
LINE
  8
_0-2_0
  6
CONTINUOUS
 62
    7
 10
638.99691842446759
 20
990.00390215689072
 11
647.88629389676964
 21
998.68248143953554
  0
LINE
  8
_0-2_0
  6
CONTINUOUS
 62
    7
 10
638.99691842446759
 20
990.00390215689072
 11
649.46046346570938
 21
995.87878302120635
  0
LINE
  8
_0-2_0
  6
CONTINUOUS
 62
    7
 10
585.97698573608648
 20
963.92276965900044
 11
598.01470034626823
 21
966.99395210498676
  0
LINE
  8
_0-2_0
  6
CONTINUOUS
 62
    7
 10
598.01470034626823
 20
966.99395210498676
 11
589.12532487396606
 21
958.31537282234194
  0
LINE
  8
_0-2_0
  6
CONTINUOUS
 62
    7
 10
598.01470034626823
 20
966.99395210498676
 11
587.55115530502633
 21
961.11907124067113
  0
LINE
  8
_0-7_図面枠
  6
CONTINUOUS
 62
    7
 10
34.595750492675961
 20
1205.5097428510744
 11
1420.4201415796165
 21
1205.5097428510744
  0
LINE
  8
_0-7_図面枠
  6
CONTINUOUS
 62
    7
 10
1420.4201415796165
 20
243.27695809636782
 11
34.595750492675961
 21
243.27695809636782
  0
LINE
  8
_0-7_図面枠
  6
CONTINUOUS
 62
    7
 10
34.595750492675961
 20
243.27695809636782
 11
34.595750492675961
 21
1205.5097428510744
  0
LINE
  8
_0-7_図面枠
  6
CONTINUOUS
 62
    7
 10
1095.4201415796176
 20
333.27695808736769
 11
1095.4201415796176
 21
243.27695809636782
  0
LINE
  8
_0-7_図面枠
  6
CONTINUOUS
 62
    7
 10
1420.4201415796165
 20
333.27695808736735
 11
458.18735682491069
 21
333.27695808736735
  0
LINE
  8
_0-8_細線
  6
CONTINUOUS
 62
    4
 10
516.35956248012781
 20
260.68160220711832
 11
537.37881149111809
 21
260.68160220711832
  0
LINE
  8
_0-8_細線
  6
CONTINUOUS
 62
    4
 10
537.37881149111809
 20
260.68160220711832
 11
537.37881149111809
 21
281.73044826082787
  0
LINE
  8
_0-8_細線
  6
CONTINUOUS
 62
    4
 10
516.35956248012781
 20
281.73044826082787
 11
516.35956248012781
 21
260.68160220711832
  0
LINE
  8
_0-8_細線
  6
CONTINUOUS
 62
    4
 10
537.37881149111809
 20
281.73044826082787
 11
516.35956248012781
 21
281.73044826082787
  0
LINE
  8
_0-8_細線
  6
CONTINUOUS
 62
    4
 10
539.76042230341
 20
288.59440707644751
 11
550.51042230340988
 21
307.21395325781248
  0
LINE
  8
_0-8_細線
  6
CONTINUOUS
 62
    4
 10
539.76042230341
 20
288.59440707644751
 11
561.26042230340988
 21
288.59440707644751
  0
LINE
  8
_0-8_細線
  6
CONTINUOUS
 62
    4
 10
550.51042230340988
 20
307.21395325781248
 11
561.26042230340988
 21
288.59440707644751
  0
CIRCLE
  8
_0-8_細線
  6
CONTINUOUS
 62
    4
 10
567.42426960425973
 20
311.19280314783828
 40
7.3793579175811921
  0
LINE
  8
_0-8_細線
  6
CONTINUOUS
 62
    4
 10
582.25824909151243
 20
271.66410301801534
 11
591.3195739357393
 21
271.66410301801534
  0
LINE
  8
_0-8_細線
  6
CONTINUOUS
 62
    4
 10
593.65111222651421
 20
266.66410301801568
 11
596.68211200452185
 21
260.16410301801534
  0
LINE
  8
_0-8_細線
  6
CONTINUOUS
 62
    4
 10
579.9267108007366
 20
266.66410301801568
 11
576.89571102272964
 21
260.16410301801534
  0
LINE
  8
_0-8_細線
  6
CONTINUOUS
 62
    4
 10
586.78891151362541
 20
281.38013993673098
 11
591.3195739357393
 21
271.66410301801534
  0
LINE
  8
_0-8_細線
  6
CONTINUOUS
 62
    4
 10
586.78891151362541
 20
281.38013993673098
 11
582.25824909151243
 21
271.66410301801534
  0
LINE
  8
_0-8_細線
  6
CONTINUOUS
 62
    4
 10
583.81401243305061
 20
288.93974325393174
 11
570.39571102272964
 21
260.16410301801534
  0
LINE
  8
_0-8_細線
  6
CONTINUOUS
 62
    4
 10
623.02837637852599
 20
283.93974325393174
 11
623.40244641979314
 21
283.73445953013436
  0
LINE
  8
_0-8_細線
  6
CONTINUOUS
 62
    4
 10
623.40244641979314
 20
283.73445953013436
 11
624.04042868378338
 21
283.37581186639432
  0
LINE
  8
_0-8_細線
  6
CONTINUOUS
 62
    4
 10
624.04042868378338
 20
283.37581186639432
 11
624.65906071715699
 21
283.00408028899142
  0
LINE
  8
_0-8_細線
  6
CONTINUOUS
 62
    4
 10
624.65906071715699
 20
283.00408028899142
 11
625.24609553850996
 21
282.61098383991396
  0
LINE
  8
_0-8_細線
  6
CONTINUOUS
 62
    4
 10
625.24609553850996
 20
282.61098383991396
 11
625.78928616644089
 21
282.18824156114692
  0
LINE
  8
_0-8_細線
  6
CONTINUOUS
 62
    4
 10
625.78928616644089
 20
282.18824156114692
 11
626.27638561954655
 21
281.72757249467736
  0
LINE
  8
_0-8_細線
  6
CONTINUOUS
 62
    4
 10
626.27638561954655
 20
281.72757249467736
 11
626.52837637852599
 21
281.43974325393174
  0
LINE
  8
_0-8_細線
  6
CONTINUOUS
 62
    4
 10
626.52837637852599
 20
281.43974325393174
 11
626.88811956469124
 21
280.93207060505904
  0
LINE
  8
_0-8_細線
  6
CONTINUOUS
 62
    4
 10
626.88811956469124
 20
280.93207060505904
 11
627.36539741846946
 21
279.96118085748094
  0
LINE
  8
_0-8_細線
  6
CONTINUOUS
 62
    4
 10
627.36539741846946
 20
279.96118085748094
 11
627.68758128539184
 21
278.88841757277703
  0
LINE
  8
_0-8_細線
  6
CONTINUOUS
 62
    4
 10
627.68758128539184
 20
278.88841757277703
 11
627.88476355477849
 21
277.73602388132281
  0
LINE
  8
_0-8_細線
  6
CONTINUOUS
 62
    4
 10
627.88476355477849
 20
277.73602388132281
 11
627.98703661594982
 21
276.52624291349673
  0
LINE
  8
_0-8_細線
  6
CONTINUOUS
 62
    4
 10
627.98703661594982
 20
276.52624291349673
 11
628.02449285822729
 21
275.28131779967453
  0
LINE
  8
_0-8_細線
  6
CONTINUOUS
 62
    4
 10
628.02449285822729
 20
275.28131779967453
 11
628.02837637852588
 21
274.55192313597365
  0
LINE
  8
_0-8_細線
  6
CONTINUOUS
 62
    4
 10
628.02837637852588
 20
274.55192313597365
 11
628.02449285822729
 21
273.82252847227312
  0
LINE
  8
_0-8_細線
  6
CONTINUOUS
 62
    4
 10
628.02449285822729
 20
273.82252847227312
 11
627.98703661594982
 21
272.57760335845092
  0
LINE
  8
_0-8_細線
  6
CONTINUOUS
 62
    4
 10
627.98703661594982
 20
272.57760335845092
 11
627.88476355477849
 21
271.36782239062518
  0
LINE
  8
_0-8_細線
  6
CONTINUOUS
 62
    4
 10
627.88476355477849
 20
271.36782239062518
 11
627.68758128539184
 21
270.21542869917084
  0
LINE
  8
_0-8_細線
  6
CONTINUOUS
 62
    4
 10
627.68758128539184
 20
270.21542869917084
 11
627.36539741846946
 21
269.14266541446614
  0
LINE
  8
_0-8_細線
  6
CONTINUOUS
 62
    4
 10
627.36539741846946
 20
269.14266541446614
 11
626.88811956469124
 21
268.17177566688827
  0
LINE
  8
_0-8_細線
  6
CONTINUOUS
 62
    4
 10
626.88811956469124
 20
268.17177566688827
 11
626.52837637852599
 21
267.66410301801534
  0
LINE
  8
_0-8_細線
  6
CONTINUOUS
 62
    4
 10
626.52837637852599
 20
267.66410301801534
 11
626.27638561954655
 21
267.37627377727051
  0
LINE
  8
_0-8_細線
  6
CONTINUOUS
 62
    4
 10
626.27638561954655
 20
267.37627377727051
 11
625.78928616644089
 21
266.91560471080095
  0
LINE
  8
_0-8_細線
  6
CONTINUOUS
 62
    4
 10
625.78928616644089
 20
266.91560471080095
 11
625.24609553850996
 21
266.49286243203335
  0
LINE
  8
_0-8_細線
  6
CONTINUOUS
 62
    4
 10
625.24609553850996
 20
266.49286243203335
 11
624.65906071715699
 21
266.09976598295589
  0
LINE
  8
_0-8_細線
  6
CONTINUOUS
 62
    4
 10
624.65906071715699
 20
266.09976598295589
 11
624.04042868378338
 21
265.72803440555333
  0
LINE
  8
_0-8_細線
  6
CONTINUOUS
 62
    4
 10
624.04042868378338
 20
265.72803440555333
 11
623.40244641979314
 21
265.36938674181249
  0
LINE
  8
_0-8_細線
  6
CONTINUOUS
 62
    4
 10
623.40244641979314
 20
265.36938674181249
 11
623.02837637852599
 21
265.16410301801534
  0
LINE
  8
_0-8_細線
  6
CONTINUOUS
 62
    4
 10
623.02837637852599
 20
260.16410301801534
 11
623.35582001114881
 21
260.24887204278912
  0
LINE
  8
_0-8_細線
  6
CONTINUOUS
 62
    4
 10
623.35582001114881
 20
260.24887204278912
 11
623.92070683844804
 21
260.39649414624421
  0
LINE
  8
_0-8_細線
  6
CONTINUOUS
 62
    4
 10
623.92070683844804
 20
260.39649414624421
 11
624.48650711024993
 21
260.5481957287742
  0
LINE
  8
_0-8_細線
  6
CONTINUOUS
 62
    4
 10
624.48650711024993
 20
260.5481957287742
 11
625.05379895598469
 21
260.70655873915916
  0
LINE
  8
_0-8_細線
  6
CONTINUOUS
 62
    4
 10
625.05379895598469
 20
260.70655873915916
 11
625.6231605050848
 21
260.87416512617835
  0
LINE
  8
_0-8_細線
  6
CONTINUOUS
 62
    4
 10
625.6231605050848
 20
260.87416512617835
 11
626.19516988698103
 21
261.05359683861536
  0
LINE
  8
_0-8_細線
  6
CONTINUOUS
 62
    4
 10
626.19516988698103
 20
261.05359683861536
 11
626.52837637852599
 21
261.16410301801523
  0
LINE
  8
_0-8_細線
  6
CONTINUOUS
 62
    4
 10
626.52837637852599
 20
261.16410301801523
 11
627.19089757499341
 21
261.39901668391849
  0
LINE
  8
_0-8_細線
  6
CONTINUOUS
 62
    4
 10
627.19089757499341
 20
261.39901668391849
 11
628.32541053047987
 21
261.85971940038314
  0
LINE
  8
_0-8_細線
  6
CONTINUOUS
 62
    4
 10
628.32541053047987
 20
261.85971940038314
 11
629.42166017240697
 21
262.40053058006481
  0
LINE
  8
_0-8_細線
  6
CONTINUOUS
 62
    4
 10
629.42166017240697
 20
262.40053058006481
 11
630.44658343298704
 21
263.03264617730383
  0
LINE
  8
_0-8_細線
  6
CONTINUOUS
 62
    4
 10
630.44658343298704
 20
263.03264617730383
 11
631.36711724443148
 21
263.767262146441
  0
LINE
  8
_0-8_細線
  6
CONTINUOUS
 62
    4
 10
631.36711724443148
 20
263.767262146441
 11
632.1501985389491
 21
264.61557444181585
  0
LINE
  8
_0-8_細線
  6
CONTINUOUS
 62
    4
 10
632.1501985389491
 20
264.61557444181585
 11
632.52837637852588
 21
265.16410301801534
  0
LINE
  8
_0-8_細線
  6
CONTINUOUS
 62
    4
 10
632.52837637852588
 20
265.16410301801534
 11
632.65372888226057
 21
265.38002613312983
  0
LINE
  8
_0-8_細線
  6
CONTINUOUS
 62
    4
 10
632.65372888226057
 20
265.38002613312983
 11
632.85077536463575
 21
265.76518667481423
  0
LINE
  8
_0-8_細線
  6
CONTINUOUS
 62
    4
 10
632.85077536463575
 20
265.76518667481423
 11
633.02641597468516
 21
266.16424296458979
  0
LINE
  8
_0-8_細線
  6
CONTINUOUS
 62
    4
 10
633.02641597468516
 20
266.16424296458979
 11
633.18384159396226
 21
266.57439596251663
  0
LINE
  8
_0-8_細線
  6
CONTINUOUS
 62
    4
 10
633.18384159396226
 20
266.57439596251663
 11
633.32624310401707
 21
266.99284662865614
  0
LINE
  8
_0-8_細線
  6
CONTINUOUS
 62
    4
 10
633.32624310401707
 20
266.99284662865614
 11
633.45681138640293
 21
267.41679592306809
  0
LINE
  8
_0-8_細線
  6
CONTINUOUS
 62
    4
 10
633.45681138640293
 20
267.41679592306809
 11
633.52837637852599
 21
267.66410301801534
  0
LINE
  8
_0-8_細線
  6
CONTINUOUS
 62
    4
 10
633.52837637852599
 20
267.66410301801534
 11
633.70245220322647
 21
268.30523967384067
  0
LINE
  8
_0-8_細線
  6
CONTINUOUS
 62
    4
 10
633.70245220322647
 20
268.30523967384067
 11
633.96571826923673
 21
269.4156642008079
  0
LINE
  8
_0-8_細線
  6
CONTINUOUS
 62
    4
 10
633.96571826923673
 20
269.4156642008079
 11
634.18078568514863
 21
270.53143486714282
  0
LINE
  8
_0-8_細線
  6
CONTINUOUS
 62
    4
 10
634.18078568514863
 20
270.53143486714282
 11
634.34587013046303
 21
271.65138439350733
  0
LINE
  8
_0-8_細線
  6
CONTINUOUS
 62
    4
 10
634.34587013046303
 20
271.65138439350733
 11
634.45918728467984
 21
272.77434550056341
  0
LINE
  8
_0-8_細線
  6
CONTINUOUS
 62
    4
 10
634.45918728467984
 20
272.77434550056341
 11
634.51895282730175
 21
273.89915090897352
  0
LINE
  8
_0-8_細線
  6
CONTINUOUS
 62
    4
 10
634.51895282730175
 20
273.89915090897352
 11
634.52837637852599
 21
274.55192313597365
  0
LINE
  8
_0-8_細線
  6
CONTINUOUS
 62
    4
 10
634.52837637852599
 20
274.55192313597365
 11
634.51895282730175
 21
275.20469536297412
  0
LINE
  8
_0-8_細線
  6
CONTINUOUS
 62
    4
 10
634.51895282730175
 20
275.20469536297412
 11
634.45918728467984
 21
276.32950077138389
  0
LINE
  8
_0-8_細線
  6
CONTINUOUS
 62
    4
 10
634.45918728467984
 20
276.32950077138389
 11
634.34587013046303
 21
277.45246187843952
  0
LINE
  8
_0-8_細線
  6
CONTINUOUS
 62
    4
 10
634.34587013046303
 20
277.45246187843952
 11
634.18078568514863
 21
278.57241140480403
  0
LINE
  8
_0-8_細線
  6
CONTINUOUS
 62
    4
 10
634.18078568514863
 20
278.57241140480403
 11
633.96571826923673
 21
279.68818207113941
  0
LINE
  8
_0-8_細線
  6
CONTINUOUS
 62
    4
 10
633.96571826923673
 20
279.68818207113941
 11
633.70245220322647
 21
280.7986065981064
  0
LINE
  8
_0-8_細線
  6
CONTINUOUS
 62
    4
 10
633.70245220322647
 20
280.7986065981064
 11
633.52837637852599
 21
281.43974325393174
  0
LINE
  8
_0-8_細線
  6
CONTINUOUS
 62
    4
 10
633.52837637852599
 20
281.43974325393174
 11
633.45681138640293
 21
281.68705034887921
  0
LINE
  8
_0-8_細線
  6
CONTINUOUS
 62
    4
 10
633.45681138640293
 20
281.68705034887921
 11
633.32624310401707
 21
282.11099964329071
  0
LINE
  8
_0-8_細線
  6
CONTINUOUS
 62
    4
 10
633.32624310401707
 20
282.11099964329071
 11
633.18384159396226
 21
282.5294503094301
  0
LINE
  8
_0-8_細線
  6
CONTINUOUS
 62
    4
 10
633.18384159396226
 20
282.5294503094301
 11
633.02641597468516
 21
282.93960330735786
  0
LINE
  8
_0-8_細線
  6
CONTINUOUS
 62
    4
 10
633.02641597468516
 20
282.93960330735786
 11
632.85077536463575
 21
283.33865959713307
  0
LINE
  8
_0-8_細線
  6
CONTINUOUS
 62
    4
 10
632.85077536463575
 20
283.33865959713307
 11
632.65372888226057
 21
283.7238201388169
  0
LINE
  8
_0-8_細線
  6
CONTINUOUS
 62
    4
 10
632.65372888226057
 20
283.7238201388169
 11
632.52837637852588
 21
283.93974325393174
  0
LINE
  8
_0-8_細線
  6
CONTINUOUS
 62
    4
 10
632.52837637852588
 20
283.93974325393174
 11
632.1501985389491
 21
284.48827183013179
  0
LINE
  8
_0-8_細線
  6
CONTINUOUS
 62
    4
 10
632.1501985389491
 20
284.48827183013179
 11
631.36711724443148
 21
285.33658412550665
  0
LINE
  8
_0-8_細線
  6
CONTINUOUS
 62
    4
 10
631.36711724443148
 20
285.33658412550665
 11
630.44658343298704
 21
286.07120009464325
  0
LINE
  8
_0-8_細線
  6
CONTINUOUS
 62
    4
 10
630.44658343298704
 20
286.07120009464325
 11
629.42166017240697
 21
286.70331569188193
  0
LINE
  8
_0-8_細線
  6
CONTINUOUS
 62
    4
 10
629.42166017240697
 20
286.70331569188193
 11
628.32541053047987
 21
287.24412687156394
  0
LINE
  8
_0-8_細線
  6
CONTINUOUS
 62
    4
 10
628.32541053047987
 20
287.24412687156394
 11
627.19089757499341
 21
287.70482958802859
  0
LINE
  8
_0-8_細線
  6
CONTINUOUS
 62
    4
 10
627.19089757499341
 20
287.70482958802859
 11
626.52837637852599
 21
287.93974325393185
  0
LINE
  8
_0-8_細線
  6
CONTINUOUS
 62
    4
 10
626.52837637852599
 20
287.93974325393185
 11
626.19516988698103
 21
288.05024943333137
  0
LINE
  8
_0-8_細線
  6
CONTINUOUS
 62
    4
 10
626.19516988698103
 20
288.05024943333137
 11
625.6231605050848
 21
288.22968114576895
  0
LINE
  8
_0-8_細線
  6
CONTINUOUS
 62
    4
 10
625.6231605050848
 20
288.22968114576895
 11
625.05379895598469
 21
288.39728753278882
  0
LINE
  8
_0-8_細線
  6
CONTINUOUS
 62
    4
 10
625.05379895598469
 20
288.39728753278882
 11
624.48650711024993
 21
288.55565054317287
  0
LINE
  8
_0-8_細線
  6
CONTINUOUS
 62
    4
 10
624.48650711024993
 20
288.55565054317287
 11
623.92070683844804
 21
288.70735212570253
  0
LINE
  8
_0-8_細線
  6
CONTINUOUS
 62
    4
 10
623.92070683844804
 20
288.70735212570253
 11
623.35582001114881
 21
288.85497422915762
  0
LINE
  8
_0-8_細線
  6
CONTINUOUS
 62
    4
 10
623.35582001114881
 20
288.85497422915762
 11
623.02837637852599
 21
288.93974325393174
  0
LINE
  8
_0-8_細線
  6
CONTINUOUS
 62
    4
 10
641.02837637852588
 20
288.93974325393174
 11
651.19667778884786
 21
267.13375050967136
  0
LINE
  8
_0-8_細線
  6
CONTINUOUS
 62
    4
 10
661.36497919916792
 20
288.93974325393174
 11
651.19667778884786
 21
267.13375050967136
  0
LINE
  8
_0-8_細線
  6
CONTINUOUS
 62
    4
 10
634.52837637852599
 20
288.93974325393174
 11
647.94667778884775
 21
260.16410301801534
  0
LINE
  8
_0-8_細線
  6
CONTINUOUS
 62
    4
 10
654.44667778884775
 20
260.16410301801534
 11
667.86497919916792
 21
288.93974325393174
  0
LINE
  8
_0-8_細線
  6
CONTINUOUS
 62
    4
 10
672.86497919916792
 20
288.93974325393174
 11
659.44667778884775
 21
260.16410301801534
  0
LINE
  8
_0-8_細線
  6
CONTINUOUS
 62
    4
 10
679.54214900140266
 20
288.93974325393174
 11
692.96045041172374
 21
260.16410301801534
  0
LINE
  8
_0-8_細線
  6
CONTINUOUS
 62
    4
 10
579.9267108007366
 20
266.66410301801568
 11
593.65111222651421
 21
266.66410301801568
  0
LINE
  8
_0-8_細線
  6
CONTINUOUS
 62
    4
 10
668.97767756685471
 20
266.66410301801568
 11
683.4294506337169
 21
266.66410301801568
  0
LINE
  8
_0-8_細線
  6
CONTINUOUS
 62
    4
 10
671.30921585762962
 20
271.66410301801534
 11
681.09791234294107
 21
271.66410301801534
  0
LINE
  8
_0-8_細線
  6
CONTINUOUS
 62
    4
 10
702.34319271863876
 20
283.93974325393174
 11
717.19986162408475
 21
260.16410301801534
  0
LINE
  8
_0-8_細線
  6
CONTINUOUS
 62
    4
 10
720.23698960676245
 20
265.68262176961957
 11
720.23698960676245
 21
288.93974325393174
  0
LINE
  8
_0-8_細線
  6
CONTINUOUS
 62
    4
 10
725.73698960676256
 20
260.16410301801534
 11
725.73698960676256
 21
288.93974325393174
  0
LINE
  8
_0-8_細線
  6
CONTINUOUS
 62
    4
 10
705.70432717758331
 20
288.93974325393174
 11
720.23698960676245
 21
265.68262176961957
  0
LINE
  8
_0-8_細線
  6
CONTINUOUS
 62
    4
 10
695.84319271863887
 20
288.93974325393174
 11
695.84319271863887
 21
260.16410301801534
  0
LINE
  8
_0-8_細線
  6
CONTINUOUS
 62
    4
 10
623.02837637852599
 20
283.93974325393174
 11
613.02837637852599
 21
283.93974325393174
  0
LINE
  8
_0-8_細線
  6
CONTINUOUS
 62
    4
 10
613.02837637852599
 20
265.16410301801534
 11
623.02837637852599
 21
265.16410301801534
  0
LINE
  8
_0-8_細線
  6
CONTINUOUS
 62
    4
 10
681.09791234294107
 20
271.66410301801534
 11
676.20356410028523
 21
282.16006669577473
  0
LINE
  8
_0-8_細線
  6
CONTINUOUS
 62
    4
 10
671.30921585762962
 20
271.66410301801534
 11
676.20356410028523
 21
282.16006669577473
  0
LINE
  8
_0-8_細線
  6
CONTINUOUS
 62
    4
 10
665.94667778884786
 20
260.16410301801534
 11
668.97767756685471
 21
266.66410301801568
  0
LINE
  8
_0-8_細線
  6
CONTINUOUS
 62
    4
 10
686.46045041172374
 20
260.16410301801534
 11
683.4294506337169
 21
266.66410301801568
  0
LINE
  8
_0-8_細線
  6
CONTINUOUS
 62
    4
 10
702.34319271863876
 20
283.93974325393174
 11
702.34319271863876
 21
260.16410301801534
  0
LINE
  8
_0-8_細線
  6
CONTINUOUS
 62
    4
 10
570.39571102272964
 20
260.16410301801534
 11
576.89571102272964
 21
260.16410301801534
  0
LINE
  8
_0-8_細線
  6
CONTINUOUS
 62
    4
 10
596.68211200452185
 20
260.16410301801534
 11
603.18211200452185
 21
260.16410301801534
  0
LINE
  8
_0-8_細線
  6
CONTINUOUS
 62
    4
 10
589.76381059420191
 20
288.93974325393174
 11
603.18211200452185
 21
260.16410301801534
  0
LINE
  8
_0-8_細線
  6
CONTINUOUS
 62
    4
 10
589.76381059420191
 20
288.93974325393174
 11
583.81401243305061
 21
288.93974325393174
  0
LINE
  8
_0-8_細線
  6
CONTINUOUS
 62
    4
 10
606.52837637852679
 20
288.93974325393174
 11
606.52837637852679
 21
260.16410301801534
  0
LINE
  8
_0-8_細線
  6
CONTINUOUS
 62
    4
 10
613.02837637852599
 20
283.93974325393174
 11
613.02837637852599
 21
265.16410301801534
  0
LINE
  8
_0-8_細線
  6
CONTINUOUS
 62
    4
 10
606.52837637852679
 20
260.16410301801534
 11
623.02837637852599
 21
260.16410301801534
  0
LINE
  8
_0-8_細線
  6
CONTINUOUS
 62
    4
 10
623.02837637852599
 20
288.93974325393174
 11
606.52837637852679
 21
288.93974325393174
  0
LINE
  8
_0-8_細線
  6
CONTINUOUS
 62
    4
 10
641.02837637852588
 20
288.93974325393174
 11
634.52837637852599
 21
288.93974325393174
  0
LINE
  8
_0-8_細線
  6
CONTINUOUS
 62
    4
 10
647.94667778884775
 20
260.16410301801534
 11
654.44667778884775
 21
260.16410301801534
  0
LINE
  8
_0-8_細線
  6
CONTINUOUS
 62
    4
 10
667.86497919916792
 20
288.93974325393174
 11
661.36497919916792
 21
288.93974325393174
  0
LINE
  8
_0-8_細線
  6
CONTINUOUS
 62
    4
 10
659.44667778884775
 20
260.16410301801534
 11
665.94667778884786
 21
260.16410301801534
  0
LINE
  8
_0-8_細線
  6
CONTINUOUS
 62
    4
 10
686.46045041172374
 20
260.16410301801534
 11
692.96045041172374
 21
260.16410301801534
  0
LINE
  8
_0-8_細線
  6
CONTINUOUS
 62
    4
 10
695.84319271863887
 20
260.16410301801534
 11
702.34319271863876
 21
260.16410301801534
  0
LINE
  8
_0-8_細線
  6
CONTINUOUS
 62
    4
 10
717.19986162408475
 20
260.16410301801534
 11
725.73698960676256
 21
260.16410301801534
  0
LINE
  8
_0-8_細線
  6
CONTINUOUS
 62
    4
 10
725.73698960676256
 20
288.93974325393174
 11
720.23698960676245
 21
288.93974325393174
  0
LINE
  8
_0-8_細線
  6
CONTINUOUS
 62
    4
 10
705.70432717758331
 20
288.93974325393174
 11
695.84319271863887
 21
288.93974325393174
  0
LINE
  8
_0-8_細線
  6
CONTINUOUS
 62
    4
 10
679.54214900140266
 20
288.93974325393174
 11
672.86497919916792
 21
288.93974325393174
  0
LINE
  8
_0-8_細線
  6
CONTINUOUS
 62
    4
 10
570.75739800471035
 20
260.93974325393162
 11
577.25739800471047
 21
260.93974325393162
  0
LINE
  8
_0-8_細線
  6
CONTINUOUS
 62
    4
 10
596.32042502254126
 20
260.93974325393162
 11
602.82042502254114
 21
260.93974325393162
  0
LINE
  8
_0-8_細線
  6
CONTINUOUS
 62
    4
 10
606.52837637852679
 20
260.93974325393162
 11
625.83221666250893
 21
260.93974325393162
  0
LINE
  8
_0-8_細線
  6
CONTINUOUS
 62
    4
 10
647.58499080686624
 20
260.93974325393162
 11
654.80836477082755
 21
260.93974325393162
  0
LINE
  8
_0-8_細線
  6
CONTINUOUS
 62
    4
 10
659.80836477082858
 20
260.93974325393162
 11
666.30836477082755
 21
260.93974325393162
  0
LINE
  8
_0-8_細線
  6
CONTINUOUS
 62
    4
 10
686.09876342974303
 20
260.93974325393162
 11
692.59876342974303
 21
260.93974325393162
  0
LINE
  8
_0-8_細線
  6
CONTINUOUS
 62
    4
 10
695.84319271863887
 20
260.93974325393162
 11
702.34319271863876
 21
260.93974325393162
  0
LINE
  8
_0-8_細線
  6
CONTINUOUS
 62
    4
 10
716.71518781255281
 20
260.93974325393162
 11
725.73698960676256
 21
260.93974325393162
  0
LINE
  8
_0-8_細線
  6
CONTINUOUS
 62
    4
 10
571.22370566286509
 20
261.93974325393185
 11
577.72370566286497
 21
261.93974325393185
  0
LINE
  8
_0-8_細線
  6
CONTINUOUS
 62
    4
 10
595.85411736438664
 20
261.93974325393185
 11
602.35411736438573
 21
261.93974325393185
  0
LINE
  8
_0-8_細線
  6
CONTINUOUS
 62
    4
 10
606.52837637852679
 20
261.93974325393185
 11
628.48762263720744
 21
261.93974325393185
  0
LINE
  8
_0-8_細線
  6
CONTINUOUS
 62
    4
 10
647.11868314871163
 20
261.93974325393185
 11
655.27467242898319
 21
261.93974325393185
  0
LINE
  8
_0-8_細線
  6
CONTINUOUS
 62
    4
 10
660.27467242898319
 20
261.93974325393185
 11
666.77467242898308
 21
261.93974325393185
  0
LINE
  8
_0-8_細線
  6
CONTINUOUS
 62
    4
 10
685.63245577158841
 20
261.93974325393185
 11
692.13245577158841
 21
261.93974325393185
  0
LINE
  8
_0-8_細線
  6
CONTINUOUS
 62
    4
 10
695.84319271863887
 20
261.93974325393185
 11
702.34319271863876
 21
261.93974325393185
  0
LINE
  8
_0-8_細線
  6
CONTINUOUS
 62
    4
 10
716.09031846064454
 20
261.93974325393185
 11
725.73698960676256
 21
261.93974325393185
  0
LINE
  8
_0-8_細線
  6
CONTINUOUS
 62
    4
 10
571.69001332102061
 20
262.93974325393185
 11
578.19001332102061
 21
262.93974325393185
  0
LINE
  8
_0-8_細線
  6
CONTINUOUS
 62
    4
 10
595.38780970623111
 20
262.93974325393185
 11
601.88780970623111
 21
262.93974325393185
  0
LINE
  8
_0-8_細線
  6
CONTINUOUS
 62
    4
 10
606.52837637852679
 20
262.93974325393185
 11
630.29594901175869
 21
262.93974325393185
  0
LINE
  8
_0-8_細線
  6
CONTINUOUS
 62
    4
 10
646.65237549055701
 20
262.93974325393185
 11
655.74098008713872
 21
262.93974325393185
  0
LINE
  8
_0-8_細線
  6
CONTINUOUS
 62
    4
 10
660.74098008713872
 20
262.93974325393185
 11
667.24098008713872
 21
262.93974325393185
  0
LINE
  8
_0-8_細線
  6
CONTINUOUS
 62
    4
 10
685.16614811343277
 20
262.93974325393185
 11
691.66614811343288
 21
262.93974325393185
  0
LINE
  8
_0-8_細線
  6
CONTINUOUS
 62
    4
 10
695.84319271863887
 20
262.93974325393185
 11
702.34319271863876
 21
262.93974325393185
  0
LINE
  8
_0-8_細線
  6
CONTINUOUS
 62
    4
 10
715.46544910873445
 20
262.93974325393185
 11
725.73698960676256
 21
262.93974325393185
  0
LINE
  8
_0-8_細線
  6
CONTINUOUS
 62
    4
 10
572.15632097917523
 20
263.93974325393208
 11
578.65632097917614
 21
263.93974325393208
  0
LINE
  8
_0-8_細線
  6
CONTINUOUS
 62
    4
 10
594.92150204807649
 20
263.93974325393208
 11
601.42150204807638
 21
263.93974325393208
  0
LINE
  8
_0-8_細線
  6
CONTINUOUS
 62
    4
 10
606.52837637852679
 20
263.93974325393208
 11
631.52633541169178
 21
263.93974325393208
  0
LINE
  8
_0-8_細線
  6
CONTINUOUS
 62
    4
 10
646.18606783240148
 20
263.93974325393208
 11
656.20728774529334
 21
263.93974325393208
  0
LINE
  8
_0-8_細線
  6
CONTINUOUS
 62
    4
 10
661.20728774529334
 20
263.93974325393208
 11
667.70728774529334
 21
263.93974325393208
  0
LINE
  8
_0-8_細線
  6
CONTINUOUS
 62
    4
 10
684.69984045527724
 20
263.93974325393208
 11
691.19984045527735
 21
263.93974325393208
  0
LINE
  8
_0-8_細線
  6
CONTINUOUS
 62
    4
 10
695.84319271863887
 20
263.93974325393208
 11
702.34319271863876
 21
263.93974325393208
  0
LINE
  8
_0-8_細線
  6
CONTINUOUS
 62
    4
 10
714.84057975682606
 20
263.93974325393208
 11
725.73698960676256
 21
263.93974325393208
  0
LINE
  8
_0-8_細線
  6
CONTINUOUS
 62
    4
 10
572.62262863733065
 20
264.93974325393174
 11
579.12262863733076
 21
264.93974325393174
  0
LINE
  8
_0-8_細線
  6
CONTINUOUS
 62
    4
 10
594.45519438992096
 20
264.93974325393174
 11
600.95519438992085
 21
264.93974325393174
  0
LINE
  8
_0-8_細線
  6
CONTINUOUS
 62
    4
 10
606.52837637852679
 20
264.93974325393174
 11
632.37369366088694
 21
264.93974325393174
  0
LINE
  8
_0-8_細線
  6
CONTINUOUS
 62
    4
 10
645.71976017424583
 20
264.93974325393174
 11
656.67359540344785
 21
264.93974325393174
  0
LINE
  8
_0-8_細線
  6
CONTINUOUS
 62
    4
 10
661.67359540344796
 20
264.93974325393174
 11
668.17359540344785
 21
264.93974325393174
  0
LINE
  8
_0-8_細線
  6
CONTINUOUS
 62
    4
 10
684.23353279712273
 20
264.93974325393174
 11
690.73353279712273
 21
264.93974325393174
  0
LINE
  8
_0-8_細線
  6
CONTINUOUS
 62
    4
 10
695.84319271863887
 20
264.93974325393174
 11
702.34319271863876
 21
264.93974325393174
  0
LINE
  8
_0-8_細線
  6
CONTINUOUS
 62
    4
 10
714.21571040491608
 20
264.93974325393174
 11
725.73698960676256
 21
264.93974325393174
  0
LINE
  8
_0-8_細線
  6
CONTINUOUS
 62
    4
 10
573.08893629548538
 20
265.9397432539314
 11
579.58893629548527
 21
265.9397432539314
  0
LINE
  8
_0-8_細線
  6
CONTINUOUS
 62
    4
 10
593.98888673176543
 20
265.9397432539314
 11
600.48888673176634
 21
265.9397432539314
  0
LINE
  8
_0-8_細線
  6
CONTINUOUS
 62
    4
 10
606.52837637852679
 20
265.9397432539314
 11
613.02837637852599
 21
265.9397432539314
  0
LINE
  8
_0-8_細線
  6
CONTINUOUS
 62
    4
 10
624.39275246609532
 20
265.9397432539314
 11
632.9276046862883
 21
265.9397432539314
  0
LINE
  8
_0-8_細線
  6
CONTINUOUS
 62
    4
 10
645.25345251609133
 20
265.9397432539314
 11
657.13990306160349
 21
265.9397432539314
  0
LINE
  8
_0-8_細線
  6
CONTINUOUS
 62
    4
 10
662.13990306160349
 20
265.9397432539314
 11
668.63990306160338
 21
265.9397432539314
  0
LINE
  8
_0-8_細線
  6
CONTINUOUS
 62
    4
 10
683.76722513896812
 20
265.9397432539314
 11
690.26722513896812
 21
265.9397432539314
  0
LINE
  8
_0-8_細線
  6
CONTINUOUS
 62
    4
 10
695.84319271863887
 20
265.9397432539314
 11
702.34319271863876
 21
265.9397432539314
  0
LINE
  8
_0-8_細線
  6
CONTINUOUS
 62
    4
 10
713.5908410530069
 20
265.9397432539314
 11
720.07632227149804
 21
265.9397432539314
  0
LINE
  8
_0-8_細線
  6
CONTINUOUS
 62
    4
 10
720.23698960676245
 20
265.9397432539314
 11
725.73698960676256
 21
265.9397432539314
  0
LINE
  8
_0-8_細線
  6
CONTINUOUS
 62
    4
 10
573.55524395364091
 20
266.93974325393185
 11
600.02257907361172
 21
266.93974325393185
  0
LINE
  8
_0-8_細線
  6
CONTINUOUS
 62
    4
 10
606.52837637852679
 20
266.93974325393185
 11
613.02837637852599
 21
266.93974325393185
  0
LINE
  8
_0-8_細線
  6
CONTINUOUS
 62
    4
 10
625.81480963222975
 20
266.93974325393185
 11
633.30817167681698
 21
266.93974325393185
  0
LINE
  8
_0-8_細線
  6
CONTINUOUS
 62
    4
 10
644.78714485793671
 20
266.93974325393185
 11
657.60621071975902
 21
266.93974325393185
  0
LINE
  8
_0-8_細線
  6
CONTINUOUS
 62
    4
 10
662.60621071975902
 20
266.93974325393185
 11
689.8009174808135
 21
266.93974325393185
  0
LINE
  8
_0-8_細線
  6
CONTINUOUS
 62
    4
 10
695.84319271863887
 20
266.93974325393185
 11
702.34319271863876
 21
266.93974325393185
  0
LINE
  8
_0-8_細線
  6
CONTINUOUS
 62
    4
 10
712.96597170109771
 20
266.93974325393185
 11
719.45145291958886
 21
266.93974325393185
  0
LINE
  8
_0-8_細線
  6
CONTINUOUS
 62
    4
 10
720.23698960676245
 20
266.93974325393185
 11
725.73698960676256
 21
266.93974325393185
  0
LINE
  8
_0-8_細線
  6
CONTINUOUS
 62
    4
 10
574.02155161179553
 20
267.93974325393208
 11
599.55627141545608
 21
267.93974325393208
  0
LINE
  8
_0-8_細線
  6
CONTINUOUS
 62
    4
 10
606.52837637852679
 20
267.93974325393208
 11
613.02837637852599
 21
267.93974325393208
  0
LINE
  8
_0-8_細線
  6
CONTINUOUS
 62
    4
 10
626.72369849588665
 20
267.93974325393208
 11
633.60321580776815
 21
267.93974325393208
  0
LINE
  8
_0-8_細線
  6
CONTINUOUS
 62
    4
 10
644.32083719978209
 20
267.93974325393208
 11
650.82083719978107
 21
267.93974325393208
  0
LINE
  8
_0-8_細線
  6
CONTINUOUS
 62
    4
 10
651.57251837791364
 20
267.93974325393208
 11
658.07251837791364
 21
267.93974325393208
  0
LINE
  8
_0-8_細線
  6
CONTINUOUS
 62
    4
 10
663.07251837791364
 20
267.93974325393208
 11
689.33460982265797
 21
267.93974325393208
  0
LINE
  8
_0-8_細線
  6
CONTINUOUS
 62
    4
 10
695.84319271863887
 20
267.93974325393208
 11
702.34319271863876
 21
267.93974325393208
  0
LINE
  8
_0-8_細線
  6
CONTINUOUS
 62
    4
 10
712.34110234918853
 20
267.93974325393208
 11
718.82658356767979
 21
267.93974325393208
  0
LINE
  8
_0-8_細線
  6
CONTINUOUS
 62
    4
 10
720.23698960676245
 20
267.93974325393208
 11
725.73698960676256
 21
267.93974325393208
  0
LINE
  8
_0-8_細線
  6
CONTINUOUS
 62
    4
 10
574.48785926995095
 20
268.93974325393208
 11
599.08996375730146
 21
268.93974325393208
  0
LINE
  8
_0-8_細線
  6
CONTINUOUS
 62
    4
 10
606.52837637852679
 20
268.93974325393208
 11
613.02837637852599
 21
268.93974325393208
  0
LINE
  8
_0-8_細線
  6
CONTINUOUS
 62
    4
 10
627.26564329756593
 20
268.93974325393208
 11
633.85288409422208
 21
268.93974325393208
  0
LINE
  8
_0-8_細線
  6
CONTINUOUS
 62
    4
 10
643.85452954162656
 20
268.93974325393208
 11
650.35452954162554
 21
268.93974325393208
  0
LINE
  8
_0-8_細線
  6
CONTINUOUS
 62
    4
 10
652.03882603606814
 20
268.93974325393208
 11
658.53882603606814
 21
268.93974325393208
  0
LINE
  8
_0-8_細線
  6
CONTINUOUS
 62
    4
 10
663.53882603606826
 20
268.93974325393208
 11
688.86830216450244
 21
268.93974325393208
  0
LINE
  8
_0-8_細線
  6
CONTINUOUS
 62
    4
 10
695.84319271863887
 20
268.93974325393208
 11
702.34319271863876
 21
268.93974325393208
  0
LINE
  8
_0-8_細線
  6
CONTINUOUS
 62
    4
 10
711.71623299727923
 20
268.93974325393208
 11
718.20171421577061
 21
268.93974325393208
  0
LINE
  8
_0-8_細線
  6
CONTINUOUS
 62
    4
 10
720.23698960676245
 20
268.93974325393208
 11
725.73698960676256
 21
268.93974325393208
  0
LINE
  8
_0-8_細線
  6
CONTINUOUS
 62
    4
 10
574.95416692810568
 20
269.93974325393174
 11
598.62365609914605
 21
269.93974325393174
  0
LINE
  8
_0-8_細線
  6
CONTINUOUS
 62
    4
 10
606.52837637852679
 20
269.93974325393174
 11
613.02837637852599
 21
269.93974325393174
  0
LINE
  8
_0-8_細線
  6
CONTINUOUS
 62
    4
 10
627.6047844521413
 20
269.93974325393174
 11
634.06673573733269
 21
269.93974325393174
  0
LINE
  8
_0-8_細線
  6
CONTINUOUS
 62
    4
 10
643.38822188347103
 20
269.93974325393174
 11
649.88822188347103
 21
269.93974325393174
  0
LINE
  8
_0-8_細線
  6
CONTINUOUS
 62
    4
 10
652.50513369422288
 20
269.93974325393174
 11
659.00513369422276
 21
269.93974325393174
  0
LINE
  8
_0-8_細線
  6
CONTINUOUS
 62
    4
 10
664.00513369422276
 20
269.93974325393174
 11
688.40199450634782
 21
269.93974325393174
  0
LINE
  8
_0-8_細線
  6
CONTINUOUS
 62
    4
 10
695.84319271863887
 20
269.93974325393174
 11
702.34319271863876
 21
269.93974325393174
  0
LINE
  8
_0-8_細線
  6
CONTINUOUS
 62
    4
 10
711.09136364536914
 20
269.93974325393174
 11
717.57684486386052
 21
269.93974325393174
  0
LINE
  8
_0-8_細線
  6
CONTINUOUS
 62
    4
 10
720.23698960676245
 20
269.93974325393174
 11
725.73698960676256
 21
269.93974325393174
  0
LINE
  8
_0-8_細線
  6
CONTINUOUS
 62
    4
 10
575.4204745862603
 20
270.93974325393162
 11
598.15734844099052
 21
270.93974325393162
  0
LINE
  8
_0-8_細線
  6
CONTINUOUS
 62
    4
 10
606.52837637852679
 20
270.93974325393162
 11
613.02837637852599
 21
270.93974325393162
  0
LINE
  8
_0-8_細線
  6
CONTINUOUS
 62
    4
 10
627.81151635091328
 20
270.93974325393162
 11
634.24097175779161
 21
270.93974325393162
  0
LINE
  8
_0-8_細線
  6
CONTINUOUS
 62
    4
 10
642.92191422531641
 20
270.93974325393162
 11
649.42191422531641
 21
270.93974325393162
  0
LINE
  8
_0-8_細線
  6
CONTINUOUS
 62
    4
 10
652.97144135237841
 20
270.93974325393162
 11
659.47144135237829
 21
270.93974325393162
  0
LINE
  8
_0-8_細線
  6
CONTINUOUS
 62
    4
 10
664.47144135237841
 20
270.93974325393162
 11
687.9356868481932
 21
270.93974325393162
  0
LINE
  8
_0-8_細線
  6
CONTINUOUS
 62
    4
 10
695.84319271863887
 20
270.93974325393162
 11
702.34319271863876
 21
270.93974325393162
  0
LINE
  8
_0-8_細線
  6
CONTINUOUS
 62
    4
 10
710.46649429346007
 20
270.93974325393162
 11
716.95197551195224
 21
270.93974325393162
  0
LINE
  8
_0-8_細線
  6
CONTINUOUS
 62
    4
 10
720.23698960676245
 20
270.93974325393162
 11
725.73698960676256
 21
270.93974325393162
  0
LINE
  8
_0-8_細線
  6
CONTINUOUS
 62
    4
 10
575.88678224441492
 20
271.93974325393185
 11
582.38678224441492
 21
271.93974325393185
  0
LINE
  8
_0-8_細線
  6
CONTINUOUS
 62
    4
 10
591.1910407828359
 20
271.93974325393185
 11
597.69104078283578
 21
271.93974325393185
  0
LINE
  8
_0-8_細線
  6
CONTINUOUS
 62
    4
 10
606.52837637852679
 20
271.93974325393185
 11
613.02837637852599
 21
271.93974325393185
  0
LINE
  8
_0-8_細線
  6
CONTINUOUS
 62
    4
 10
627.93311288328857
 20
271.93974325393185
 11
634.37496820451952
 21
271.93974325393185
  0
LINE
  8
_0-8_細線
  6
CONTINUOUS
 62
    4
 10
642.45560656716088
 20
271.93974325393185
 11
648.95560656716168
 21
271.93974325393185
  0
LINE
  8
_0-8_細線
  6
CONTINUOUS
 62
    4
 10
653.43774901053393
 20
271.93974325393185
 11
659.93774901053303
 21
271.93974325393185
  0
LINE
  8
_0-8_細線
  6
CONTINUOUS
 62
    4
 10
664.93774901053303
 20
271.93974325393185
 11
671.43774901053303
 21
271.93974325393185
  0
LINE
  8
_0-8_細線
  6
CONTINUOUS
 62
    4
 10
680.96937919003858
 20
271.93974325393185
 11
687.46937919003767
 21
271.93974325393185
  0
LINE
  8
_0-8_細線
  6
CONTINUOUS
 62
    4
 10
695.84319271863887
 20
271.93974325393185
 11
702.34319271863876
 21
271.93974325393185
  0
LINE
  8
_0-8_細線
  6
CONTINUOUS
 62
    4
 10
709.84162494155089
 20
271.93974325393185
 11
716.32710616004204
 21
271.93974325393185
  0
LINE
  8
_0-8_細線
  6
CONTINUOUS
 62
    4
 10
720.23698960676245
 20
271.93974325393185
 11
725.73698960676256
 21
271.93974325393185
  0
LINE
  8
_0-8_細線
  6
CONTINUOUS
 62
    4
 10
576.35308990257045
 20
272.93974325393242
 11
582.85308990257045
 21
272.93974325393242
  0
LINE
  8
_0-8_細線
  6
CONTINUOUS
 62
    4
 10
590.72473312468128
 20
272.93974325393242
 11
597.22473312468117
 21
272.93974325393242
  0
LINE
  8
_0-8_細線
  6
CONTINUOUS
 62
    4
 10
606.52837637852679
 20
272.93974325393242
 11
613.02837637852599
 21
272.93974325393242
  0
LINE
  8
_0-8_細線
  6
CONTINUOUS
 62
    4
 10
627.99793237145559
 20
272.93974325393242
 11
634.46797554832438
 21
272.93974325393242
  0
LINE
  8
_0-8_細線
  6
CONTINUOUS
 62
    4
 10
641.98929890900627
 20
272.93974325393242
 11
648.48929890900615
 21
272.93974325393242
  0
LINE
  8
_0-8_細線
  6
CONTINUOUS
 62
    4
 10
653.90405666868844
 20
272.93974325393242
 11
660.40405666868844
 21
272.93974325393242
  0
LINE
  8
_0-8_細線
  6
CONTINUOUS
 62
    4
 10
665.40405666868855
 20
272.93974325393242
 11
671.90405666868844
 21
272.93974325393242
  0
LINE
  8
_0-8_細線
  6
CONTINUOUS
 62
    4
 10
680.50307153188294
 20
272.93974325393242
 11
687.00307153188294
 21
272.93974325393242
  0
LINE
  8
_0-8_細線
  6
CONTINUOUS
 62
    4
 10
695.84319271863887
 20
272.93974325393242
 11
702.34319271863876
 21
272.93974325393242
  0
LINE
  8
_0-8_細線
  6
CONTINUOUS
 62
    4
 10
709.21675558964159
 20
272.93974325393242
 11
715.70223680813285
 21
272.93974325393242
  0
LINE
  8
_0-8_細線
  6
CONTINUOUS
 62
    4
 10
720.23698960676245
 20
272.93974325393242
 11
725.73698960676256
 21
272.93974325393242
  0
LINE
  8
_0-8_細線
  6
CONTINUOUS
 62
    4
 10
576.81939756072597
 20
273.93974325393174
 11
583.31939756072586
 21
273.93974325393174
  0
LINE
  8
_0-8_細線
  6
CONTINUOUS
 62
    4
 10
590.25842546652564
 20
273.93974325393174
 11
596.75842546652666
 21
273.93974325393174
  0
LINE
  8
_0-8_細線
  6
CONTINUOUS
 62
    4
 10
606.52837637852679
 20
273.93974325393174
 11
613.02837637852599
 21
273.93974325393174
  0
LINE
  8
_0-8_細線
  6
CONTINUOUS
 62
    4
 10
628.02511694557813
 20
273.93974325393174
 11
634.51953882656153
 21
273.93974325393174
  0
LINE
  8
_0-8_細線
  6
CONTINUOUS
 62
    4
 10
641.52299125085165
 20
273.93974325393174
 11
648.02299125085165
 21
273.93974325393174
  0
LINE
  8
_0-8_細線
  6
CONTINUOUS
 62
    4
 10
654.37036432684317
 20
273.93974325393174
 11
660.87036432684306
 21
273.93974325393174
  0
LINE
  8
_0-8_細線
  6
CONTINUOUS
 62
    4
 10
665.87036432684306
 20
273.93974325393174
 11
672.37036432684306
 21
273.93974325393174
  0
LINE
  8
_0-8_細線
  6
CONTINUOUS
 62
    4
 10
680.03676387372752
 20
273.93974325393174
 11
686.53676387372752
 21
273.93974325393174
  0
LINE
  8
_0-8_細線
  6
CONTINUOUS
 62
    4
 10
695.84319271863887
 20
273.93974325393174
 11
702.34319271863876
 21
273.93974325393174
  0
LINE
  8
_0-8_細線
  6
CONTINUOUS
 62
    4
 10
708.59188623773252
 20
273.93974325393174
 11
715.07736745622378
 21
273.93974325393174
  0
LINE
  8
_0-8_細線
  6
CONTINUOUS
 62
    4
 10
720.23698960676245
 20
273.93974325393174
 11
725.73698960676256
 21
273.93974325393174
  0
LINE
  8
_0-8_細線
  6
CONTINUOUS
 62
    4
 10
577.28570521888059
 20
274.93974325393197
 11
583.78570521888048
 21
274.93974325393197
  0
LINE
  8
_0-8_細線
  6
CONTINUOUS
 62
    4
 10
589.79211780837113
 20
274.93974325393197
 11
596.29211780837204
 21
274.93974325393197
  0
LINE
  8
_0-8_細線
  6
CONTINUOUS
 62
    4
 10
606.52837637852679
 20
274.93974325393197
 11
613.02837637852599
 21
274.93974325393197
  0
LINE
  8
_0-8_細線
  6
CONTINUOUS
 62
    4
 10
628.02631150559091
 20
274.93974325393197
 11
634.52277772926345
 21
274.93974325393197
  0
LINE
  8
_0-8_細線
  6
CONTINUOUS
 62
    4
 10
641.05668359269612
 20
274.93974325393197
 11
647.55668359269612
 21
274.93974325393197
  0
LINE
  8
_0-8_細線
  6
CONTINUOUS
 62
    4
 10
654.83667198499779
 20
274.93974325393197
 11
661.33667198499859
 21
274.93974325393197
  0
LINE
  8
_0-8_細線
  6
CONTINUOUS
 62
    4
 10
666.33667198499768
 20
274.93974325393197
 11
672.83667198499779
 21
274.93974325393197
  0
LINE
  8
_0-8_細線
  6
CONTINUOUS
 62
    4
 10
679.57045621557279
 20
274.93974325393197
 11
686.0704562155729
 21
274.93974325393197
  0
LINE
  8
_0-8_細線
  6
CONTINUOUS
 62
    4
 10
695.84319271863887
 20
274.93974325393197
 11
702.34319271863876
 21
274.93974325393197
  0
LINE
  8
_0-8_細線
  6
CONTINUOUS
 62
    4
 10
707.96701688582334
 20
274.93974325393197
 11
714.4524981043146
 21
274.93974325393197
  0
LINE
  8
_0-8_細線
  6
CONTINUOUS
 62
    4
 10
720.23698960676245
 20
274.93974325393197
 11
725.73698960676256
 21
274.93974325393197
  0
LINE
  8
_0-8_細線
  6
CONTINUOUS
 62
    4
 10
577.75201287703521
 20
275.93974325393197
 11
584.25201287703521
 21
275.93974325393197
  0
LINE
  8
_0-8_細線
  6
CONTINUOUS
 62
    4
 10
589.32581015021651
 20
275.93974325393197
 11
595.82581015021651
 21
275.93974325393197
  0
LINE
  8
_0-8_細線
  6
CONTINUOUS
 62
    4
 10
606.52837637852679
 20
275.93974325393197
 11
613.02837637852599
 21
275.93974325393197
  0
LINE
  8
_0-8_細線
  6
CONTINUOUS
 62
    4
 10
628.00468271618547
 20
275.93974325393197
 11
634.47989670636844
 21
275.93974325393197
  0
LINE
  8
_0-8_細線
  6
CONTINUOUS
 62
    4
 10
640.5903759345415
 20
275.93974325393197
 11
647.09037593454138
 21
275.93974325393197
  0
LINE
  8
_0-8_細線
  6
CONTINUOUS
 62
    4
 10
655.30297964315332
 20
275.93974325393197
 11
661.80297964315332
 21
275.93974325393197
  0
LINE
  8
_0-8_細線
  6
CONTINUOUS
 62
    4
 10
666.80297964315332
 20
275.93974325393197
 11
673.30297964315332
 21
275.93974325393197
  0
LINE
  8
_0-8_細線
  6
CONTINUOUS
 62
    4
 10
679.10414855741828
 20
275.93974325393197
 11
685.60414855741828
 21
275.93974325393197
  0
LINE
  8
_0-8_細線
  6
CONTINUOUS
 62
    4
 10
695.84319271863887
 20
275.93974325393197
 11
702.34319271863876
 21
275.93974325393197
  0
LINE
  8
_0-8_細線
  6
CONTINUOUS
 62
    4
 10
707.34214753391313
 20
275.93974325393197
 11
713.82762875240542
 21
275.93974325393197
  0
LINE
  8
_0-8_細線
  6
CONTINUOUS
 62
    4
 10
720.23698960676245
 20
275.93974325393197
 11
725.73698960676256
 21
275.93974325393197
  0
LINE
  8
_0-8_細線
  6
CONTINUOUS
 62
    4
 10
578.21832053518983
 20
276.93974325393128
 11
584.71832053519074
 21
276.93974325393128
  0
LINE
  8
_0-8_細線
  6
CONTINUOUS
 62
    4
 10
588.85950249206098
 20
276.93974325393128
 11
595.35950249206087
 21
276.93974325393128
  0
LINE
  8
_0-8_細線
  6
CONTINUOUS
 62
    4
 10
606.52837637852679
 20
276.93974325393128
 11
613.02837637852599
 21
276.93974325393128
  0
LINE
  8
_0-8_細線
  6
CONTINUOUS
 62
    4
 10
627.95207991987309
 20
276.93974325393128
 11
634.39760817827073
 21
276.93974325393128
  0
LINE
  8
_0-8_細線
  6
CONTINUOUS
 62
    4
 10
640.12406827638688
 20
276.93974325393128
 11
646.62406827638677
 21
276.93974325393128
  0
LINE
  8
_0-8_細線
  6
CONTINUOUS
 62
    4
 10
655.76928730130874
 20
276.93974325393128
 11
662.26928730130794
 21
276.93974325393128
  0
LINE
  8
_0-8_細線
  6
CONTINUOUS
 62
    4
 10
667.26928730130885
 20
276.93974325393128
 11
673.76928730130794
 21
276.93974325393128
  0
LINE
  8
_0-8_細線
  6
CONTINUOUS
 62
    4
 10
678.63784089926264
 20
276.93974325393128
 11
685.13784089926264
 21
276.93974325393128
  0
LINE
  8
_0-8_細線
  6
CONTINUOUS
 62
    4
 10
695.84319271863887
 20
276.93974325393128
 11
702.34319271863876
 21
276.93974325393128
  0
LINE
  8
_0-8_細線
  6
CONTINUOUS
 62
    4
 10
706.71727818200407
 20
276.93974325393128
 11
713.20275940049532
 21
276.93974325393128
  0
LINE
  8
_0-8_細線
  6
CONTINUOUS
 62
    4
 10
720.23698960676245
 20
276.93974325393128
 11
725.73698960676256
 21
276.93974325393128
  0
LINE
  8
_0-8_細線
  6
CONTINUOUS
 62
    4
 10
578.68462819334536
 20
277.93974325393242
 11
585.18462819334525
 21
277.93974325393242
  0
LINE
  8
_0-8_細線
  6
CONTINUOUS
 62
    4
 10
588.39319483390625
 20
277.93974325393242
 11
594.89319483390636
 21
277.93974325393242
  0
LINE
  8
_0-8_細線
  6
CONTINUOUS
 62
    4
 10
606.52837637852679
 20
277.93974325393242
 11
613.02837637852599
 21
277.93974325393242
  0
LINE
  8
_0-8_細線
  6
CONTINUOUS
 62
    4
 10
627.84990580737156
 20
277.93974325393242
 11
634.27404316532602
 21
277.93974325393242
  0
LINE
  8
_0-8_細線
  6
CONTINUOUS
 62
    4
 10
639.65776061823124
 20
277.93974325393242
 11
646.15776061823124
 21
277.93974325393242
  0
LINE
  8
_0-8_細線
  6
CONTINUOUS
 62
    4
 10
656.23559495946347
 20
277.93974325393242
 11
662.73559495946336
 21
277.93974325393242
  0
LINE
  8
_0-8_細線
  6
CONTINUOUS
 62
    4
 10
667.73559495946336
 20
277.93974325393242
 11
674.23559495946336
 21
277.93974325393242
  0
LINE
  8
_0-8_細線
  6
CONTINUOUS
 62
    4
 10
678.17153324110814
 20
277.93974325393242
 11
684.67153324110814
 21
277.93974325393242
  0
LINE
  8
_0-8_細線
  6
CONTINUOUS
 62
    4
 10
695.84319271863887
 20
277.93974325393242
 11
702.34319271863876
 21
277.93974325393242
  0
LINE
  8
_0-8_細線
  6
CONTINUOUS
 62
    4
 10
706.09240883009477
 20
277.93974325393242
 11
712.57789004858694
 21
277.93974325393242
  0
LINE
  8
_0-8_細線
  6
CONTINUOUS
 62
    4
 10
720.23698960676245
 20
277.93974325393242
 11
725.73698960676256
 21
277.93974325393242
  0
LINE
  8
_0-8_細線
  6
CONTINUOUS
 62
    4
 10
579.15093585150089
 20
278.93974325393174
 11
585.65093585150078
 21
278.93974325393174
  0
LINE
  8
_0-8_細線
  6
CONTINUOUS
 62
    4
 10
587.92688717575174
 20
278.93974325393174
 11
594.42688717575174
 21
278.93974325393174
  0
LINE
  8
_0-8_細線
  6
CONTINUOUS
 62
    4
 10
606.52837637852679
 20
278.93974325393174
 11
613.02837637852599
 21
278.93974325393174
  0
LINE
  8
_0-8_細線
  6
CONTINUOUS
 62
    4
 10
627.67216660196334
 20
278.93974325393174
 11
634.10998160868564
 21
278.93974325393174
  0
LINE
  8
_0-8_細線
  6
CONTINUOUS
 62
    4
 10
639.19145296007582
 20
278.93974325393174
 11
645.69145296007673
 21
278.93974325393174
  0
LINE
  8
_0-8_細線
  6
CONTINUOUS
 62
    4
 10
656.70190261761809
 20
278.93974325393174
 11
663.20190261761798
 21
278.93974325393174
  0
LINE
  8
_0-8_細線
  6
CONTINUOUS
 62
    4
 10
668.20190261761798
 20
278.93974325393174
 11
674.70190261761809
 21
278.93974325393174
  0
LINE
  8
_0-8_細線
  6
CONTINUOUS
 62
    4
 10
677.70522558295249
 20
278.93974325393174
 11
684.20522558295261
 21
278.93974325393174
  0
LINE
  8
_0-8_細線
  6
CONTINUOUS
 62
    4
 10
695.84319271863887
 20
278.93974325393174
 11
702.34319271863876
 21
278.93974325393174
  0
LINE
  8
_0-8_細線
  6
CONTINUOUS
 62
    4
 10
705.4675394781857
 20
278.93974325393174
 11
711.95302069667696
 21
278.93974325393174
  0
LINE
  8
_0-8_細線
  6
CONTINUOUS
 62
    4
 10
720.23698960676245
 20
278.93974325393174
 11
725.73698960676256
 21
278.93974325393174
  0
LINE
  8
_0-8_細線
  6
CONTINUOUS
 62
    4
 10
579.61724350965551
 20
279.93974325393197
 11
586.11724350965551
 21
279.93974325393197
  0
LINE
  8
_0-8_細線
  6
CONTINUOUS
 62
    4
 10
587.46057951759622
 20
279.93974325393197
 11
593.96057951759622
 21
279.93974325393197
  0
LINE
  8
_0-8_細線
  6
CONTINUOUS
 62
    4
 10
606.52837637852679
 20
279.93974325393197
 11
613.02837637852599
 21
279.93974325393197
  0
LINE
  8
_0-8_細線
  6
CONTINUOUS
 62
    4
 10
627.3718357913217
 20
279.93974325393197
 11
633.90607664448316
 21
279.93974325393197
  0
LINE
  8
_0-8_細線
  6
CONTINUOUS
 62
    4
 10
638.7251453019212
 20
279.93974325393197
 11
645.22514530192109
 21
279.93974325393197
  0
LINE
  8
_0-8_細線
  6
CONTINUOUS
 62
    4
 10
657.16821027577362
 20
279.93974325393197
 11
663.66821027577271
 21
279.93974325393197
  0
LINE
  8
_0-8_細線
  6
CONTINUOUS
 62
    4
 10
668.66821027577271
 20
279.93974325393197
 11
675.16821027577271
 21
279.93974325393197
  0
LINE
  8
_0-8_細線
  6
CONTINUOUS
 62
    4
 10
677.23891792479799
 20
279.93974325393197
 11
683.73891792479799
 21
279.93974325393197
  0
LINE
  8
_0-8_細線
  6
CONTINUOUS
 62
    4
 10
695.84319271863887
 20
279.93974325393197
 11
702.34319271863876
 21
279.93974325393197
  0
LINE
  8
_0-8_細線
  6
CONTINUOUS
 62
    4
 10
704.84267012627652
 20
279.93974325393197
 11
711.32815134476766
 21
279.93974325393197
  0
LINE
  8
_0-8_細線
  6
CONTINUOUS
 62
    4
 10
720.23698960676245
 20
279.93974325393197
 11
725.73698960676256
 21
279.93974325393197
  0
LINE
  8
_0-8_細線
  6
CONTINUOUS
 62
    4
 10
580.08355116781013
 20
280.93974325393197
 11
586.58355116781013
 21
280.93974325393197
  0
LINE
  8
_0-8_細線
  6
CONTINUOUS
 62
    4
 10
586.99427185944069
 20
280.93974325393197
 11
593.4942718594416
 21
280.93974325393197
  0
LINE
  8
_0-8_細線
  6
CONTINUOUS
 62
    4
 10
606.52837637852679
 20
280.93974325393197
 11
613.02837637852599
 21
280.93974325393197
  0
LINE
  8
_0-8_細線
  6
CONTINUOUS
 62
    4
 10
626.88268262977317
 20
280.93974325393197
 11
633.6641320112135
 21
280.93974325393197
  0
LINE
  8
_0-8_細線
  6
CONTINUOUS
 62
    4
 10
638.25883764376658
 20
280.93974325393197
 11
644.75883764376647
 21
280.93974325393197
  0
LINE
  8
_0-8_細線
  6
CONTINUOUS
 62
    4
 10
657.63451793392824
 20
280.93974325393197
 11
664.13451793392824
 21
280.93974325393197
  0
LINE
  8
_0-8_細線
  6
CONTINUOUS
 62
    4
 10
669.13451793392824
 20
280.93974325393197
 11
675.63451793392824
 21
280.93974325393197
  0
LINE
  8
_0-8_細線
  6
CONTINUOUS
 62
    4
 10
676.77261026664337
 20
280.93974325393197
 11
683.27261026664326
 21
280.93974325393197
  0
LINE
  8
_0-8_細線
  6
CONTINUOUS
 62
    4
 10
695.84319271863887
 20
280.93974325393197
 11
702.34319271863876
 21
280.93974325393197
  0
LINE
  8
_0-8_細線
  6
CONTINUOUS
 62
    4
 10
704.21780077436733
 20
280.93974325393197
 11
710.70328199285848
 21
280.93974325393197
  0
LINE
  8
_0-8_細線
  6
CONTINUOUS
 62
    4
 10
720.23698960676245
 20
280.93974325393197
 11
725.73698960676256
 21
280.93974325393197
  0
LINE
  8
_0-8_細線
  6
CONTINUOUS
 62
    4
 10
580.54985882596566
 20
281.93974325393128
 11
593.02796420128607
 21
281.93974325393128
  0
LINE
  8
_0-8_細線
  6
CONTINUOUS
 62
    4
 10
606.52837637852679
 20
281.93974325393128
 11
613.02837637852599
 21
281.93974325393128
  0
LINE
  8
_0-8_細線
  6
CONTINUOUS
 62
    4
 10
626.05204179374914
 20
281.93974325393128
 11
633.37898679978707
 21
281.93974325393128
  0
LINE
  8
_0-8_細線
  6
CONTINUOUS
 62
    4
 10
637.79252998561185
 20
281.93974325393128
 11
644.29252998561196
 21
281.93974325393128
  0
LINE
  8
_0-8_細線
  6
CONTINUOUS
 62
    4
 10
658.10082559208377
 20
281.93974325393128
 11
664.60082559208365
 21
281.93974325393128
  0
LINE
  8
_0-8_細線
  6
CONTINUOUS
 62
    4
 10
669.60082559208365
 20
281.93974325393128
 11
676.10082559208274
 21
281.93974325393128
  0
LINE
  8
_0-8_細線
  6
CONTINUOUS
 62
    4
 10
676.30630260848784
 20
281.93974325393128
 11
682.80630260848784
 21
281.93974325393128
  0
LINE
  8
_0-8_細線
  6
CONTINUOUS
 62
    4
 10
695.84319271863887
 20
281.93974325393128
 11
702.34319271863876
 21
281.93974325393128
  0
LINE
  8
_0-8_細線
  6
CONTINUOUS
 62
    4
 10
703.59293142245724
 20
281.93974325393128
 11
710.0784126409485
 21
281.93974325393128
  0
LINE
  8
_0-8_細線
  6
CONTINUOUS
 62
    4
 10
720.23698960676245
 20
281.93974325393128
 11
725.73698960676256
 21
281.93974325393128
  0
LINE
  8
_0-8_細線
  6
CONTINUOUS
 62
    4
 10
581.01616648412119
 20
282.93974325393208
 11
592.56165654313133
 21
282.93974325393208
  0
LINE
  8
_0-8_細線
  6
CONTINUOUS
 62
    4
 10
606.52837637852679
 20
282.93974325393208
 11
613.02837637852599
 21
282.93974325393208
  0
LINE
  8
_0-8_細線
  6
CONTINUOUS
 62
    4
 10
624.75513912226916
 20
282.93974325393208
 11
633.02635437860908
 21
282.93974325393208
  0
LINE
  8
_0-8_細線
  6
CONTINUOUS
 62
    4
 10
637.32622232745643
 20
282.93974325393208
 11
643.82622232745643
 21
282.93974325393208
  0
LINE
  8
_0-8_細線
  6
CONTINUOUS
 62
    4
 10
658.56713325023838
 20
282.93974325393208
 11
665.06713325023827
 21
282.93974325393208
  0
LINE
  8
_0-8_細線
  6
CONTINUOUS
 62
    4
 10
670.06713325023827
 20
282.93974325393208
 11
682.33999495033231
 21
282.93974325393208
  0
LINE
  8
_0-8_細線
  6
CONTINUOUS
 62
    4
 10
695.84319271863887
 20
282.93974325393208
 11
702.34319271863876
 21
282.93974325393208
  0
LINE
  8
_0-8_細線
  6
CONTINUOUS
 62
    4
 10
702.96806207054885
 20
282.93974325393208
 11
709.45354328904023
 21
282.93974325393208
  0
LINE
  8
_0-8_細線
  6
CONTINUOUS
 62
    4
 10
720.23698960676245
 20
282.93974325393208
 11
725.73698960676256
 21
282.93974325393208
  0
LINE
  8
_0-8_細線
  6
CONTINUOUS
 62
    4
 10
581.48247414227581
 20
283.93974325393174
 11
592.09534888497683
 21
283.93974325393174
  0
LINE
  8
_0-8_細線
  6
CONTINUOUS
 62
    4
 10
606.52837637852679
 20
283.93974325393174
 11
613.02837637852599
 21
283.93974325393174
  0
LINE
  8
_0-8_細線
  6
CONTINUOUS
 62
    4
 10
623.02837637852599
 20
283.93974325393174
 11
632.52837637852588
 21
283.93974325393174
  0
LINE
  8
_0-8_細線
  6
CONTINUOUS
 62
    4
 10
636.85991466930182
 20
283.93974325393174
 11
643.35991466930091
 21
283.93974325393174
  0
LINE
  8
_0-8_細線
  6
CONTINUOUS
 62
    4
 10
659.03344090839289
 20
283.93974325393174
 11
665.533440908393
 21
283.93974325393174
  0
LINE
  8
_0-8_細線
  6
CONTINUOUS
 62
    4
 10
670.533440908393
 20
283.93974325393174
 11
681.87368729217769
 21
283.93974325393174
  0
LINE
  8
_0-8_細線
  6
CONTINUOUS
 62
    4
 10
695.84319271863887
 20
283.93974325393174
 11
702.34319271863876
 21
283.93974325393174
  0
LINE
  8
_0-8_細線
  6
CONTINUOUS
 62
    4
 10
702.34319271863876
 20
283.93974325393174
 11
708.82867393713013
 21
283.93974325393174
  0
LINE
  8
_0-8_細線
  6
CONTINUOUS
 62
    4
 10
720.23698960676245
 20
283.93974325393174
 11
725.73698960676256
 21
283.93974325393174
  0
LINE
  8
_0-8_細線
  6
CONTINUOUS
 62
    4
 10
581.94878180043042
 20
284.93974325393197
 11
591.6290412268213
 21
284.93974325393197
  0
LINE
  8
_0-8_細線
  6
CONTINUOUS
 62
    4
 10
606.52837637852679
 20
284.93974325393197
 11
631.73344302460055
 21
284.93974325393197
  0
LINE
  8
_0-8_細線
  6
CONTINUOUS
 62
    4
 10
636.39360701114629
 20
284.93974325393197
 11
642.89360701114617
 21
284.93974325393197
  0
LINE
  8
_0-8_細線
  6
CONTINUOUS
 62
    4
 10
659.49974856654762
 20
284.93974325393197
 11
665.99974856654853
 21
284.93974325393197
  0
LINE
  8
_0-8_細線
  6
CONTINUOUS
 62
    4
 10
670.99974856654853
 20
284.93974325393197
 11
681.40737963402296
 21
284.93974325393197
  0
LINE
  8
_0-8_細線
  6
CONTINUOUS
 62
    4
 10
695.84319271863887
 20
284.93974325393197
 11
708.20380458522175
 21
284.93974325393197
  0
LINE
  8
_0-8_細線
  6
CONTINUOUS
 62
    4
 10
720.23698960676245
 20
284.93974325393197
 11
725.73698960676256
 21
284.93974325393197
  0
LINE
  8
_0-8_細線
  6
CONTINUOUS
 62
    4
 10
582.41508945858504
 20
285.93974325393162
 11
591.16273356866577
 21
285.93974325393162
  0
LINE
  8
_0-8_細線
  6
CONTINUOUS
 62
    4
 10
606.52837637852679
 20
285.93974325393162
 11
630.61130959155844
 21
285.93974325393162
  0
LINE
  8
_0-8_細線
  6
CONTINUOUS
 62
    4
 10
635.92729935299155
 20
285.93974325393162
 11
642.42729935299167
 21
285.93974325393162
  0
LINE
  8
_0-8_細線
  6
CONTINUOUS
 62
    4
 10
659.96605622470304
 20
285.93974325393162
 11
666.46605622470304
 21
285.93974325393162
  0
LINE
  8
_0-8_細線
  6
CONTINUOUS
 62
    4
 10
671.46605622470304
 20
285.93974325393162
 11
680.94107197586834
 21
285.93974325393162
  0
LINE
  8
_0-8_細線
  6
CONTINUOUS
 62
    4
 10
695.84319271863887
 20
285.93974325393162
 11
707.57893523331165
 21
285.93974325393162
  0
LINE
  8
_0-8_細線
  6
CONTINUOUS
 62
    4
 10
720.23698960676245
 20
285.93974325393162
 11
725.73698960676256
 21
285.93974325393162
  0
LINE
  8
_0-8_細線
  6
CONTINUOUS
 62
    4
 10
582.88139711674046
 20
286.93974325393128
 11
590.69642591051115
 21
286.93974325393128
  0
LINE
  8
_0-8_細線
  6
CONTINUOUS
 62
    4
 10
606.52837637852679
 20
286.93974325393128
 11
628.94241040839324
 21
286.93974325393128
  0
LINE
  8
_0-8_細線
  6
CONTINUOUS
 62
    4
 10
635.46099169483693
 20
286.93974325393128
 11
641.96099169483705
 21
286.93974325393128
  0
LINE
  8
_0-8_細線
  6
CONTINUOUS
 62
    4
 10
660.43236388285868
 20
286.93974325393128
 11
666.93236388285777
 21
286.93974325393128
  0
LINE
  8
_0-8_細線
  6
CONTINUOUS
 62
    4
 10
671.93236388285857
 20
286.93974325393128
 11
680.47476431771292
 21
286.93974325393128
  0
LINE
  8
_0-8_細線
  6
CONTINUOUS
 62
    4
 10
695.84319271863887
 20
286.93974325393128
 11
706.95406588140258
 21
286.93974325393128
  0
LINE
  8
_0-8_細線
  6
CONTINUOUS
 62
    4
 10
720.23698960676245
 20
286.93974325393128
 11
725.73698960676256
 21
286.93974325393128
  0
LINE
  8
_0-8_細線
  6
CONTINUOUS
 62
    4
 10
583.3477047748961
 20
287.93974325393185
 11
590.23011825235653
 21
287.93974325393185
  0
LINE
  8
_0-8_細線
  6
CONTINUOUS
 62
    4
 10
606.52837637852679
 20
287.93974325393185
 11
626.52837637852599
 21
287.93974325393185
  0
LINE
  8
_0-8_細線
  6
CONTINUOUS
 62
    4
 10
634.99468403668152
 20
287.93974325393185
 11
641.49468403668152
 21
287.93974325393185
  0
LINE
  8
_0-8_細線
  6
CONTINUOUS
 62
    4
 10
660.89867154101319
 20
287.93974325393185
 11
667.3986715410133
 21
287.93974325393185
  0
LINE
  8
_0-8_細線
  6
CONTINUOUS
 62
    4
 10
672.3986715410133
 20
287.93974325393185
 11
680.00845665955831
 21
287.93974325393185
  0
LINE
  8
_0-8_細線
  6
CONTINUOUS
 62
    4
 10
695.84319271863887
 20
287.93974325393185
 11
706.3291965294934
 21
287.93974325393185
  0
LINE
  8
_0-8_細線
  6
CONTINUOUS
 62
    4
 10
720.23698960676245
 20
287.93974325393185
 11
725.73698960676256
 21
287.93974325393185
  0
LINE
  8
_0-8_細線
  6
CONTINUOUS
 62
    4
 10
583.81401243305061
 20
288.93974325393174
 11
589.76381059420191
 21
288.93974325393174
  0
LINE
  8
_0-8_細線
  6
CONTINUOUS
 62
    4
 10
606.52837637852679
 20
288.93974325393174
 11
623.02837637852599
 21
288.93974325393174
  0
LINE
  8
_0-8_細線
  6
CONTINUOUS
 62
    4
 10
634.52837637852599
 20
288.93974325393174
 11
641.02837637852588
 21
288.93974325393174
  0
LINE
  8
_0-8_細線
  6
CONTINUOUS
 62
    4
 10
661.36497919916792
 20
288.93974325393174
 11
667.86497919916792
 21
288.93974325393174
  0
LINE
  8
_0-8_細線
  6
CONTINUOUS
 62
    4
 10
672.86497919916792
 20
288.93974325393174
 11
679.54214900140266
 21
288.93974325393174
  0
LINE
  8
_0-8_細線
  6
CONTINUOUS
 62
    4
 10
695.84319271863887
 20
288.93974325393174
 11
705.70432717758331
 21
288.93974325393174
  0
LINE
  8
_0-8_細線
  6
CONTINUOUS
 62
    4
 10
720.23698960676245
 20
288.93974325393174
 11
725.73698960676256
 21
288.93974325393174
  0
LINE
  8
_0-8_細線
  6
CONTINUOUS
 62
    4
 10
570.52424417563316
 20
260.43974325393208
 11
577.02424417563304
 21
260.43974325393208
  0
LINE
  8
_0-8_細線
  6
CONTINUOUS
 62
    4
 10
596.55357885161845
 20
260.43974325393208
 11
603.05357885161857
 21
260.43974325393208
  0
LINE
  8
_0-8_細線
  6
CONTINUOUS
 62
    4
 10
606.52837637852679
 20
260.43974325393208
 11
624.08201271592543
 21
260.43974325393208
  0
LINE
  8
_0-8_細線
  6
CONTINUOUS
 62
    4
 10
647.81814463594435
 20
260.43974325393208
 11
654.57521094175115
 21
260.43974325393208
  0
LINE
  8
_0-8_細線
  6
CONTINUOUS
 62
    4
 10
659.57521094175115
 20
260.43974325393208
 11
666.07521094175115
 21
260.43974325393208
  0
LINE
  8
_0-8_細線
  6
CONTINUOUS
 62
    4
 10
686.33191725882114
 20
260.43974325393208
 11
692.83191725882034
 21
260.43974325393208
  0
LINE
  8
_0-8_細線
  6
CONTINUOUS
 62
    4
 10
695.84319271863887
 20
260.43974325393208
 11
702.34319271863876
 21
260.43974325393208
  0
LINE
  8
_0-8_細線
  6
CONTINUOUS
 62
    4
 10
717.02762248850775
 20
260.43974325393208
 11
725.73698960676256
 21
260.43974325393208
  0
LINE
  8
_0-8_細線
  6
CONTINUOUS
 62
    4
 10
570.99055183378869
 20
261.43974325393174
 11
577.49055183378778
 21
261.43974325393174
  0
LINE
  8
_0-8_細線
  6
CONTINUOUS
 62
    4
 10
596.08727119346383
 20
261.43974325393174
 11
602.58727119346383
 21
261.43974325393174
  0
LINE
  8
_0-8_細線
  6
CONTINUOUS
 62
    4
 10
606.52837637852679
 20
261.43974325393174
 11
627.29118962811344
 21
261.43974325393174
  0
LINE
  8
_0-8_細線
  6
CONTINUOUS
 62
    4
 10
647.35183697778893
 20
261.43974325393174
 11
655.04151859990588
 21
261.43974325393174
  0
LINE
  8
_0-8_細線
  6
CONTINUOUS
 62
    4
 10
660.04151859990577
 20
261.43974325393174
 11
666.54151859990588
 21
261.43974325393174
  0
LINE
  8
_0-8_細線
  6
CONTINUOUS
 62
    4
 10
685.86560960066572
 20
261.43974325393174
 11
692.36560960066572
 21
261.43974325393174
  0
LINE
  8
_0-8_細線
  6
CONTINUOUS
 62
    4
 10
695.84319271863887
 20
261.43974325393174
 11
702.34319271863876
 21
261.43974325393174
  0
LINE
  8
_0-8_細線
  6
CONTINUOUS
 62
    4
 10
716.40275313659856
 20
261.43974325393174
 11
725.73698960676256
 21
261.43974325393174
  0
LINE
  8
_0-8_細線
  6
CONTINUOUS
 62
    4
 10
571.45685949194331
 20
262.43974325393174
 11
577.95685949194331
 21
262.43974325393174
  0
LINE
  8
_0-8_細線
  6
CONTINUOUS
 62
    4
 10
595.62096353530933
 20
262.43974325393174
 11
602.12096353530842
 21
262.43974325393174
  0
LINE
  8
_0-8_細線
  6
CONTINUOUS
 62
    4
 10
606.52837637852679
 20
262.43974325393174
 11
629.48524028612644
 21
262.43974325393174
  0
LINE
  8
_0-8_細線
  6
CONTINUOUS
 62
    4
 10
646.88552931963341
 20
262.43974325393174
 11
655.5078262580605
 21
262.43974325393174
  0
LINE
  8
_0-8_細線
  6
CONTINUOUS
 62
    4
 10
660.5078262580605
 20
262.43974325393174
 11
667.0078262580605
 21
262.43974325393174
  0
LINE
  8
_0-8_細線
  6
CONTINUOUS
 62
    4
 10
685.39930194251019
 20
262.43974325393174
 11
691.89930194251019
 21
262.43974325393174
  0
LINE
  8
_0-8_細線
  6
CONTINUOUS
 62
    4
 10
695.84319271863887
 20
262.43974325393174
 11
702.34319271863876
 21
262.43974325393174
  0
LINE
  8
_0-8_細線
  6
CONTINUOUS
 62
    4
 10
715.77788378468949
 20
262.43974325393174
 11
725.73698960676256
 21
262.43974325393174
  0
LINE
  8
_0-8_細線
  6
CONTINUOUS
 62
    4
 10
571.92316715009792
 20
263.43974325393162
 11
578.42316715009792
 21
263.43974325393162
  0
LINE
  8
_0-8_細線
  6
CONTINUOUS
 62
    4
 10
595.1546558771538
 20
263.43974325393162
 11
601.6546558771538
 21
263.43974325393162
  0
LINE
  8
_0-8_細線
  6
CONTINUOUS
 62
    4
 10
606.52837637852679
 20
263.43974325393162
 11
630.95670932096198
 21
263.43974325393162
  0
LINE
  8
_0-8_細線
  6
CONTINUOUS
 62
    4
 10
646.41922166147879
 20
263.43974325393162
 11
655.97413391621512
 21
263.43974325393162
  0
LINE
  8
_0-8_細線
  6
CONTINUOUS
 62
    4
 10
660.97413391621512
 20
263.43974325393162
 11
667.47413391621603
 21
263.43974325393162
  0
LINE
  8
_0-8_細線
  6
CONTINUOUS
 62
    4
 10
684.93299428435557
 20
263.43974325393162
 11
691.43299428435546
 21
263.43974325393162
  0
LINE
  8
_0-8_細線
  6
CONTINUOUS
 62
    4
 10
695.84319271863887
 20
263.43974325393162
 11
702.34319271863876
 21
263.43974325393162
  0
LINE
  8
_0-8_細線
  6
CONTINUOUS
 62
    4
 10
715.15301443278031
 20
263.43974325393162
 11
725.73698960676256
 21
263.43974325393162
  0
LINE
  8
_0-8_細線
  6
CONTINUOUS
 62
    4
 10
572.38947480825254
 20
264.43974325393185
 11
578.88947480825254
 21
264.43974325393185
  0
LINE
  8
_0-8_細線
  6
CONTINUOUS
 62
    4
 10
594.68834821899816
 20
264.43974325393185
 11
601.18834821899827
 21
264.43974325393185
  0
LINE
  8
_0-8_細線
  6
CONTINUOUS
 62
    4
 10
606.52837637852679
 20
264.43974325393185
 11
631.98788789583477
 21
264.43974325393185
  0
LINE
  8
_0-8_細線
  6
CONTINUOUS
 62
    4
 10
645.95291400332405
 20
264.43974325393185
 11
656.44044157437054
 21
264.43974325393185
  0
LINE
  8
_0-8_細線
  6
CONTINUOUS
 62
    4
 10
661.44044157437054
 20
264.43974325393185
 11
667.94044157437065
 21
264.43974325393185
  0
LINE
  8
_0-8_細線
  6
CONTINUOUS
 62
    4
 10
684.46668662620084
 20
264.43974325393185
 11
690.96668662620004
 21
264.43974325393185
  0
LINE
  8
_0-8_細線
  6
CONTINUOUS
 62
    4
 10
695.84319271863887
 20
264.43974325393185
 11
702.34319271863876
 21
264.43974325393185
  0
LINE
  8
_0-8_細線
  6
CONTINUOUS
 62
    4
 10
714.52814508087113
 20
264.43974325393185
 11
725.73698960676256
 21
264.43974325393185
  0
LINE
  8
_0-8_細線
  6
CONTINUOUS
 62
    4
 10
572.85578246640796
 20
265.43974325393185
 11
579.35578246640796
 21
265.43974325393185
  0
LINE
  8
_0-8_細線
  6
CONTINUOUS
 62
    4
 10
594.22204056084354
 20
265.43974325393185
 11
600.72204056084354
 21
265.43974325393185
  0
LINE
  8
_0-8_細線
  6
CONTINUOUS
 62
    4
 10
606.52837637852679
 20
265.43974325393185
 11
613.02837637852599
 21
265.43974325393185
  0
LINE
  8
_0-8_細線
  6
CONTINUOUS
 62
    4
 10
623.52760046769754
 20
265.43974325393185
 11
632.68427990532234
 21
265.43974325393185
  0
LINE
  8
_0-8_細線
  6
CONTINUOUS
 62
    4
 10
645.48660634516864
 20
265.43974325393185
 11
656.90674923252607
 21
265.43974325393185
  0
LINE
  8
_0-8_細線
  6
CONTINUOUS
 62
    4
 10
661.90674923252607
 20
265.43974325393185
 11
668.40674923252618
 21
265.43974325393185
  0
LINE
  8
_0-8_細線
  6
CONTINUOUS
 62
    4
 10
684.00037896804542
 20
265.43974325393185
 11
690.50037896804542
 21
265.43974325393185
  0
LINE
  8
_0-8_細線
  6
CONTINUOUS
 62
    4
 10
695.84319271863887
 20
265.43974325393185
 11
702.34319271863876
 21
265.43974325393185
  0
LINE
  8
_0-8_細線
  6
CONTINUOUS
 62
    4
 10
713.90327572896194
 20
265.43974325393185
 11
725.73698960676256
 21
265.43974325393185
  0
LINE
  8
_0-8_細線
  6
CONTINUOUS
 62
    4
 10
573.3220901245636
 20
266.43974325393208
 11
579.8220901245636
 21
266.43974325393208
  0
LINE
  8
_0-8_細線
  6
CONTINUOUS
 62
    4
 10
593.75573290268903
 20
266.43974325393208
 11
600.25573290268903
 21
266.43974325393208
  0
LINE
  8
_0-8_細線
  6
CONTINUOUS
 62
    4
 10
606.52837637852679
 20
266.43974325393208
 11
613.02837637852599
 21
266.43974325393208
  0
LINE
  8
_0-8_細線
  6
CONTINUOUS
 62
    4
 10
625.16676944105848
 20
266.43974325393208
 11
633.13215896298379
 21
266.43974325393208
  0
LINE
  8
_0-8_細線
  6
CONTINUOUS
 62
    4
 10
645.02029868701402
 20
266.43974325393208
 11
657.3730568906808
 21
266.43974325393208
  0
LINE
  8
_0-8_細線
  6
CONTINUOUS
 62
    4
 10
662.3730568906808
 20
266.43974325393208
 11
668.8730568906808
 21
266.43974325393208
  0
LINE
  8
_0-8_細線
  6
CONTINUOUS
 62
    4
 10
683.5340713098899
 20
266.43974325393208
 11
690.03407130989069
 21
266.43974325393208
  0
LINE
  8
_0-8_細線
  6
CONTINUOUS
 62
    4
 10
695.84319271863887
 20
266.43974325393208
 11
702.34319271863876
 21
266.43974325393208
  0
LINE
  8
_0-8_細線
  6
CONTINUOUS
 62
    4
 10
713.27840637705174
 20
266.43974325393208
 11
719.76388759554402
 21
266.43974325393208
  0
LINE
  8
_0-8_細線
  6
CONTINUOUS
 62
    4
 10
720.23698960676245
 20
266.43974325393208
 11
725.73698960676256
 21
266.43974325393208
  0
LINE
  8
_0-8_細線
  6
CONTINUOUS
 62
    4
 10
573.78839778271822
 20
267.43974325393174
 11
599.78942524453441
 21
267.43974325393174
  0
LINE
  8
_0-8_細線
  6
CONTINUOUS
 62
    4
 10
606.52837637852679
 20
267.43974325393174
 11
613.02837637852599
 21
267.43974325393174
  0
LINE
  8
_0-8_細線
  6
CONTINUOUS
 62
    4
 10
626.33195232136814
 20
267.43974325393174
 11
633.46345181680726
 21
267.43974325393174
  0
LINE
  8
_0-8_細線
  6
CONTINUOUS
 62
    4
 10
644.55399102885849
 20
267.43974325393174
 11
651.05399102885849
 21
267.43974325393174
  0
LINE
  8
_0-8_細線
  6
CONTINUOUS
 62
    4
 10
651.33936454883542
 20
267.43974325393174
 11
657.83936454883542
 21
267.43974325393174
  0
LINE
  8
_0-8_細線
  6
CONTINUOUS
 62
    4
 10
662.83936454883542
 20
267.43974325393174
 11
689.56776365173516
 21
267.43974325393174
  0
LINE
  8
_0-8_細線
  6
CONTINUOUS
 62
    4
 10
695.84319271863887
 20
267.43974325393174
 11
702.34319271863876
 21
267.43974325393174
  0
LINE
  8
_0-8_細線
  6
CONTINUOUS
 62
    4
 10
712.65353702514358
 20
267.43974325393174
 11
719.13901824363484
 21
267.43974325393174
  0
LINE
  8
_0-8_細線
  6
CONTINUOUS
 62
    4
 10
720.23698960676245
 20
267.43974325393174
 11
725.73698960676256
 21
267.43974325393174
  0
LINE
  8
_0-8_細線
  6
CONTINUOUS
 62
    4
 10
574.25470544087284
 20
268.43974325393162
 11
599.32311758637888
 21
268.43974325393162
  0
LINE
  8
_0-8_細線
  6
CONTINUOUS
 62
    4
 10
606.52837637852679
 20
268.43974325393162
 11
613.02837637852599
 21
268.43974325393162
  0
LINE
  8
_0-8_細線
  6
CONTINUOUS
 62
    4
 10
627.01984924372618
 20
268.43974325393162
 11
633.73434111376025
 21
268.43974325393162
  0
LINE
  8
_0-8_細線
  6
CONTINUOUS
 62
    4
 10
644.08768337070376
 20
268.43974325393162
 11
650.58768337070387
 21
268.43974325393162
  0
LINE
  8
_0-8_細線
  6
CONTINUOUS
 62
    4
 10
651.80567220699083
 20
268.43974325393162
 11
658.30567220699083
 21
268.43974325393162
  0
LINE
  8
_0-8_細線
  6
CONTINUOUS
 62
    4
 10
663.30567220699083
 20
268.43974325393162
 11
689.10145599358054
 21
268.43974325393162
  0
LINE
  8
_0-8_細線
  6
CONTINUOUS
 62
    4
 10
695.84319271863887
 20
268.43974325393162
 11
702.34319271863876
 21
268.43974325393162
  0
LINE
  8
_0-8_細線
  6
CONTINUOUS
 62
    4
 10
712.02866767323349
 20
268.43974325393162
 11
718.51414889172474
 21
268.43974325393162
  0
LINE
  8
_0-8_細線
  6
CONTINUOUS
 62
    4
 10
720.23698960676245
 20
268.43974325393162
 11
725.73698960676256
 21
268.43974325393162
  0
LINE
  8
_0-8_細線
  6
CONTINUOUS
 62
    4
 10
574.72101309902735
 20
269.43974325393185
 11
598.85680992822324
 21
269.43974325393185
  0
LINE
  8
_0-8_細線
  6
CONTINUOUS
 62
    4
 10
606.52837637852679
 20
269.43974325393185
 11
613.02837637852599
 21
269.43974325393185
  0
LINE
  8
_0-8_細線
  6
CONTINUOUS
 62
    4
 10
627.45461904682043
 20
269.43974325393185
 11
633.97035956326681
 21
269.43974325393185
  0
LINE
  8
_0-8_細線
  6
CONTINUOUS
 62
    4
 10
643.62137571254914
 20
269.43974325393185
 11
650.12137571254834
 21
269.43974325393185
  0
LINE
  8
_0-8_細線
  6
CONTINUOUS
 62
    4
 10
652.27197986514545
 20
269.43974325393185
 11
658.77197986514557
 21
269.43974325393185
  0
LINE
  8
_0-8_細線
  6
CONTINUOUS
 62
    4
 10
663.77197986514545
 20
269.43974325393185
 11
688.63514833542604
 21
269.43974325393185
  0
LINE
  8
_0-8_細線
  6
CONTINUOUS
 62
    4
 10
695.84319271863887
 20
269.43974325393185
 11
702.34319271863876
 21
269.43974325393185
  0
LINE
  8
_0-8_細線
  6
CONTINUOUS
 62
    4
 10
711.4037983213243
 20
269.43974325393185
 11
717.88927953981636
 21
269.43974325393185
  0
LINE
  8
_0-8_細線
  6
CONTINUOUS
 62
    4
 10
720.23698960676245
 20
269.43974325393185
 11
725.73698960676256
 21
269.43974325393185
  0
LINE
  8
_0-8_細線
  6
CONTINUOUS
 62
    4
 10
575.18732075718287
 20
270.43974325393208
 11
598.39050227006874
 21
270.43974325393208
  0
LINE
  8
_0-8_細線
  6
CONTINUOUS
 62
    4
 10
606.52837637852679
 20
270.43974325393208
 11
613.02837637852599
 21
270.43974325393208
  0
LINE
  8
_0-8_細線
  6
CONTINUOUS
 62
    4
 10
627.72596300623218
 20
270.43974325393208
 11
634.16311191139846
 21
270.43974325393208
  0
LINE
  8
_0-8_細線
  6
CONTINUOUS
 62
    4
 10
643.15506805439372
 20
270.43974325393208
 11
649.65506805439372
 21
270.43974325393208
  0
LINE
  8
_0-8_細線
  6
CONTINUOUS
 62
    4
 10
652.73828752330098
 20
270.43974325393208
 11
659.2382875233011
 21
270.43974325393208
  0
LINE
  8
_0-8_細線
  6
CONTINUOUS
 62
    4
 10
664.2382875233011
 20
270.43974325393208
 11
688.1688406772704
 21
270.43974325393208
  0
LINE
  8
_0-8_細線
  6
CONTINUOUS
 62
    4
 10
695.84319271863887
 20
270.43974325393208
 11
702.34319271863876
 21
270.43974325393208
  0
LINE
  8
_0-8_細線
  6
CONTINUOUS
 62
    4
 10
710.77892896941512
 20
270.43974325393208
 11
717.26441018790638
 21
270.43974325393208
  0
LINE
  8
_0-8_細線
  6
CONTINUOUS
 62
    4
 10
720.23698960676245
 20
270.43974325393208
 11
725.73698960676256
 21
270.43974325393208
  0
LINE
  8
_0-8_細線
  6
CONTINUOUS
 62
    4
 10
575.65362841533852
 20
271.43974325393208
 11
597.92419461191412
 21
271.43974325393208
  0
LINE
  8
_0-8_細線
  6
CONTINUOUS
 62
    4
 10
606.52837637852679
 20
271.43974325393208
 11
613.02837637852599
 21
271.43974325393208
  0
LINE
  8
_0-8_細線
  6
CONTINUOUS
 62
    4
 10
627.89084363625398
 20
271.43974325393208
 11
634.31467349230252
 21
271.43974325393208
  0
LINE
  8
_0-8_細線
  6
CONTINUOUS
 62
    4
 10
642.68876039623819
 20
271.43974325393208
 11
649.1887603962391
 21
271.43974325393208
  0
LINE
  8
_0-8_細線
  6
CONTINUOUS
 62
    4
 10
653.20459518145572
 20
271.43974325393208
 11
659.70459518145572
 21
271.43974325393208
  0
LINE
  8
_0-8_細線
  6
CONTINUOUS
 62
    4
 10
664.70459518145572
 20
271.43974325393208
 11
687.70253301911487
 21
271.43974325393208
  0
LINE
  8
_0-8_細線
  6
CONTINUOUS
 62
    4
 10
695.84319271863887
 20
271.43974325393208
 11
702.34319271863876
 21
271.43974325393208
  0
LINE
  8
_0-8_細線
  6
CONTINUOUS
 62
    4
 10
710.15405961750503
 20
271.43974325393208
 11
716.63954083599629
 21
271.43974325393208
  0
LINE
  8
_0-8_細線
  6
CONTINUOUS
 62
    4
 10
720.23698960676245
 20
271.43974325393208
 11
725.73698960676256
 21
271.43974325393208
  0
LINE
  8
_0-8_細線
  6
CONTINUOUS
 62
    4
 10
576.11993607349314
 20
272.43974325393197
 11
582.61993607349314
 21
272.43974325393197
  0
LINE
  8
_0-8_細線
  6
CONTINUOUS
 62
    4
 10
590.95788695375848
 20
272.43974325393197
 11
597.45788695375859
 21
272.43974325393197
  0
LINE
  8
_0-8_細線
  6
CONTINUOUS
 62
    4
 10
606.52837637852679
 20
272.43974325393197
 11
613.02837637852599
 21
272.43974325393197
  0
LINE
  8
_0-8_細線
  6
CONTINUOUS
 62
    4
 10
627.97538213032237
 20
272.43974325393197
 11
634.42542282556803
 21
272.43974325393197
  0
LINE
  8
_0-8_細線
  6
CONTINUOUS
 62
    4
 10
642.22245273808346
 20
272.43974325393197
 11
648.72245273808358
 21
272.43974325393197
  0
LINE
  8
_0-8_細線
  6
CONTINUOUS
 62
    4
 10
653.67090283961124
 20
272.43974325393197
 11
660.17090283961033
 21
272.43974325393197
  0
LINE
  8
_0-8_細線
  6
CONTINUOUS
 62
    4
 10
665.17090283961033
 20
272.43974325393197
 11
671.67090283961033
 21
272.43974325393197
  0
LINE
  8
_0-8_細線
  6
CONTINUOUS
 62
    4
 10
680.73622536096025
 20
272.43974325393197
 11
687.23622536096025
 21
272.43974325393197
  0
LINE
  8
_0-8_細線
  6
CONTINUOUS
 62
    4
 10
695.84319271863887
 20
272.43974325393197
 11
702.34319271863876
 21
272.43974325393197
  0
LINE
  8
_0-8_細線
  6
CONTINUOUS
 62
    4
 10
709.52919026559664
 20
272.43974325393197
 11
716.01467148408801
 21
272.43974325393197
  0
LINE
  8
_0-8_細線
  6
CONTINUOUS
 62
    4
 10
720.23698960676245
 20
272.43974325393197
 11
725.73698960676256
 21
272.43974325393197
  0
LINE
  8
_0-8_細線
  6
CONTINUOUS
 62
    4
 10
576.58624373164764
 20
273.43974325393197
 11
583.08624373164776
 21
273.43974325393197
  0
LINE
  8
_0-8_細線
  6
CONTINUOUS
 62
    4
 10
590.49157929560295
 20
273.43974325393197
 11
596.99157929560386
 21
273.43974325393197
  0
LINE
  8
_0-8_細線
  6
CONTINUOUS
 62
    4
 10
606.52837637852679
 20
273.43974325393197
 11
613.02837637852599
 21
273.43974325393197
  0
LINE
  8
_0-8_細線
  6
CONTINUOUS
 62
    4
 10
628.01297594390098
 20
273.43974325393197
 11
634.49454260702385
 21
273.43974325393197
  0
LINE
  8
_0-8_細線
  6
CONTINUOUS
 62
    4
 10
641.75614507992884
 20
273.43974325393197
 11
648.25614507992896
 21
273.43974325393197
  0
LINE
  8
_0-8_細線
  6
CONTINUOUS
 62
    4
 10
654.13721049776575
 20
273.43974325393197
 11
660.63721049776586
 21
273.43974325393197
  0
LINE
  8
_0-8_細線
  6
CONTINUOUS
 62
    4
 10
665.63721049776575
 20
273.43974325393197
 11
672.13721049776586
 21
273.43974325393197
  0
LINE
  8
_0-8_細線
  6
CONTINUOUS
 62
    4
 10
680.26991770280574
 20
273.43974325393197
 11
686.76991770280574
 21
273.43974325393197
  0
LINE
  8
_0-8_細線
  6
CONTINUOUS
 62
    4
 10
695.84319271863887
 20
273.43974325393197
 11
702.34319271863876
 21
273.43974325393197
  0
LINE
  8
_0-8_細線
  6
CONTINUOUS
 62
    4
 10
708.90432091368666
 20
273.43974325393197
 11
715.38980213217792
 21
273.43974325393197
  0
LINE
  8
_0-8_細線
  6
CONTINUOUS
 62
    4
 10
720.23698960676245
 20
273.43974325393197
 11
725.73698960676256
 21
273.43974325393197
  0
LINE
  8
_0-8_細線
  6
CONTINUOUS
 62
    4
 10
577.05255138980317
 20
274.43974325393128
 11
583.55255138980328
 21
274.43974325393128
  0
LINE
  8
_0-8_細線
  6
CONTINUOUS
 62
    4
 10
590.02527163744844
 20
274.43974325393128
 11
596.52527163744844
 21
274.43974325393128
  0
LINE
  8
_0-8_細線
  6
CONTINUOUS
 62
    4
 10
606.52837637852679
 20
274.43974325393128
 11
613.02837637852599
 21
274.43974325393128
  0
LINE
  8
_0-8_細線
  6
CONTINUOUS
 62
    4
 10
628.02777909852057
 20
274.43974325393128
 11
634.52675692717594
 21
274.43974325393128
  0
LINE
  8
_0-8_細線
  6
CONTINUOUS
 62
    4
 10
641.28983742177434
 20
274.43974325393128
 11
647.78983742177434
 21
274.43974325393128
  0
LINE
  8
_0-8_細線
  6
CONTINUOUS
 62
    4
 10
654.60351815592037
 20
274.43974325393128
 11
661.10351815592139
 21
274.43974325393128
  0
LINE
  8
_0-8_細線
  6
CONTINUOUS
 62
    4
 10
666.10351815592048
 20
274.43974325393128
 11
672.60351815592139
 21
274.43974325393128
  0
LINE
  8
_0-8_細線
  6
CONTINUOUS
 62
    4
 10
679.80361004465021
 20
274.43974325393128
 11
686.30361004465112
 21
274.43974325393128
  0
LINE
  8
_0-8_細線
  6
CONTINUOUS
 62
    4
 10
695.84319271863887
 20
274.43974325393128
 11
702.34319271863876
 21
274.43974325393128
  0
LINE
  8
_0-8_細線
  6
CONTINUOUS
 62
    4
 10
708.27945156177748
 20
274.43974325393128
 11
714.76493278026874
 21
274.43974325393128
  0
LINE
  8
_0-8_細線
  6
CONTINUOUS
 62
    4
 10
720.23698960676245
 20
274.43974325393128
 11
725.73698960676256
 21
274.43974325393128
  0
LINE
  8
_0-8_細線
  6
CONTINUOUS
 62
    4
 10
577.5188590479587
 20
275.43974325393242
 11
584.0188590479579
 21
275.43974325393242
  0
LINE
  8
_0-8_細線
  6
CONTINUOUS
 62
    4
 10
589.55896397929382
 20
275.43974325393242
 11
596.05896397929382
 21
275.43974325393242
  0
LINE
  8
_0-8_細線
  6
CONTINUOUS
 62
    4
 10
606.52837637852679
 20
275.43974325393242
 11
613.02837637852599
 21
275.43974325393242
  0
LINE
  8
_0-8_細線
  6
CONTINUOUS
 62
    4
 10
628.01972628862984
 20
275.43974325393242
 11
634.50646376506802
 21
275.43974325393242
  0
LINE
  8
_0-8_細線
  6
CONTINUOUS
 62
    4
 10
640.82352976361881
 20
275.43974325393242
 11
647.32352976361881
 21
275.43974325393242
  0
LINE
  8
_0-8_細線
  6
CONTINUOUS
 62
    4
 10
655.06982581407601
 20
275.43974325393242
 11
661.56982581407601
 21
275.43974325393242
  0
LINE
  8
_0-8_細線
  6
CONTINUOUS
 62
    4
 10
666.56982581407601
 20
275.43974325393242
 11
673.06982581407601
 21
275.43974325393242
  0
LINE
  8
_0-8_細線
  6
CONTINUOUS
 62
    4
 10
679.33730238649559
 20
275.43974325393242
 11
685.83730238649559
 21
275.43974325393242
  0
LINE
  8
_0-8_細線
  6
CONTINUOUS
 62
    4
 10
695.84319271863887
 20
275.43974325393242
 11
702.34319271863876
 21
275.43974325393242
  0
LINE
  8
_0-8_細線
  6
CONTINUOUS
 62
    4
 10
707.65458220986818
 20
275.43974325393242
 11
714.14006342835944
 21
275.43974325393242
  0
LINE
  8
_0-8_細線
  6
CONTINUOUS
 62
    4
 10
720.23698960676245
 20
275.43974325393242
 11
725.73698960676256
 21
275.43974325393242
  0
LINE
  8
_0-8_細線
  6
CONTINUOUS
 62
    4
 10
577.98516670611343
 20
276.43974325393174
 11
584.48516670611343
 21
276.43974325393174
  0
LINE
  8
_0-8_細線
  6
CONTINUOUS
 62
    4
 10
589.0926563211392
 20
276.43974325393174
 11
595.5926563211392
 21
276.43974325393174
  0
LINE
  8
_0-8_細線
  6
CONTINUOUS
 62
    4
 10
606.52837637852679
 20
276.43974325393174
 11
613.02837637852599
 21
276.43974325393174
  0
LINE
  8
_0-8_細線
  6
CONTINUOUS
 62
    4
 10
627.98963914374099
 20
276.43974325393174
 11
634.44806279931925
 21
276.43974325393174
  0
LINE
  8
_0-8_細線
  6
CONTINUOUS
 62
    4
 10
640.35722210546317
 20
276.43974325393174
 11
646.85722210546328
 21
276.43974325393174
  0
LINE
  8
_0-8_細線
  6
CONTINUOUS
 62
    4
 10
655.53613347223063
 20
276.43974325393174
 11
662.03613347223063
 21
276.43974325393174
  0
LINE
  8
_0-8_細線
  6
CONTINUOUS
 62
    4
 10
667.03613347223063
 20
276.43974325393174
 11
673.53613347223063
 21
276.43974325393174
  0
LINE
  8
_0-8_細線
  6
CONTINUOUS
 62
    4
 10
678.87099472834007
 20
276.43974325393174
 11
685.37099472833995
 21
276.43974325393174
  0
LINE
  8
_0-8_細線
  6
CONTINUOUS
 62
    4
 10
695.84319271863887
 20
276.43974325393174
 11
702.34319271863876
 21
276.43974325393174
  0
LINE
  8
_0-8_細線
  6
CONTINUOUS
 62
    4
 10
707.02971285795911
 20
276.43974325393174
 11
713.51519407645037
 21
276.43974325393174
  0
LINE
  8
_0-8_細線
  6
CONTINUOUS
 62
    4
 10
720.23698960676245
 20
276.43974325393174
 11
725.73698960676256
 21
276.43974325393174
  0
LINE
  8
_0-8_細線
  6
CONTINUOUS
 62
    4
 10
578.45147436426794
 20
277.43974325393197
 11
584.95147436426794
 21
277.43974325393197
  0
LINE
  8
_0-8_細線
  6
CONTINUOUS
 62
    4
 10
588.62634866298356
 20
277.43974325393197
 11
595.12634866298356
 21
277.43974325393197
  0
LINE
  8
_0-8_細線
  6
CONTINUOUS
 62
    4
 10
606.52837637852679
 20
277.43974325393197
 11
613.02837637852599
 21
277.43974325393197
  0
LINE
  8
_0-8_細線
  6
CONTINUOUS
 62
    4
 10
627.90981067283917
 20
277.43974325393197
 11
634.3471535572221
 21
277.43974325393197
  0
LINE
  8
_0-8_細線
  6
CONTINUOUS
 62
    4
 10
639.89091444730855
 20
277.43974325393197
 11
646.39091444730866
 21
277.43974325393197
  0
LINE
  8
_0-8_細線
  6
CONTINUOUS
 62
    4
 10
656.00244113038605
 20
277.43974325393197
 11
662.50244113038525
 21
277.43974325393197
  0
LINE
  8
_0-8_細線
  6
CONTINUOUS
 62
    4
 10
667.50244113038605
 20
277.43974325393197
 11
674.00244113038514
 21
277.43974325393197
  0
LINE
  8
_0-8_細線
  6
CONTINUOUS
 62
    4
 10
678.40468707018545
 20
277.43974325393197
 11
684.90468707018545
 21
277.43974325393197
  0
LINE
  8
_0-8_細線
  6
CONTINUOUS
 62
    4
 10
695.84319271863887
 20
277.43974325393197
 11
702.34319271863876
 21
277.43974325393197
  0
LINE
  8
_0-8_細線
  6
CONTINUOUS
 62
    4
 10
706.40484350604993
 20
277.43974325393197
 11
712.89032472454119
 21
277.43974325393197
  0
LINE
  8
_0-8_細線
  6
CONTINUOUS
 62
    4
 10
720.23698960676245
 20
277.43974325393197
 11
725.73698960676256
 21
277.43974325393197
  0
LINE
  8
_0-8_細線
  6
CONTINUOUS
 62
    4
 10
578.91778202242256
 20
278.43974325393197
 11
585.41778202242267
 21
278.43974325393197
  0
LINE
  8
_0-8_細線
  6
CONTINUOUS
 62
    4
 10
588.16004100482905
 20
278.43974325393197
 11
594.66004100482894
 21
278.43974325393197
  0
LINE
  8
_0-8_細線
  6
CONTINUOUS
 62
    4
 10
606.52837637852679
 20
278.43974325393197
 11
613.02837637852599
 21
278.43974325393197
  0
LINE
  8
_0-8_細線
  6
CONTINUOUS
 62
    4
 10
627.76435246269045
 20
278.43974325393197
 11
634.20034143081602
 21
278.43974325393197
  0
LINE
  8
_0-8_細線
  6
CONTINUOUS
 62
    4
 10
639.42460678915404
 20
278.43974325393197
 11
645.92460678915404
 21
278.43974325393197
  0
LINE
  8
_0-8_細線
  6
CONTINUOUS
 62
    4
 10
656.46874878854067
 20
278.43974325393197
 11
662.96874878854078
 21
278.43974325393197
  0
LINE
  8
_0-8_細線
  6
CONTINUOUS
 62
    4
 10
667.96874878854078
 20
278.43974325393197
 11
674.46874878854067
 21
278.43974325393197
  0
LINE
  8
_0-8_細線
  6
CONTINUOUS
 62
    4
 10
677.93837941203083
 20
278.43974325393197
 11
684.43837941203083
 21
278.43974325393197
  0
LINE
  8
_0-8_細線
  6
CONTINUOUS
 62
    4
 10
695.84319271863887
 20
278.43974325393197
 11
702.34319271863876
 21
278.43974325393197
  0
LINE
  8
_0-8_細線
  6
CONTINUOUS
 62
    4
 10
705.77997415413984
 20
278.43974325393197
 11
712.265455372632
 21
278.43974325393197
  0
LINE
  8
_0-8_細線
  6
CONTINUOUS
 62
    4
 10
720.23698960676245
 20
278.43974325393197
 11
725.73698960676256
 21
278.43974325393197
  0
LINE
  8
_0-8_細線
  6
CONTINUOUS
 62
    4
 10
579.38408968057729
 20
279.43974325393185
 11
585.8840896805782
 21
279.43974325393185
  0
LINE
  8
_0-8_細線
  6
CONTINUOUS
 62
    4
 10
587.69373334667353
 20
279.43974325393185
 11
594.19373334667353
 21
279.43974325393185
  0
LINE
  8
_0-8_細線
  6
CONTINUOUS
 62
    4
 10
606.52837637852679
 20
279.43974325393185
 11
613.02837637852599
 21
279.43974325393185
  0
LINE
  8
_0-8_細線
  6
CONTINUOUS
 62
    4
 10
627.52200119664258
 20
279.43974325393185
 11
634.01360543461976
 21
279.43974325393185
  0
LINE
  8
_0-8_細線
  6
CONTINUOUS
 62
    4
 10
638.95829913099851
 20
279.43974325393185
 11
645.45829913099942
 21
279.43974325393185
  0
LINE
  8
_0-8_細線
  6
CONTINUOUS
 62
    4
 10
656.93505644669631
 20
279.43974325393185
 11
663.43505644669631
 21
279.43974325393185
  0
LINE
  8
_0-8_細線
  6
CONTINUOUS
 62
    4
 10
668.43505644669631
 20
279.43974325393185
 11
674.93505644669631
 21
279.43974325393185
  0
LINE
  8
_0-8_細線
  6
CONTINUOUS
 62
    4
 10
677.4720717538753
 20
279.43974325393185
 11
683.9720717538753
 21
279.43974325393185
  0
LINE
  8
_0-8_細線
  6
CONTINUOUS
 62
    4
 10
695.84319271863887
 20
279.43974325393185
 11
702.34319271863876
 21
279.43974325393185
  0
LINE
  8
_0-8_細線
  6
CONTINUOUS
 62
    4
 10
705.15510480223065
 20
279.43974325393185
 11
711.64058602072282
 21
279.43974325393185
  0
LINE
  8
_0-8_細線
  6
CONTINUOUS
 62
    4
 10
720.23698960676245
 20
279.43974325393185
 11
725.73698960676256
 21
279.43974325393185
  0
LINE
  8
_0-8_細線
  6
CONTINUOUS
 62
    4
 10
579.85039733873282
 20
280.43974325393242
 11
586.35039733873282
 21
280.43974325393242
  0
LINE
  8
_0-8_細線
  6
CONTINUOUS
 62
    4
 10
587.22742568851891
 20
280.43974325393242
 11
593.72742568851891
 21
280.43974325393242
  0
LINE
  8
_0-8_細線
  6
CONTINUOUS
 62
    4
 10
606.52837637852679
 20
280.43974325393242
 11
613.02837637852599
 21
280.43974325393242
  0
LINE
  8
_0-8_細線
  6
CONTINUOUS
 62
    4
 10
627.13014183559108
 20
280.43974325393242
 11
633.78753366402043
 21
280.43974325393242
  0
LINE
  8
_0-8_細線
  6
CONTINUOUS
 62
    4
 10
638.49199147284378
 20
280.43974325393242
 11
644.99199147284389
 21
280.43974325393242
  0
LINE
  8
_0-8_細線
  6
CONTINUOUS
 62
    4
 10
657.40136410485093
 20
280.43974325393242
 11
663.90136410485093
 21
280.43974325393242
  0
LINE
  8
_0-8_細線
  6
CONTINUOUS
 62
    4
 10
668.90136410485093
 20
280.43974325393242
 11
675.40136410485093
 21
280.43974325393242
  0
LINE
  8
_0-8_細線
  6
CONTINUOUS
 62
    4
 10
677.00576409572056
 20
280.43974325393242
 11
683.50576409571966
 21
280.43974325393242
  0
LINE
  8
_0-8_細線
  6
CONTINUOUS
 62
    4
 10
695.84319271863887
 20
280.43974325393242
 11
702.34319271863876
 21
280.43974325393242
  0
LINE
  8
_0-8_細線
  6
CONTINUOUS
 62
    4
 10
704.53023545032136
 20
280.43974325393242
 11
711.01571666881273
 21
280.43974325393242
  0
LINE
  8
_0-8_細線
  6
CONTINUOUS
 62
    4
 10
720.23698960676245
 20
280.43974325393242
 11
725.73698960676256
 21
280.43974325393242
  0
LINE
  8
_0-8_細線
  6
CONTINUOUS
 62
    4
 10
580.31670499688823
 20
281.43974325393174
 11
593.26111803036417
 21
281.43974325393174
  0
LINE
  8
_0-8_細線
  6
CONTINUOUS
 62
    4
 10
606.52837637852679
 20
281.43974325393174
 11
613.02837637852599
 21
281.43974325393174
  0
LINE
  8
_0-8_細線
  6
CONTINUOUS
 62
    4
 10
626.52837637852599
 20
281.43974325393174
 11
633.52837637852599
 21
281.43974325393174
  0
LINE
  8
_0-8_細線
  6
CONTINUOUS
 62
    4
 10
638.02568381468825
 20
281.43974325393174
 11
644.52568381468916
 21
281.43974325393174
  0
LINE
  8
_0-8_細線
  6
CONTINUOUS
 62
    4
 10
657.86767176300555
 20
281.43974325393174
 11
664.36767176300555
 21
281.43974325393174
  0
LINE
  8
_0-8_細線
  6
CONTINUOUS
 62
    4
 10
669.36767176300555
 20
281.43974325393174
 11
675.86767176300555
 21
281.43974325393174
  0
LINE
  8
_0-8_細線
  6
CONTINUOUS
 62
    4
 10
676.53945643756504
 20
281.43974325393174
 11
683.03945643756515
 21
281.43974325393174
  0
LINE
  8
_0-8_細線
  6
CONTINUOUS
 62
    4
 10
695.84319271863887
 20
281.43974325393174
 11
702.34319271863876
 21
281.43974325393174
  0
LINE
  8
_0-8_細線
  6
CONTINUOUS
 62
    4
 10
703.90536609841229
 20
281.43974325393174
 11
710.39084731690355
 21
281.43974325393174
  0
LINE
  8
_0-8_細線
  6
CONTINUOUS
 62
    4
 10
720.23698960676245
 20
281.43974325393174
 11
725.73698960676256
 21
281.43974325393174
  0
LINE
  8
_0-8_細線
  6
CONTINUOUS
 62
    4
 10
580.78301265504285
 20
282.43974325393197
 11
592.79481037220864
 21
282.43974325393197
  0
LINE
  8
_0-8_細線
  6
CONTINUOUS
 62
    4
 10
606.52837637852679
 20
282.43974325393197
 11
613.02837637852599
 21
282.43974325393197
  0
LINE
  8
_0-8_細線
  6
CONTINUOUS
 62
    4
 10
625.46612624302861
 20
282.43974325393197
 11
633.21436949413999
 21
282.43974325393197
  0
LINE
  8
_0-8_細線
  6
CONTINUOUS
 62
    4
 10
637.55937615653374
 20
282.43974325393197
 11
644.05937615653374
 21
282.43974325393197
  0
LINE
  8
_0-8_細線
  6
CONTINUOUS
 62
    4
 10
658.33397942116096
 20
282.43974325393197
 11
664.83397942116108
 21
282.43974325393197
  0
LINE
  8
_0-8_細線
  6
CONTINUOUS
 62
    4
 10
669.83397942116108
 20
282.43974325393197
 11
682.57314877941053
 21
282.43974325393197
  0
LINE
  8
_0-8_細線
  6
CONTINUOUS
 62
    4
 10
695.84319271863887
 20
282.43974325393197
 11
702.34319271863876
 21
282.43974325393197
  0
LINE
  8
_0-8_細線
  6
CONTINUOUS
 62
    4
 10
703.2804967465031
 20
282.43974325393197
 11
709.76597796499425
 21
282.43974325393197
  0
LINE
  8
_0-8_細線
  6
CONTINUOUS
 62
    4
 10
720.23698960676245
 20
282.43974325393197
 11
725.73698960676256
 21
282.43974325393197
  0
LINE
  8
_0-8_細線
  6
CONTINUOUS
 62
    4
 10
581.2493203131985
 20
283.43974325393162
 11
592.32850271405323
 21
283.43974325393162
  0
LINE
  8
_0-8_細線
  6
CONTINUOUS
 62
    4
 10
606.52837637852679
 20
283.43974325393162
 11
613.02837637852599
 21
283.43974325393162
  0
LINE
  8
_0-8_細線
  6
CONTINUOUS
 62
    4
 10
623.92670400219447
 20
283.43974325393162
 11
632.79906139904915
 21
283.43974325393162
  0
LINE
  8
_0-8_細線
  6
CONTINUOUS
 62
    4
 10
637.09306849837913
 20
283.43974325393162
 11
643.59306849837913
 21
283.43974325393162
  0
LINE
  8
_0-8_細線
  6
CONTINUOUS
 62
    4
 10
658.80028707931569
 20
283.43974325393162
 11
665.3002870793166
 21
283.43974325393162
  0
LINE
  8
_0-8_細線
  6
CONTINUOUS
 62
    4
 10
670.30028707931569
 20
283.43974325393162
 11
682.10684112125591
 21
283.43974325393162
  0
LINE
  8
_0-8_細線
  6
CONTINUOUS
 62
    4
 10
695.84319271863887
 20
283.43974325393162
 11
702.34319271863876
 21
283.43974325393162
  0
LINE
  8
_0-8_細線
  6
CONTINUOUS
 62
    4
 10
702.65562739459392
 20
283.43974325393162
 11
709.14110861308507
 21
283.43974325393162
  0
LINE
  8
_0-8_細線
  6
CONTINUOUS
 62
    4
 10
720.23698960676245
 20
283.43974325393162
 11
725.73698960676256
 21
283.43974325393162
  0
LINE
  8
_0-8_細線
  6
CONTINUOUS
 62
    4
 10
581.71562797135311
 20
284.43974325393185
 11
591.86219505589861
 21
284.43974325393185
  0
LINE
  8
_0-8_細線
  6
CONTINUOUS
 62
    4
 10
606.52837637852679
 20
284.43974325393185
 11
632.18365610688898
 21
284.43974325393185
  0
LINE
  8
_0-8_細線
  6
CONTINUOUS
 62
    4
 10
636.62676084022451
 20
284.43974325393185
 11
643.1267608402236
 21
284.43974325393185
  0
LINE
  8
_0-8_細線
  6
CONTINUOUS
 62
    4
 10
659.26659473747031
 20
284.43974325393185
 11
665.76659473747122
 21
284.43974325393185
  0
LINE
  8
_0-8_細線
  6
CONTINUOUS
 62
    4
 10
670.76659473747122
 20
284.43974325393185
 11
681.64053346310038
 21
284.43974325393185
  0
LINE
  8
_0-8_細線
  6
CONTINUOUS
 62
    4
 10
695.84319271863887
 20
284.43974325393185
 11
708.516239261176
 21
284.43974325393185
  0
LINE
  8
_0-8_細線
  6
CONTINUOUS
 62
    4
 10
720.23698960676245
 20
284.43974325393185
 11
725.73698960676256
 21
284.43974325393185
  0
LINE
  8
_0-8_細線
  6
CONTINUOUS
 62
    4
 10
582.18193562950864
 20
285.43974325393208
 11
591.39588739774388
 21
285.43974325393208
  0
LINE
  8
_0-8_細線
  6
CONTINUOUS
 62
    4
 10
606.52837637852679
 20
285.43974325393208
 11
631.23785043066118
 21
285.43974325393208
  0
LINE
  8
_0-8_細線
  6
CONTINUOUS
 62
    4
 10
636.16045318206886
 20
285.43974325393208
 11
642.66045318206898
 21
285.43974325393208
  0
LINE
  8
_0-8_細線
  6
CONTINUOUS
 62
    4
 10
659.73290239562584
 20
285.43974325393208
 11
666.23290239562584
 21
285.43974325393208
  0
LINE
  8
_0-8_細線
  6
CONTINUOUS
 62
    4
 10
671.23290239562584
 20
285.43974325393208
 11
681.17422580494485
 21
285.43974325393208
  0
LINE
  8
_0-8_細線
  6
CONTINUOUS
 62
    4
 10
695.84319271863887
 20
285.43974325393208
 11
707.8913699092659
 21
285.43974325393208
  0
LINE
  8
_0-8_細線
  6
CONTINUOUS
 62
    4
 10
720.23698960676245
 20
285.43974325393208
 11
725.73698960676256
 21
285.43974325393208
  0
LINE
  8
_0-8_細線
  6
CONTINUOUS
 62
    4
 10
582.64824328766315
 20
286.43974325393174
 11
590.92957973958926
 21
286.43974325393174
  0
LINE
  8
_0-8_細線
  6
CONTINUOUS
 62
    4
 10
606.52837637852679
 20
286.43974325393174
 11
629.84902112297323
 21
286.43974325393174
  0
LINE
  8
_0-8_細線
  6
CONTINUOUS
 62
    4
 10
635.69414552391333
 20
286.43974325393174
 11
642.19414552391333
 21
286.43974325393174
  0
LINE
  8
_0-8_細線
  6
CONTINUOUS
 62
    4
 10
660.19921005378035
 20
286.43974325393174
 11
666.69921005378035
 21
286.43974325393174
  0
LINE
  8
_0-8_細線
  6
CONTINUOUS
 62
    4
 10
671.69921005378046
 20
286.43974325393174
 11
680.70791814679023
 21
286.43974325393174
  0
LINE
  8
_0-8_細線
  6
CONTINUOUS
 62
    4
 10
695.84319271863887
 20
286.43974325393174
 11
707.26650055735763
 21
286.43974325393174
  0
LINE
  8
_0-8_細線
  6
CONTINUOUS
 62
    4
 10
720.23698960676245
 20
286.43974325393174
 11
725.73698960676256
 21
286.43974325393174
  0
LINE
  8
_0-8_細線
  6
CONTINUOUS
 62
    4
 10
583.11455094581788
 20
287.4397432539314
 11
590.46327208143384
 21
287.4397432539314
  0
LINE
  8
_0-8_細線
  6
CONTINUOUS
 62
    4
 10
606.52837637852679
 20
287.4397432539314
 11
627.84369138238208
 21
287.4397432539314
  0
LINE
  8
_0-8_細線
  6
CONTINUOUS
 62
    4
 10
635.22783786575883
 20
287.4397432539314
 11
641.72783786575883
 21
287.4397432539314
  0
LINE
  8
_0-8_細線
  6
CONTINUOUS
 62
    4
 10
660.66551771193599
 20
287.4397432539314
 11
667.16551771193497
 21
287.4397432539314
  0
LINE
  8
_0-8_細線
  6
CONTINUOUS
 62
    4
 10
672.16551771193599
 20
287.4397432539314
 11
680.24161048863562
 21
287.4397432539314
  0
LINE
  8
_0-8_細線
  6
CONTINUOUS
 62
    4
 10
695.84319271863887
 20
287.4397432539314
 11
706.64163120544754
 21
287.4397432539314
  0
LINE
  8
_0-8_細線
  6
CONTINUOUS
 62
    4
 10
720.23698960676245
 20
287.4397432539314
 11
725.73698960676256
 21
287.4397432539314
  0
LINE
  8
_0-8_細線
  6
CONTINUOUS
 62
    4
 10
583.5808586039725
 20
288.43974325393162
 11
589.99696442327922
 21
288.43974325393162
  0
LINE
  8
_0-8_細線
  6
CONTINUOUS
 62
    4
 10
606.52837637852679
 20
288.43974325393162
 11
624.90171303421027
 21
288.43974325393162
  0
LINE
  8
_0-8_細線
  6
CONTINUOUS
 62
    4
 10
634.76153020760421
 20
288.43974325393162
 11
641.26153020760421
 21
288.43974325393162
  0
LINE
  8
_0-8_細線
  6
CONTINUOUS
 62
    4
 10
661.13182537009152
 20
288.43974325393162
 11
667.6318253700905
 21
288.43974325393162
  0
LINE
  8
_0-8_細線
  6
CONTINUOUS
 62
    4
 10
672.63182537009152
 20
288.43974325393162
 11
679.77530283048009
 21
288.43974325393162
  0
LINE
  8
_0-8_細線
  6
CONTINUOUS
 62
    4
 10
695.84319271863887
 20
288.43974325393162
 11
706.01676185353824
 21
288.43974325393162
  0
LINE
  8
_0-8_細線
  6
CONTINUOUS
 62
    4
 10
720.23698960676245
 20
288.43974325393162
 11
725.73698960676256
 21
288.43974325393162
  0
LINE
  8
_0-8_細線
  6
CONTINUOUS
 62
    4
 10
516.35956248012781
 20
260.78441684455504
 11
537.37881149111809
 21
260.78441684455504
  0
LINE
  8
_0-8_細線
  6
CONTINUOUS
 62
    4
 10
516.35956248012781
 20
261.28441684455515
 11
537.37881149111809
 21
261.28441684455515
  0
LINE
  8
_0-8_細線
  6
CONTINUOUS
 62
    4
 10
516.35956248012781
 20
261.7844168445547
 11
537.37881149111809
 21
261.7844168445547
  0
LINE
  8
_0-8_細線
  6
CONTINUOUS
 62
    4
 10
516.35956248012781
 20
262.28441684455447
 11
537.37881149111809
 21
262.28441684455447
  0
LINE
  8
_0-8_細線
  6
CONTINUOUS
 62
    4
 10
516.35956248012781
 20
262.78441684455458
 11
537.37881149111809
 21
262.78441684455458
  0
LINE
  8
_0-8_細線
  6
CONTINUOUS
 62
    4
 10
516.35956248012781
 20
263.2844168445547
 11
537.37881149111809
 21
263.2844168445547
  0
LINE
  8
_0-8_細線
  6
CONTINUOUS
 62
    4
 10
516.35956248012781
 20
263.78441684455515
 11
537.37881149111809
 21
263.78441684455515
  0
LINE
  8
_0-8_細線
  6
CONTINUOUS
 62
    4
 10
516.35956248012781
 20
264.2844168445547
 11
537.37881149111809
 21
264.2844168445547
  0
LINE
  8
_0-8_細線
  6
CONTINUOUS
 62
    4
 10
516.35956248012781
 20
264.78441684455447
 11
537.37881149111809
 21
264.78441684455447
  0
LINE
  8
_0-8_細線
  6
CONTINUOUS
 62
    4
 10
516.35956248012781
 20
265.28441684455402
 11
537.37881149111809
 21
265.28441684455402
  0
LINE
  8
_0-8_細線
  6
CONTINUOUS
 62
    4
 10
516.35956248012781
 20
265.7844168445547
 11
537.37881149111809
 21
265.7844168445547
  0
LINE
  8
_0-8_細線
  6
CONTINUOUS
 62
    4
 10
516.35956248012781
 20
266.28441684455424
 11
537.37881149111809
 21
266.28441684455424
  0
LINE
  8
_0-8_細線
  6
CONTINUOUS
 62
    4
 10
516.35956248012781
 20
266.7844168445547
 11
537.37881149111809
 21
266.7844168445547
  0
LINE
  8
_0-8_細線
  6
CONTINUOUS
 62
    4
 10
516.35956248012781
 20
267.28441684455447
 11
537.37881149111809
 21
267.28441684455447
  0
LINE
  8
_0-8_細線
  6
CONTINUOUS
 62
    4
 10
516.35956248012781
 20
267.78441684455402
 11
537.37881149111809
 21
267.78441684455402
  0
LINE
  8
_0-8_細線
  6
CONTINUOUS
 62
    4
 10
516.35956248012781
 20
268.2844168445547
 11
537.37881149111809
 21
268.2844168445547
  0
LINE
  8
_0-8_細線
  6
CONTINUOUS
 62
    4
 10
516.35956248012781
 20
268.78441684455424
 11
537.37881149111809
 21
268.78441684455424
  0
LINE
  8
_0-8_細線
  6
CONTINUOUS
 62
    4
 10
516.35956248012781
 20
269.28441684455436
 11
537.37881149111809
 21
269.28441684455436
  0
LINE
  8
_0-8_細線
  6
CONTINUOUS
 62
    4
 10
516.35956248012781
 20
269.7844168445539
 11
537.37881149111809
 21
269.7844168445539
  0
LINE
  8
_0-8_細線
  6
CONTINUOUS
 62
    4
 10
516.35956248012781
 20
270.28441684455402
 11
537.37881149111809
 21
270.28441684455402
  0
LINE
  8
_0-8_細線
  6
CONTINUOUS
 62
    4
 10
516.35956248012781
 20
270.78441684455413
 11
537.37881149111809
 21
270.78441684455413
  0
LINE
  8
_0-8_細線
  6
CONTINUOUS
 62
    4
 10
516.35956248012781
 20
271.28441684455424
 11
537.37881149111809
 21
271.28441684455424
  0
LINE
  8
_0-8_細線
  6
CONTINUOUS
 62
    4
 10
516.35956248012781
 20
271.78441684455436
 11
537.37881149111809
 21
271.78441684455436
  0
LINE
  8
_0-8_細線
  6
CONTINUOUS
 62
    4
 10
516.35956248012781
 20
272.2844168445539
 11
537.37881149111809
 21
272.2844168445539
  0
LINE
  8
_0-8_細線
  6
CONTINUOUS
 62
    4
 10
516.35956248012781
 20
272.78441684455402
 11
537.37881149111809
 21
272.78441684455402
  0
LINE
  8
_0-8_細線
  6
CONTINUOUS
 62
    4
 10
516.35956248012781
 20
273.28441684455356
 11
537.37881149111809
 21
273.28441684455356
  0
LINE
  8
_0-8_細線
  6
CONTINUOUS
 62
    4
 10
516.35956248012781
 20
273.78441684455424
 11
537.37881149111809
 21
273.78441684455424
  0
LINE
  8
_0-8_細線
  6
CONTINUOUS
 62
    4
 10
516.35956248012781
 20
274.28441684455379
 11
537.37881149111809
 21
274.28441684455379
  0
LINE
  8
_0-8_細線
  6
CONTINUOUS
 62
    4
 10
516.35956248012781
 20
274.78441684455368
 11
537.37881149111809
 21
274.78441684455368
  0
LINE
  8
_0-8_細線
  6
CONTINUOUS
 62
    4
 10
516.35956248012781
 20
275.28441684455402
 11
537.37881149111809
 21
275.28441684455402
  0
LINE
  8
_0-8_細線
  6
CONTINUOUS
 62
    4
 10
516.35956248012781
 20
275.78441684455413
 11
537.37881149111809
 21
275.78441684455413
  0
LINE
  8
_0-8_細線
  6
CONTINUOUS
 62
    4
 10
516.35956248012781
 20
276.28441684455368
 11
537.37881149111809
 21
276.28441684455368
  0
LINE
  8
_0-8_細線
  6
CONTINUOUS
 62
    4
 10
516.35956248012781
 20
276.78441684455379
 11
537.37881149111809
 21
276.78441684455379
  0
LINE
  8
_0-8_細線
  6
CONTINUOUS
 62
    4
 10
516.35956248012781
 20
277.28441684455368
 11
537.37881149111809
 21
277.28441684455368
  0
LINE
  8
_0-8_細線
  6
CONTINUOUS
 62
    4
 10
516.35956248012781
 20
277.78441684455402
 11
537.37881149111809
 21
277.78441684455402
  0
LINE
  8
_0-8_細線
  6
CONTINUOUS
 62
    4
 10
516.35956248012781
 20
278.28441684455413
 11
537.37881149111809
 21
278.28441684455413
  0
LINE
  8
_0-8_細線
  6
CONTINUOUS
 62
    4
 10
516.35956248012781
 20
278.78441684455368
 11
537.37881149111809
 21
278.78441684455368
  0
LINE
  8
_0-8_細線
  6
CONTINUOUS
 62
    4
 10
516.35956248012781
 20
279.28441684455379
 11
537.37881149111809
 21
279.28441684455379
  0
LINE
  8
_0-8_細線
  6
CONTINUOUS
 62
    4
 10
516.35956248012781
 20
279.78441684455368
 11
537.37881149111809
 21
279.78441684455368
  0
LINE
  8
_0-8_細線
  6
CONTINUOUS
 62
    4
 10
516.35956248012781
 20
280.28441684455402
 11
537.37881149111809
 21
280.28441684455402
  0
LINE
  8
_0-8_細線
  6
CONTINUOUS
 62
    4
 10
516.35956248012781
 20
280.78441684455356
 11
537.37881149111809
 21
280.78441684455356
  0
LINE
  8
_0-8_細線
  6
CONTINUOUS
 62
    4
 10
516.35956248012781
 20
281.28441684455368
 11
537.37881149111809
 21
281.28441684455368
  0
LINE
  8
_0-8_細線
  6
CONTINUOUS
 62
    4
 10
563.76537519970714
 20
304.78441684455436
 11
571.08316400881222
 21
304.78441684455436
  0
LINE
  8
_0-8_細線
  6
CONTINUOUS
 62
    4
 10
562.40388307828425
 20
305.7844168445539
 11
572.44465613023522
 21
305.7844168445539
  0
LINE
  8
_0-8_細線
  6
CONTINUOUS
 62
    4
 10
561.50641074511213
 20
306.78441684455424
 11
573.34212846340733
 21
306.78441684455424
  0
LINE
  8
_0-8_細線
  6
CONTINUOUS
 62
    4
 10
560.87920840642926
 20
307.78441684455379
 11
573.9693308020901
 21
307.78441684455379
  0
LINE
  8
_0-8_細線
  6
CONTINUOUS
 62
    4
 10
560.44898475774744
 20
308.78441684455458
 11
574.39955445077203
 21
308.78441684455458
  0
LINE
  8
_0-8_細線
  6
CONTINUOUS
 62
    4
 10
560.18055706879522
 20
309.78441684455379
 11
574.66798213972424
 21
309.78441684455379
  0
LINE
  8
_0-8_細線
  6
CONTINUOUS
 62
    4
 10
560.0562207510643
 20
310.7844168445539
 11
574.79231845745517
 21
310.7844168445539
  0
LINE
  8
_0-8_細線
  6
CONTINUOUS
 62
    4
 10
560.06866517568369
 20
311.78441684455379
 11
574.77987403283578
 21
311.78441684455379
  0
LINE
  8
_0-8_細線
  6
CONTINUOUS
 62
    4
 10
560.21859898201683
 20
312.7844168445539
 11
574.62994022650264
 21
312.7844168445539
  0
LINE
  8
_0-8_細線
  6
CONTINUOUS
 62
    4
 10
560.51496705459374
 20
313.78441684455356
 11
574.33357215392562
 21
313.78441684455356
  0
LINE
  8
_0-8_細線
  6
CONTINUOUS
 62
    4
 10
560.97793465102529
 20
314.7844168445539
 11
573.87060455749395
 21
314.7844168445539
  0
LINE
  8
_0-8_細線
  6
CONTINUOUS
 62
    4
 10
561.64741865102542
 20
315.78441684455402
 11
573.20112055749405
 21
315.78441684455402
  0
LINE
  8
_0-8_細線
  6
CONTINUOUS
 62
    4
 10
562.60879667395557
 20
316.78441684455379
 11
572.2397425345639
 21
316.78441684455379
  0
LINE
  8
_0-8_細線
  6
CONTINUOUS
 62
    4
 10
564.10680790153253
 20
317.78441684455322
 11
570.74173130698682
 21
317.78441684455322
  0
LINE
  8
_0-8_細線
  6
CONTINUOUS
 62
    4
 10
574.41533004513565
 20
308.83060138089263
 11
574.41533004513565
 21
313.55500491478426
  0
LINE
  8
_0-8_細線
  6
CONTINUOUS
 62
    4
 10
573.41533004513576
 20
306.88442548686555
 11
573.41533004513576
 21
315.50118080881134
  0
LINE
  8
_0-8_細線
  6
CONTINUOUS
 62
    4
 10
572.41533004513565
 20
305.75734190234164
 11
572.41533004513565
 21
316.62826439333548
  0
LINE
  8
_0-8_細線
  6
CONTINUOUS
 62
    4
 10
571.41533004513565
 20
304.98584255241997
 11
571.41533004513565
 21
317.39976374325681
  0
LINE
  8
_0-8_細線
  6
CONTINUOUS
 62
    4
 10
570.41533004513565
 20
304.44680576310577
 11
570.41533004513565
 21
317.93880053257101
  0
LINE
  8
_0-8_細線
  6
CONTINUOUS
 62
    4
 10
569.41533004513576
 20
304.0871292461876
 11
569.41533004513576
 21
318.29847704948952
  0
LINE
  8
_0-8_細線
  6
CONTINUOUS
 62
    4
 10
568.41533004513565
 20
303.88029861941186
 11
568.41533004513565
 21
318.50530767626515
  0
LINE
  8
_0-8_細線
  6
CONTINUOUS
 62
    4
 10
567.41533004513565
 20
303.8134506450715
 11
567.41533004513565
 21
318.57215565060562
  0
LINE
  8
_0-8_細線
  6
CONTINUOUS
 62
    4
 10
536.91533004513565
 20
260.68160220711832
 11
536.91533004513565
 21
281.73044826082787
  0
LINE
  8
_0-8_細線
  6
CONTINUOUS
 62
    4
 10
536.41533004513576
 20
260.68160220711832
 11
536.41533004513576
 21
281.73044826082787
  0
LINE
  8
_0-8_細線
  6
CONTINUOUS
 62
    4
 10
535.91533004513576
 20
260.68160220711832
 11
535.91533004513576
 21
281.73044826082787
  0
LINE
  8
_0-8_細線
  6
CONTINUOUS
 62
    4
 10
535.41533004513565
 20
260.68160220711832
 11
535.41533004513565
 21
281.73044826082787
  0
LINE
  8
_0-8_細線
  6
CONTINUOUS
 62
    4
 10
534.91533004513565
 20
260.68160220711832
 11
534.91533004513565
 21
281.73044826082787
  0
LINE
  8
_0-8_細線
  6
CONTINUOUS
 62
    4
 10
534.41533004513565
 20
260.68160220711832
 11
534.41533004513565
 21
281.73044826082787
  0
LINE
  8
_0-8_細線
  6
CONTINUOUS
 62
    4
 10
533.91533004513565
 20
260.68160220711832
 11
533.91533004513565
 21
281.73044826082787
  0
LINE
  8
_0-8_細線
  6
CONTINUOUS
 62
    4
 10
533.41533004513565
 20
260.68160220711832
 11
533.41533004513565
 21
281.73044826082787
  0
LINE
  8
_0-8_細線
  6
CONTINUOUS
 62
    4
 10
532.91533004513565
 20
260.68160220711832
 11
532.91533004513565
 21
281.73044826082787
  0
LINE
  8
_0-8_細線
  6
CONTINUOUS
 62
    4
 10
532.41533004513576
 20
260.68160220711832
 11
532.41533004513576
 21
281.73044826082787
  0
LINE
  8
_0-8_細線
  6
CONTINUOUS
 62
    4
 10
531.91533004513576
 20
260.68160220711832
 11
531.91533004513576
 21
281.73044826082787
  0
LINE
  8
_0-8_細線
  6
CONTINUOUS
 62
    4
 10
531.41533004513576
 20
260.68160220711832
 11
531.41533004513576
 21
281.73044826082787
  0
LINE
  8
_0-8_細線
  6
CONTINUOUS
 62
    4
 10
530.91533004513565
 20
260.68160220711832
 11
530.91533004513565
 21
281.73044826082787
  0
LINE
  8
_0-8_細線
  6
CONTINUOUS
 62
    4
 10
530.41533004513565
 20
260.68160220711832
 11
530.41533004513565
 21
281.73044826082787
  0
LINE
  8
_0-8_細線
  6
CONTINUOUS
 62
    4
 10
529.91533004513565
 20
260.68160220711832
 11
529.91533004513565
 21
281.73044826082787
  0
LINE
  8
_0-8_細線
  6
CONTINUOUS
 62
    4
 10
529.41533004513565
 20
260.68160220711832
 11
529.41533004513565
 21
281.73044826082787
  0
LINE
  8
_0-8_細線
  6
CONTINUOUS
 62
    4
 10
528.91533004513565
 20
260.68160220711832
 11
528.91533004513565
 21
281.73044826082787
  0
LINE
  8
_0-8_細線
  6
CONTINUOUS
 62
    4
 10
528.41533004513565
 20
260.68160220711832
 11
528.41533004513565
 21
281.73044826082787
  0
LINE
  8
_0-8_細線
  6
CONTINUOUS
 62
    4
 10
527.91533004513576
 20
260.68160220711832
 11
527.91533004513576
 21
281.73044826082787
  0
LINE
  8
_0-8_細線
  6
CONTINUOUS
 62
    4
 10
527.41533004513576
 20
260.68160220711832
 11
527.41533004513576
 21
281.73044826082787
  0
LINE
  8
_0-8_細線
  6
CONTINUOUS
 62
    4
 10
526.91533004513565
 20
260.68160220711832
 11
526.91533004513565
 21
281.73044826082787
  0
LINE
  8
_0-8_細線
  6
CONTINUOUS
 62
    4
 10
526.41533004513565
 20
260.68160220711832
 11
526.41533004513565
 21
281.73044826082787
  0
LINE
  8
_0-8_細線
  6
CONTINUOUS
 62
    4
 10
525.91533004513565
 20
260.68160220711832
 11
525.91533004513565
 21
281.73044826082787
  0
LINE
  8
_0-8_細線
  6
CONTINUOUS
 62
    4
 10
525.41533004513565
 20
260.68160220711832
 11
525.41533004513565
 21
281.73044826082787
  0
LINE
  8
_0-8_細線
  6
CONTINUOUS
 62
    4
 10
524.91533004513565
 20
260.68160220711832
 11
524.91533004513565
 21
281.73044826082787
  0
LINE
  8
_0-8_細線
  6
CONTINUOUS
 62
    4
 10
524.41533004513565
 20
260.68160220711832
 11
524.41533004513565
 21
281.73044826082787
  0
LINE
  8
_0-8_細線
  6
CONTINUOUS
 62
    4
 10
523.91533004513576
 20
260.68160220711832
 11
523.91533004513576
 21
281.73044826082787
  0
LINE
  8
_0-8_細線
  6
CONTINUOUS
 62
    4
 10
523.41533004513576
 20
260.68160220711832
 11
523.41533004513576
 21
281.73044826082787
  0
LINE
  8
_0-8_細線
  6
CONTINUOUS
 62
    4
 10
522.91533004513565
 20
260.68160220711832
 11
522.91533004513565
 21
281.73044826082787
  0
LINE
  8
_0-8_細線
  6
CONTINUOUS
 62
    4
 10
522.41533004513565
 20
260.68160220711832
 11
522.41533004513565
 21
281.73044826082787
  0
LINE
  8
_0-8_細線
  6
CONTINUOUS
 62
    4
 10
521.91533004513565
 20
260.68160220711832
 11
521.91533004513565
 21
281.73044826082787
  0
LINE
  8
_0-8_細線
  6
CONTINUOUS
 62
    4
 10
521.41533004513565
 20
260.68160220711832
 11
521.41533004513565
 21
281.73044826082787
  0
LINE
  8
_0-8_細線
  6
CONTINUOUS
 62
    4
 10
520.91533004513565
 20
260.68160220711832
 11
520.91533004513565
 21
281.73044826082787
  0
LINE
  8
_0-8_細線
  6
CONTINUOUS
 62
    4
 10
520.41533004513565
 20
260.68160220711832
 11
520.41533004513565
 21
281.73044826082787
  0
LINE
  8
_0-8_細線
  6
CONTINUOUS
 62
    4
 10
519.91533004513576
 20
260.68160220711832
 11
519.91533004513576
 21
281.73044826082787
  0
LINE
  8
_0-8_細線
  6
CONTINUOUS
 62
    4
 10
519.41533004513576
 20
260.68160220711832
 11
519.41533004513576
 21
281.73044826082787
  0
LINE
  8
_0-8_細線
  6
CONTINUOUS
 62
    4
 10
518.91533004513576
 20
260.68160220711832
 11
518.91533004513576
 21
281.73044826082787
  0
LINE
  8
_0-8_細線
  6
CONTINUOUS
 62
    4
 10
518.41533004513565
 20
260.68160220711832
 11
518.41533004513565
 21
281.73044826082787
  0
LINE
  8
_0-8_細線
  6
CONTINUOUS
 62
    4
 10
517.91533004513565
 20
260.68160220711832
 11
517.91533004513565
 21
281.73044826082787
  0
LINE
  8
_0-8_細線
  6
CONTINUOUS
 62
    4
 10
517.41533004513565
 20
260.68160220711832
 11
517.41533004513565
 21
281.73044826082787
  0
LINE
  8
_0-8_細線
  6
CONTINUOUS
 62
    4
 10
516.91533004513565
 20
260.68160220711832
 11
516.91533004513565
 21
281.73044826082787
  0
LINE
  8
_0-8_細線
  6
CONTINUOUS
 62
    4
 10
516.41533004513565
 20
260.68160220711832
 11
516.41533004513565
 21
281.73044826082787
  0
LINE
  8
_0-8_細線
  6
CONTINUOUS
 62
    4
 10
527.91406778255759
 20
297.11611517553297
 11
499.46327583184893
 21
260.07202279889611
  0
LINE
  8
_0-8_細線
  6
CONTINUOUS
 62
    4
 10
499.46327583184893
 20
260.07202279889611
 11
496.67625947749411
 21
258.91076598458085
  0
LINE
  8
_0-8_細線
  6
CONTINUOUS
 62
    4
 10
496.67625947749411
 20
258.91076598458085
 11
494.12149448600167
 21
257.98176053312977
  0
LINE
  8
_0-8_細線
  6
CONTINUOUS
 62
    4
 10
494.12149448600167
 20
257.98176053312977
 11
492.72798630882471
 21
259.2591430288752
  0
LINE
  8
_0-8_細線
  6
CONTINUOUS
 62
    4
 10
492.72798630882471
 20
259.2591430288752
 11
491.56672949451013
 21
260.88490256891589
  0
LINE
  8
_0-8_細線
  6
CONTINUOUS
 62
    4
 10
491.56672949451013
 20
260.88490256891589
 11
490.63772404305791
 21
264.0202959675654
  0
LINE
  8
_0-8_細線
  6
CONTINUOUS
 62
    4
 10
490.63772404305791
 20
264.0202959675654
 11
491.56672949451013
 21
266.92343800335243
  0
LINE
  8
_0-8_細線
  6
CONTINUOUS
 62
    4
 10
491.56672949451013
 20
266.92343800335243
 11
495.05049993745297
 21
271.91684230490523
  0
LINE
  8
_0-8_細線
  6
CONTINUOUS
 62
    4
 10
495.05049993745297
 20
271.91684230490523
 11
521.29490394096445
 21
307.45130082293349
  0
LINE
  8
_0-8_細線
  6
CONTINUOUS
 62
    4
 10
521.29490394096445
 20
307.45130082293349
 11
521.29490394096445
 21
310.00606581442514
  0
LINE
  8
_0-8_細線
  6
CONTINUOUS
 62
    4
 10
521.29490394096445
 20
310.00606581442514
 11
521.99165802955338
 21
311.63182535446583
  0
LINE
  8
_0-8_細線
  6
CONTINUOUS
 62
    4
 10
521.99165802955338
 20
311.63182535446583
 11
523.84966893245701
 21
313.7220876202324
  0
LINE
  8
_0-8_細線
  6
CONTINUOUS
 62
    4
 10
523.84966893245701
 20
313.7220876202324
 11
524.43029733961475
 21
314.3027160273889
  0
LINE
  8
_0-8_細線
  6
CONTINUOUS
 62
    4
 10
524.43029733961475
 20
314.3027160273889
 11
525.47542847249804
 21
315.81234988599863
  0
LINE
  8
_0-8_細線
  6
CONTINUOUS
 62
    4
 10
525.47542847249804
 20
315.81234988599863
 11
527.21731369396855
 21
316.04460124886123
  0
LINE
  8
_0-8_細線
  6
CONTINUOUS
 62
    4
 10
527.21731369396855
 20
316.04460124886123
 11
530.23658141118756
 21
316.62522965601886
  0
LINE
  8
_0-8_細線
  6
CONTINUOUS
 62
    4
 10
530.23658141118756
 20
316.62522965601886
 11
531.39783822550214
 21
316.50910397458722
  0
LINE
  8
_0-8_細線
  6
CONTINUOUS
 62
    4
 10
531.39783822550214
 20
316.50910397458722
 11
533.83647753556352
 21
315.69622420456699
  0
LINE
  8
_0-8_細線
  6
CONTINUOUS
 62
    4
 10
533.83647753556352
 20
315.69622420456699
 11
534.76548298701482
 21
314.53496739025275
  0
LINE
  8
_0-8_細線
  6
CONTINUOUS
 62
    4
 10
534.76548298701482
 20
314.53496739025275
 11
537.32024797850625
 21
311.16732262873984
  0
LINE
  8
_0-8_細線
  6
CONTINUOUS
 62
    4
 10
537.32024797850625
 20
311.16732262873984
 11
545.21679431584687
 21
298.04512062698439
  0
LINE
  8
_0-8_細線
  6
CONTINUOUS
 62
    4
 10
550.81110831977412
 20
288.59440707644751
 11
562.05046672492017
 21
269.19263524968926
  0
LINE
  8
_0-8_細線
  6
CONTINUOUS
 62
    4
 10
562.05046672492017
 20
269.19263524968926
 11
563.12823788696323
 21
266.42122369015112
  0
LINE
  8
_0-8_細線
  6
CONTINUOUS
 62
    4
 10
563.12823788696323
 20
266.42122369015112
 11
562.66633596037309
 21
265.03551791038262
  0
LINE
  8
_0-8_細線
  6
CONTINUOUS
 62
    4
 10
562.66633596037309
 20
265.03551791038262
 11
561.28063018060448
 21
263.11092654959225
  0
LINE
  8
_0-8_細線
  6
CONTINUOUS
 62
    4
 10
561.28063018060448
 20
263.11092654959225
 11
555.89177437039189
 21
261.49426980652834
  0
LINE
  8
_0-8_細線
  6
CONTINUOUS
 62
    4
 10
555.89177437039189
 20
261.49426980652834
 11
552.6584608842636
 21
260.33951499005411
  0
LINE
  8
_0-8_細線
  6
CONTINUOUS
 62
    4
 10
552.6584608842636
 20
260.33951499005411
 11
549.81006567029488
 21
261.49426980652834
  0
LINE
  8
_0-8_細線
  6
CONTINUOUS
 62
    4
 10
549.81006567029488
 20
261.49426980652834
 11
545.42199736769317
 21
266.19027272685662
  0
LINE
  8
_0-8_細線
  6
CONTINUOUS
 62
    4
 10
545.42199736769317
 20
266.19027272685662
 11
545.26803005882937
 21
268.73073332309957
  0
LINE
  8
_0-8_細線
  6
CONTINUOUS
 62
    4
 10
545.26803005882937
 20
268.73073332309957
 11
527.91406778255759
 21
297.11611517553297
  0
LINE
  8
_0-8_細線
  6
CONTINUOUS
 62
    4
 10
560.74036535957237
 20
262.94884710328517
 11
562.25310685846796
 21
264.46158860218134
  0
LINE
  8
_0-8_細線
  6
CONTINUOUS
 62
    4
 10
558.72006027047382
 20
262.34275557655337
 11
563.0359192261526
 21
266.65861453223272
  0
LINE
  8
_0-8_細線
  6
CONTINUOUS
 62
    4
 10
556.69975518136698
 20
261.736664049821
 11
562.63993942868774
 21
267.67684829714233
  0
LINE
  8
_0-8_細線
  6
CONTINUOUS
 62
    4
 10
554.57168793420476
 20
261.02281036503405
 11
562.24395963122276
 21
268.69508206205217
  0
LINE
  8
_0-8_細線
  6
CONTINUOUS
 62
    4
 10
552.5273372336037
 20
260.39267322680848
 11
561.78520436993631
 21
269.65054036314007
  0
LINE
  8
_0-8_細線
  6
CONTINUOUS
 62
    4
 10
551.52106989115089
 20
260.80061944672195
 11
561.2664619812399
 21
270.5460115368104
  0
LINE
  8
_0-8_細線
  6
CONTINUOUS
 62
    4
 10
550.51480254869284
 20
261.20856566663838
 11
560.74771959253974
 21
271.44148271048607
  0
LINE
  8
_0-8_細線
  6
CONTINUOUS
 62
    4
 10
549.60536198374336
 20
261.71333866406542
 11
560.2289772038398
 21
272.33695388416186
  0
LINE
  8
_0-8_細線
  6
CONTINUOUS
 62
    4
 10
548.9222249239524
 20
262.44441516664892
 11
559.71023481514055
 21
273.23242505783696
  0
LINE
  8
_0-8_細線
  6
CONTINUOUS
 62
    4
 10
548.23908786416132
 20
263.1754916692322
 11
559.19149242644153
 21
274.12789623151298
  0
LINE
  8
_0-8_細線
  6
CONTINUOUS
 62
    4
 10
547.55595080437479
 20
263.90656817181195
 11
558.67275003774512
 21
275.02336740518251
  0
LINE
  8
_0-8_細線
  6
CONTINUOUS
 62
    4
 10
546.8728137445828
 20
264.63764467439546
 11
558.15400764904587
 21
275.91883857885819
  0
LINE
  8
_0-8_細線
  6
CONTINUOUS
 62
    4
 10
546.18967668479081
 20
265.36872117697953
 11
557.63526526034593
 21
276.81430975253363
  0
LINE
  8
_0-8_細線
  6
CONTINUOUS
 62
    4
 10
545.50653962500064
 20
266.09979767956247
 11
557.11652287164668
 21
277.70978092620942
  0
LINE
  8
_0-8_細線
  6
CONTINUOUS
 62
    4
 10
545.3511861529646
 20
267.35865776989328
 11
556.59778048295027
 21
278.60525209987941
  0
LINE
  8
_0-8_細線
  6
CONTINUOUS
 62
    4
 10
545.27037394940044
 20
268.69205912870405
 11
556.07903809425125
 21
279.50072327355485
  0
LINE
  8
_0-8_細線
  6
CONTINUOUS
 62
    4
 10
544.74702603118521
 20
269.58292477286363
 11
555.56029570555108
 21
280.3961944472303
  0
LINE
  8
_0-8_細線
  6
CONTINUOUS
 62
    4
 10
544.21045933396579
 20
270.46057163802095
 11
555.04155331685104
 21
281.29166562090575
  0
LINE
  8
_0-8_細線
  6
CONTINUOUS
 62
    4
 10
543.67389263674931
 20
271.33821850317872
 11
554.52281092815201
 21
282.18713679458119
  0
LINE
  8
_0-8_細線
  6
CONTINUOUS
 62
    4
 10
543.13732593953443
 20
272.21586536833001
 11
554.0040685394556
 21
283.08260796825152
  0
LINE
  8
_0-8_細線
  6
CONTINUOUS
 62
    4
 10
542.60075924231694
 20
273.09351223348756
 11
553.48532615075646
 21
283.97807914192697
  0
LINE
  8
_0-8_細線
  6
CONTINUOUS
 62
    4
 10
542.06419254509854
 20
273.97115909864453
 11
552.96658376205733
 21
284.87355031560276
  0
LINE
  8
_0-8_細線
  6
CONTINUOUS
 62
    4
 10
541.52762584788024
 20
274.84880596380185
 11
552.44784137335728
 21
285.76902148927786
  0
LINE
  8
_0-8_細線
  6
CONTINUOUS
 62
    4
 10
540.99105915066639
 20
275.72645282895371
 11
551.92909898466087
 21
286.66449266294796
  0
LINE
  8
_0-8_細線
  6
CONTINUOUS
 62
    4
 10
540.45449245344889
 20
276.60409969411182
 11
551.41035659596173
 21
287.55996383662455
  0
LINE
  8
_0-8_細線
  6
CONTINUOUS
 62
    4
 10
539.91792575623128
 20
277.48174655926846
 11
550.89161420726168
 21
288.45543501029942
  0
LINE
  8
_0-8_細線
  6
CONTINUOUS
 62
    4
 10
539.38135905901299
 20
278.35939342442543
 11
549.61637271103473
 21
288.59440707644728
  0
LINE
  8
_0-8_細線
  6
CONTINUOUS
 62
    4
 10
538.84479236179823
 20
279.23704028957673
 11
548.20215914867049
 21
288.59440707644865
  0
LINE
  8
_0-8_細線
  6
CONTINUOUS
 62
    4
 10
538.30822566458073
 20
280.11468715473484
 11
546.7879455862934
 21
288.59440707644751
  0
LINE
  8
_0-8_細線
  6
CONTINUOUS
 62
    4
 10
537.77165896736324
 20
280.99233401989181
 11
545.37373202391916
 21
288.59440707644865
  0
LINE
  8
_0-8_細線
  6
CONTINUOUS
 62
    4
 10
537.23509227014574
 20
281.86998088504879
 11
543.95951846154594
 21
288.59440707644978
  0
LINE
  8
_0-8_細線
  6
CONTINUOUS
 62
    4
 10
536.69852557292734
 20
282.74762775020668
 11
542.54530489916885
 21
288.59440707644808
  0
LINE
  8
_0-8_細線
  6
CONTINUOUS
 62
    4
 10
536.16195887571246
 20
283.62527461535819
 11
541.13109133680473
 21
288.59440707644978
  0
LINE
  8
_0-8_細線
  6
CONTINUOUS
 62
    4
 10
535.62539217849508
 20
284.50292148051574
 11
539.81990523619368
 21
288.69743453821457
  0
LINE
  8
_0-8_細線
  6
CONTINUOUS
 62
    4
 10
535.08882548127747
 20
285.38056834567271
 11
541.75175688877005
 21
292.04349975316563
  0
LINE
  8
_0-8_細線
  6
CONTINUOUS
 62
    4
 10
534.55225878405918
 20
286.25821521082946
 11
543.68360854135381
 21
295.38956496812466
  0
LINE
  8
_0-8_細線
  6
CONTINUOUS
 62
    4
 10
534.01569208684441
 20
287.13586207598155
 11
545.10715138709702
 21
298.22732137623279
  0
LINE
  8
_0-8_細線
  6
CONTINUOUS
 62
    4
 10
533.47912538962692
 20
288.01350894113943
 11
544.57584463438104
 21
299.11022818589231
  0
LINE
  8
_0-8_細線
  6
CONTINUOUS
 62
    4
 10
532.94255869240942
 20
288.89115580629607
 11
544.04453788166529
 21
299.99313499555205
  0
LINE
  8
_0-8_細線
  6
CONTINUOUS
 62
    4
 10
532.40599199519102
 20
289.76880267145339
 11
543.51323112894852
 21
300.876041805211
  0
LINE
  8
_0-8_細線
  6
CONTINUOUS
 62
    4
 10
531.86942529797352
 20
290.64644953661093
 11
542.98192437623345
 21
301.75894861487041
  0
LINE
  8
_0-8_細線
  6
CONTINUOUS
 62
    4
 10
531.33285860075955
 20
291.52409640176279
 11
542.45061762352225
 21
302.64185542452469
  0
LINE
  8
_0-8_細線
  6
CONTINUOUS
 62
    4
 10
497.75463972384887
 20
259.36009108722772
 11
502.76317552242335
 21
264.36862688580163
  0
LINE
  8
_0-8_細線
  6
CONTINUOUS
 62
    4
 10
530.79629190354126
 20
292.40174326691942
 11
541.91931087080627
 21
303.52476223418466
  0
LINE
  8
_0-8_細線
  6
CONTINUOUS
 62
    4
 10
495.44243910530304
 20
258.46210403105658
 11
507.44536907352312
 21
270.46503399927701
  0
LINE
  8
_0-8_細線
  6
CONTINUOUS
 62
    4
 10
530.25972520632365
 20
293.27939013207686
 11
541.38800411809052
 21
304.40766904384407
  0
LINE
  8
_0-8_細線
  6
CONTINUOUS
 62
    4
 10
493.8222184298279
 20
258.25609691795592
 11
512.12756262463472
 21
276.56144111276319
  0
LINE
  8
_0-8_細線
  6
CONTINUOUS
 62
    4
 10
529.72315850910525
 20
294.15703699723429
 11
540.85669736537454
 21
305.29057585350336
  0
LINE
  8
_0-8_細線
  6
CONTINUOUS
 62
    4
 10
493.08436787554956
 20
258.93245992604477
 11
516.80975617570721
 21
282.65784822620276
  0
LINE
  8
_0-8_細線
  6
CONTINUOUS
 62
    4
 10
529.18659181189139
 20
295.03468386238626
 11
540.32539061266243
 21
306.17348266315764
  0
LINE
  8
_0-8_細線
  6
CONTINUOUS
 62
    4
 10
492.42334093681666
 20
259.68564654968645
 11
521.49194972682324
 21
288.75425533969326
  0
LINE
  8
_0-8_細線
  6
CONTINUOUS
 62
    4
 10
528.65002511467401
 20
295.9123307275438
 11
539.79408385994736
 21
307.05638947281716
  0
LINE
  8
_0-8_細線
  6
CONTINUOUS
 62
    4
 10
491.83408528582686
 20
260.51060446107158
 11
526.17414327792767
 21
294.85066245317273
  0
LINE
  8
_0-8_細線
  6
CONTINUOUS
 62
    4
 10
528.1134584174556
 20
296.78997759270032
 11
539.26277710723252
 21
307.93929628247668
  0
LINE
  8
_0-8_細線
  6
CONTINUOUS
 62
    4
 10
491.39014442863072
 20
261.48087716625128
 11
538.73147035451564
 21
308.82220309213631
  0
LINE
  8
_0-8_細線
  6
CONTINUOUS
 62
    4
 10
491.06689561437588
 20
262.57184191437091
 11
538.20016360180068
 21
309.70510990179548
  0
LINE
  8
_0-8_細線
  6
CONTINUOUS
 62
    4
 10
490.74364680011922
 20
263.66280666248144
 11
537.66885684908857
 21
310.58801671145022
  0
LINE
  8
_0-8_細線
  6
CONTINUOUS
 62
    4
 10
491.08516004316652
 20
265.41853346790333
 11
537.11047203656506
 21
311.44384546130129
  0
LINE
  8
_0-8_細線
  6
CONTINUOUS
 62
    4
 10
492.46875675204546
 20
268.21634373915742
 11
536.50041912730421
 21
312.24800611441572
  0
LINE
  8
_0-8_細線
  6
CONTINUOUS
 62
    4
 10
495.88516930171727
 20
273.04696985120449
 11
535.89036621804405
 21
313.05216676753082
  0
LINE
  8
_0-8_細線
  6
CONTINUOUS
 62
    4
 10
499.88032261538638
 20
278.45633672724068
 11
535.28031330878866
 21
313.85632742064149
  0
LINE
  8
_0-8_細線
  6
CONTINUOUS
 62
    4
 10
503.87547592910005
 20
283.86570360332746
 11
534.66737486657394
 21
314.65760254080271
  0
LINE
  8
_0-8_細線
  6
CONTINUOUS
 62
    4
 10
507.87062924280553
 20
289.27507047940856
 11
534.03883550551882
 21
315.44327674212172
  0
LINE
  8
_0-8_細線
  6
CONTINUOUS
 62
    4
 10
511.86578255652375
 20
294.68443735550181
 11
533.11729643808246
 21
315.93595123706041
  0
LINE
  8
_0-8_細線
  6
CONTINUOUS
 62
    4
 10
515.86093587022458
 20
300.09380423157768
 11
532.05663626630155
 21
316.28950462765533
  0
LINE
  8
_0-8_細線
  6
CONTINUOUS
 62
    4
 10
519.85608918391097
 20
305.50317110762967
 11
530.9107326121989
 21
316.55781453591817
  0
LINE
  8
_0-8_細線
  6
CONTINUOUS
 62
    4
 10
521.29490394096638
 20
308.35619942706137
 11
529.4037800648598
 21
316.46507555095445
  0
LINE
  8
_0-8_細線
  6
CONTINUOUS
 62
    4
 10
521.29490394096547
 20
309.77041298943539
 11
527.65284898763593
 21
316.1283580361054
  0
LINE
  8
_0-8_細線
  6
CONTINUOUS
 62
    4
 10
524.46923116651533
 20
314.35895377736006
 11
525.99142709094895
 21
315.88114970179367
  0
LINE
  8
_0-8_細線
  6
CONTINUOUS
 62
    4
 10
491.52669340129466
 20
261.02002438350894
 11
494.44670051416188
 21
258.10001727064162
  0
LINE
  8
_0-8_細線
  6
CONTINUOUS
 62
    4
 10
490.93123505924405
 20
263.02969628793426
 11
495.48379045990305
 21
258.47714088727514
  0
LINE
  8
_0-8_細線
  6
CONTINUOUS
 62
    4
 10
490.81157250340527
 20
264.56357240614864
 11
496.52088040564422
 21
258.85426450390923
  0
LINE
  8
_0-8_細線
  6
CONTINUOUS
 62
    4
 10
491.15441215489
 20
265.63494631703861
 11
497.52496513150754
 21
259.26439334042072
  0
LINE
  8
_0-8_細線
  6
CONTINUOUS
 62
    4
 10
491.49725180637176
 20
266.7063202279229
 11
498.52323352847225
 21
259.68033850582231
  0
LINE
  8
_0-8_細線
  6
CONTINUOUS
 62
    4
 10
492.03013419264926
 20
267.58765140402033
 11
499.49910793584104
 21
260.11867766082844
  0
LINE
  8
_0-8_細線
  6
CONTINUOUS
 62
    4
 10
492.61131784842064
 20
268.4206813106249
 11
500.11343829538373
 21
260.91856086366136
  0
LINE
  8
_0-8_細線
  6
CONTINUOUS
 62
    4
 10
493.19250150419111
 20
269.25371121722924
 11
500.72776865492642
 21
261.71844406649427
  0
LINE
  8
_0-8_細線
  6
CONTINUOUS
 62
    4
 10
493.77368515995795
 20
270.08674112382835
 11
501.34209901446548
 21
262.51832726932128
  0
LINE
  8
_0-8_細線
  6
CONTINUOUS
 62
    4
 10
494.35486881572842
 20
270.91977103043291
 11
501.95642937400635
 21
263.31821047215442
  0
LINE
  8
_0-8_細線
  6
CONTINUOUS
 62
    4
 10
494.9360524714989
 20
271.75280093703805
 11
502.57075973354904
 21
264.11809367498734
  0
LINE
  8
_0-8_細線
  6
CONTINUOUS
 62
    4
 10
495.53296946499677
 20
272.57009750591578
 11
503.18509009309173
 21
264.91797687782059
  0
LINE
  8
_0-8_細線
  6
CONTINUOUS
 62
    4
 10
496.13374439938571
 20
273.38353613389245
 11
503.79942045263078
 21
265.71786008064748
  0
LINE
  8
_0-8_細線
  6
CONTINUOUS
 62
    4
 10
496.73451933377828
 20
274.19697476187514
 11
504.41375081217257
 21
266.5177432834804
  0
LINE
  8
_0-8_細線
  6
CONTINUOUS
 62
    4
 10
497.33529426816995
 20
275.01041338985829
 11
505.02808117171435
 21
267.31762648631275
  0
LINE
  8
_0-8_細線
  6
CONTINUOUS
 62
    4
 10
497.93606920256252
 20
275.82385201784064
 11
505.64241153125795
 21
268.11750968914566
  0
LINE
  8
_0-8_細線
  6
CONTINUOUS
 62
    4
 10
498.5368441369551
 20
276.63729064582355
 11
506.25674189079973
 21
268.91739289197858
  0
LINE
  8
_0-8_細線
  6
CONTINUOUS
 62
    4
 10
499.13761907134403
 20
277.45072927380079
 11
506.87107225033878
 21
269.71727609480672
  0
LINE
  8
_0-8_細線
  6
CONTINUOUS
 62
    4
 10
499.73839400573661
 20
278.26416790178371
 11
507.48540260988057
 21
270.51715929763964
  0
LINE
  8
_0-8_細線
  6
CONTINUOUS
 62
    4
 10
500.33916894012827
 20
279.07760652976663
 11
508.09973296942326
 21
271.31704250047164
  0
LINE
  8
_0-8_細線
  6
CONTINUOUS
 62
    4
 10
500.93994387452085
 20
279.89104515774898
 11
508.71406332896504
 21
272.11692570330456
  0
LINE
  8
_0-8_細線
  6
CONTINUOUS
 62
    4
 10
501.54071880890967
 20
280.70448378572621
 11
509.32839368850409
 21
272.91680890613179
  0
LINE
  8
_0-8_細線
  6
CONTINUOUS
 62
    4
 10
502.14149374330236
 20
281.51792241370913
 11
509.94272404804587
 21
273.71669210896471
  0
LINE
  8
_0-8_細線
  6
CONTINUOUS
 62
    4
 10
502.74226867769494
 20
282.33136104169205
 11
510.55705440758857
 21
274.51657531179762
  0
LINE
  8
_0-8_細線
  6
CONTINUOUS
 62
    4
 10
503.34304361208649
 20
283.14479966967497
 11
511.17138476713126
 21
275.31645851463054
  0
LINE
  8
_0-8_細線
  6
CONTINUOUS
 62
    4
 10
503.94381854647906
 20
283.95823829765732
 11
511.78571512667395
 21
276.11634171746346
  0
LINE
  8
_0-8_細線
  6
CONTINUOUS
 62
    4
 10
504.54459348086812
 20
284.77167692563455
 11
512.40004548621209
 21
276.91622492029069
  0
LINE
  8
_0-8_細線
  6
CONTINUOUS
 62
    4
 10
505.14536841526069
 20
285.58511555361747
 11
513.01437584575376
 21
277.7161081231236
  0
LINE
  8
_0-8_細線
  6
CONTINUOUS
 62
    4
 10
505.74614334965327
 20
286.39855418160039
 11
513.62870620529736
 21
278.51599132595652
  0
LINE
  8
_0-8_細線
  6
CONTINUOUS
 62
    4
 10
506.34691828404493
 20
287.21199280958217
 11
514.24303656483914
 21
279.31587452878887
  0
LINE
  8
_0-8_細線
  6
CONTINUOUS
 62
    4
 10
506.94769321843478
 20
288.02543143756088
 11
514.8573669243774
 21
280.11575773161667
  0
LINE
  8
_0-8_細線
  6
CONTINUOUS
 62
    4
 10
507.54846815282644
 20
288.83887006554232
 11
515.47169728391998
 21
280.91564093444958
  0
LINE
  8
_0-8_細線
  6
CONTINUOUS
 62
    4
 10
508.14924308721902
 20
289.65230869352581
 11
516.08602764346267
 21
281.71552413728261
  0
LINE
  8
_0-8_細線
  6
CONTINUOUS
 62
    4
 10
508.7500180216116
 20
290.46574732150873
 11
516.70035800300445
 21
282.51540734011485
  0
LINE
  8
_0-8_細線
  6
CONTINUOUS
 62
    4
 10
509.35079295600417
 20
291.27918594949028
 11
517.31468836254714
 21
283.31529054294754
  0
LINE
  8
_0-8_細線
  6
CONTINUOUS
 62
    4
 10
509.95156789039311
 20
292.09262457746809
 11
517.92901872208631
 21
284.11517374577556
  0
LINE
  8
_0-8_細線
  6
CONTINUOUS
 62
    4
 10
510.55234282478477
 20
292.90606320545066
 11
518.54334908162798
 21
284.91505694860791
  0
LINE
  8
_0-8_細線
  6
CONTINUOUS
 62
    4
 10
511.15311775917735
 20
293.71950183343347
 11
519.15767944117079
 21
285.71494015144083
  0
LINE
  8
_0-8_細線
  6
CONTINUOUS
 62
    4
 10
511.75389269356992
 20
294.53294046141639
 11
519.77200980071348
 21
286.51482335427318
  0
LINE
  8
_0-8_細線
  6
CONTINUOUS
 62
    4
 10
512.35466762795886
 20
295.34637908939396
 11
520.38634016025162
 21
287.31470655710154
  0
LINE
  8
_0-8_細線
  6
CONTINUOUS
 62
    4
 10
512.95544256235144
 20
296.15981771737654
 11
521.00067051979329
 21
288.11458975993446
  0
LINE
  8
_0-8_細線
  6
CONTINUOUS
 62
    4
 10
513.5562174967431
 20
296.97325634535935
 11
521.61500087933609
 21
288.91447296276658
  0
LINE
  8
_0-8_細線
  6
CONTINUOUS
 62
    4
 10
514.15699243113556
 20
297.78669497334181
 11
522.22933123887879
 21
289.71435616559859
  0
LINE
  8
_0-8_細線
  6
CONTINUOUS
 62
    4
 10
545.4006156057643
 20
266.54307179871353
 11
550.88533936680278
 21
261.05834803767436
  0
LINE
  8
_0-8_細線
  6
CONTINUOUS
 62
    4
 10
514.75776736552814
 20
298.60013360132461
 11
522.84366159842057
 21
290.51423936843139
  0
LINE
  8
_0-8_細線
  6
CONTINUOUS
 62
    4
 10
545.30937602109179
 20
268.04852494576153
 11
552.92366884718422
 21
260.43423211966888
  0
LINE
  8
_0-8_細線
  6
CONTINUOUS
 62
    4
 10
515.35854229991719
 20
299.41357222930253
 11
523.4579919579586
 21
291.31412257125976
  0
LINE
  8
_0-8_細線
  6
CONTINUOUS
 62
    4
 10
544.05144079362015
 20
270.72067373559923
 11
553.9657209457705
 21
260.80639358344968
  0
LINE
  8
_0-8_細線
  6
CONTINUOUS
 62
    4
 10
515.95931723430976
 20
300.2270108572842
 11
524.07232231750231
 21
292.11400577409222
  0
LINE
  8
_0-8_細線
  6
CONTINUOUS
 62
    4
 10
541.82668552594384
 20
274.35964256565057
 11
555.00777304436224
 21
261.17855504723252
  0
LINE
  8
_0-8_細線
  6
CONTINUOUS
 62
    4
 10
516.56009216870143
 20
301.04044948526723
 11
524.68665267704409
 21
292.91388897692491
  0
LINE
  8
_0-8_細線
  6
CONTINUOUS
 62
    4
 10
539.60193025826766
 20
277.99861139570169
 11
556.05677242966021
 21
261.54376922430947
  0
LINE
  8
_0-8_細線
  6
CONTINUOUS
 62
    4
 10
517.16086710309492
 20
301.85388811324981
 11
525.30098303658679
 21
293.71377217975794
  0
LINE
  8
_0-8_細線
  6
CONTINUOUS
 62
    4
 10
537.37717499057487
 20
281.63758022576985
 11
557.14462901610159
 21
261.87012620024234
  0
LINE
  8
_0-8_細線
  6
CONTINUOUS
 62
    4
 10
517.76164203748294
 20
302.66732674122738
 11
525.91531339612493
 21
294.51365538258574
  0
LINE
  8
_0-8_細線
  6
CONTINUOUS
 62
    4
 10
535.15241972291142
 20
285.27654905579993
 11
558.23248560253842
 21
262.19648317617157
  0
LINE
  8
_0-8_細線
  6
CONTINUOUS
 62
    4
 10
518.36241697187552
 20
303.48076536921019
 11
526.52964375566762
 21
295.31353858541866
  0
LINE
  8
_0-8_細線
  6
CONTINUOUS
 62
    4
 10
532.92766445523512
 20
288.91551788585059
 11
559.3203421889807
 21
262.52284015210478
  0
LINE
  8
_0-8_細線
  6
CONTINUOUS
 62
    4
 10
518.96319190626809
 20
304.29420399719265
 11
527.1439741152094
 21
296.113421788251
  0
LINE
  8
_0-8_細線
  6
CONTINUOUS
 62
    4
 10
530.70290918755882
 20
292.5544867159025
 11
560.40819877542299
 21
262.84919712803833
  0
LINE
  8
_0-8_細線
  6
CONTINUOUS
 62
    4
 10
519.56396684065965
 20
305.10764262517546
 11
527.75830447475209
 21
296.91330499108392
  0
LINE
  8
_0-8_細線
  6
CONTINUOUS
 62
    4
 10
528.4781539198824
 20
296.19345554595361
 11
561.39786155831416
 21
263.27374790752174
  0
LINE
  8
_0-8_細線
  6
CONTINUOUS
 62
    4
 10
520.16474177505324
 20
305.92108125315792
 11
561.98985793326165
 21
264.09596509494952
  0
LINE
  8
_0-8_細線
  6
CONTINUOUS
 62
    4
 10
520.76551670944116
 20
306.73451988113572
 11
562.58185430820538
 21
264.91818228237207
  0
LINE
  8
_0-8_細線
  6
CONTINUOUS
 62
    4
 10
521.29490394096729
 20
307.61934621198441
 11
539.96518451776637
 21
288.94906563518589
  0
LINE
  8
_0-8_細線
  6
CONTINUOUS
 62
    4
 10
540.31984307650737
 20
288.5944070764458
 11
562.96943503092143
 21
265.9448151220306
  0
LINE
  8
_0-8_細線
  6
CONTINUOUS
 62
    4
 10
521.29490394096547
 20
309.03355977436138
 11
540.48282260797293
 21
289.84564110735505
  0
LINE
  8
_0-8_細線
  6
CONTINUOUS
 62
    4
 10
541.7340566388807
 20
288.59440707644637
 11
562.63250925355476
 21
267.69595446177277
  0
LINE
  8
_0-8_細線
  6
CONTINUOUS
 62
    4
 10
521.42741619765854
 20
310.31526108004334
 11
541.00046069817881
 21
290.74221657952398
  0
LINE
  8
_0-8_細線
  6
CONTINUOUS
 62
    4
 10
543.14827020125495
 20
288.59440707644751
 11
561.36256896823352
 21
270.3801083094686
  0
LINE
  8
_0-8_細線
  6
CONTINUOUS
 62
    4
 10
521.85168026636757
 20
311.30521057370163
 11
541.51809878838094
 21
291.63879205168757
  0
LINE
  8
_0-8_細線
  6
CONTINUOUS
 62
    4
 10
544.56248376362191
 20
288.59440707644637
 11
559.41524625033105
 21
273.74164458973723
  0
LINE
  8
_0-8_細線
  6
CONTINUOUS
 62
    4
 10
522.43759733234174
 20
312.13350707010227
 11
542.03573687858659
 21
292.5353675238573
  0
LINE
  8
_0-8_細線
  6
CONTINUOUS
 62
    4
 10
545.97669732599888
 20
288.59440707644524
 11
557.46792353241426
 21
277.10318087002975
  0
LINE
  8
_0-8_細線
  6
CONTINUOUS
 62
    4
 10
523.10310959698791
 20
312.88220836783057
 11
542.55337496879235
 21
293.43194299602646
  0
LINE
  8
_0-8_細線
  6
CONTINUOUS
 62
    4
 10
547.39091088837313
 20
288.59440707644615
 11
555.52060081449724
 21
280.46471715032112
  0
LINE
  8
_0-8_細線
  6
CONTINUOUS
 62
    4
 10
523.76862186163578
 20
313.63090966555853
 11
543.07101305899823
 21
294.32851846819551
  0
LINE
  8
_0-8_細線
  6
CONTINUOUS
 62
    4
 10
548.80512445074726
 20
288.59440707644728
 11
553.57327809657863
 21
283.82625343061591
  0
LINE
  8
_0-8_細線
  6
CONTINUOUS
 62
    4
 10
524.46332395338732
 20
314.3504211361726
 11
543.58865114920127
 21
295.22509394035887
  0
LINE
  8
_0-8_細線
  6
CONTINUOUS
 62
    4
 10
550.21933801311343
 20
288.59440707644637
 11
551.62595537865991
 21
287.1877897109008
  0
LINE
  8
_0-8_細線
  6
CONTINUOUS
 62
    4
 10
525.04186586526839
 20
315.1860927866669
 11
544.10628923940703
 21
296.12166941252883
  0
LINE
  8
_0-8_細線
  6
CONTINUOUS
 62
    4
 10
525.78812893351051
 20
315.85404328080062
 11
544.6239273296128
 21
297.01824488469799
  0
LINE
  8
_0-8_細線
  6
CONTINUOUS
 62
    4
 10
527.03596442972184
 20
316.02042134696308
 11
545.14156541981845
 21
297.91482035686658
  0
LINE
  8
_0-8_細線
  6
CONTINUOUS
 62
    4
 10
528.23104899403324
 20
316.23955034502774
 11
543.39033789488474
 21
301.08026144417613
  0
LINE
  8
_0-8_細線
  6
CONTINUOUS
 62
    4
 10
529.4171635947273
 20
316.46764930669963
 11
541.25330406729279
 21
304.63150883413391
  0
LINE
  8
_0-8_細線
  6
CONTINUOUS
 62
    4
 10
530.72237629629353
 20
316.57665016750843
 11
539.11627023970539
 21
308.18275622409703
  0
LINE
  8
_0-8_細線
  6
CONTINUOUS
 62
    4
 10
532.60728496463298
 20
316.10595506154414
 11
536.61100123329243
 21
312.10223879288424
  0
LINE
  8
_0-8_細線
  6
CONTINUOUS
 62
    4
 10
566.41533004513565
 20
303.88274403441403
 11
566.41533004513565
 21
318.50286226126275
  0
LINE
  8
_0-8_細線
  6
CONTINUOUS
 62
    4
 10
565.41533004513576
 20
304.09216337923328
 11
565.41533004513576
 21
318.29344291644338
  0
LINE
  8
_0-8_細線
  6
CONTINUOUS
 62
    4
 10
564.41533004513565
 20
304.45476144379984
 11
564.41533004513565
 21
317.93084485187683
  0
LINE
  8
_0-8_細線
  6
CONTINUOUS
 62
    4
 10
563.41533004513565
 20
304.99737524598106
 11
563.41533004513565
 21
317.38823104969583
  0
LINE
  8
_0-8_細線
  6
CONTINUOUS
 62
    4
 10
562.41533004513565
 20
305.773813595457
 11
562.41533004513565
 21
316.61179270021978
  0
LINE
  8
_0-8_細線
  6
CONTINUOUS
 62
    4
 10
561.41533004513576
 20
306.90939695059228
 11
561.41533004513576
 21
315.47620934508461
  0
LINE
  8
_0-8_細線
  6
CONTINUOUS
 62
    4
 10
560.41533004513565
 20
308.88419111193491
 11
560.41533004513565
 21
313.50141518374221
  0
LINE
  8
_0-8_細線
  6
CONTINUOUS
 62
    4
 10
539.87012449417443
 20
288.78441684455436
 11
561.15072011264454
 21
288.78441684455436
  0
LINE
  8
_0-8_細線
  6
CONTINUOUS
 62
    4
 10
540.44747476336443
 20
289.78441684455436
 11
560.57336984345545
 21
289.78441684455436
  0
LINE
  8
_0-8_細線
  6
CONTINUOUS
 62
    4
 10
541.02482503255442
 20
290.78441684455436
 11
559.99601957426557
 21
290.78441684455436
  0
LINE
  8
_0-8_細線
  6
CONTINUOUS
 62
    4
 10
541.60217530174339
 20
291.78441684455436
 11
559.41866930507558
 21
291.78441684455436
  0
LINE
  8
_0-8_細線
  6
CONTINUOUS
 62
    4
 10
542.17952557093349
 20
292.78441684455436
 11
558.84131903588548
 21
292.78441684455436
  0
LINE
  8
_0-8_細線
  6
CONTINUOUS
 62
    4
 10
542.75687584012258
 20
293.78441684455436
 11
558.26396876669651
 21
293.78441684455436
  0
LINE
  8
_0-8_細線
  6
CONTINUOUS
 62
    4
 10
543.33422610931245
 20
294.78441684455424
 11
557.68661849750652
 21
294.78441684455424
  0
LINE
  8
_0-8_細線
  6
CONTINUOUS
 62
    4
 10
543.91157637850245
 20
295.78441684455436
 11
557.10926822831743
 21
295.78441684455436
  0
LINE
  8
_0-8_細線
  6
CONTINUOUS
 62
    4
 10
544.48892664769244
 20
296.78441684455436
 11
556.53191795912744
 21
296.78441684455436
  0
LINE
  8
_0-8_細線
  6
CONTINUOUS
 62
    4
 10
545.06627691688163
 20
297.78441684455436
 11
555.95456768993733
 21
297.78441684455436
  0
LINE
  8
_0-8_細線
  6
CONTINUOUS
 62
    4
 10
545.64362718607072
 20
298.78441684455424
 11
555.37721742074734
 21
298.78441684455424
  0
LINE
  8
_0-8_細線
  6
CONTINUOUS
 62
    4
 10
546.22097745526071
 20
299.78441684455436
 11
554.79986715155928
 21
299.78441684455436
  0
LINE
  8
_0-8_細線
  6
CONTINUOUS
 62
    4
 10
546.79832772445059
 20
300.78441684455436
 11
554.22251688236929
 21
300.78441684455436
  0
LINE
  8
_0-8_細線
  6
CONTINUOUS
 62
    4
 10
547.37567799364058
 20
301.78441684455436
 11
553.64516661317919
 21
301.78441684455436
  0
LINE
  8
_0-8_細線
  6
CONTINUOUS
 62
    4
 10
547.95302826282978
 20
302.78441684455436
 11
553.06781634398931
 21
302.78441684455436
  0
LINE
  8
_0-8_細線
  6
CONTINUOUS
 62
    4
 10
548.53037853201874
 20
303.78441684455424
 11
552.49046607480022
 21
303.78441684455424
  0
LINE
  8
_0-8_細線
  6
CONTINUOUS
 62
    4
 10
549.10772880120874
 20
304.78441684455436
 11
551.91311580561023
 21
304.78441684455436
  0
LINE
  8
_0-8_細線
  6
CONTINUOUS
 62
    4
 10
549.68507907039884
 20
305.78441684455436
 11
551.33576553642024
 21
305.78441684455436
  0
LINE
  8
_0-8_細線
  6
CONTINUOUS
 62
    4
 10
550.26242933958883
 20
306.78441684455436
 11
550.75841526723104
 21
306.78441684455436
  0
LINE
  8
_0-8_細線
  6
CONTINUOUS
 62
    4
 10
560.41533004513565
 20
288.59440707644751
 11
560.41533004513565
 21
290.05814980486093
  0
LINE
  8
_0-8_細線
  6
CONTINUOUS
 62
    4
 10
559.41533004513565
 20
288.59440707644751
 11
559.41533004513565
 21
291.79020061242977
  0
LINE
  8
_0-8_細線
  6
CONTINUOUS
 62
    4
 10
558.41533004513565
 20
288.59440707644751
 11
558.41533004513565
 21
293.52225141999872
  0
LINE
  8
_0-8_細線
  6
CONTINUOUS
 62
    4
 10
557.41533004513576
 20
288.59440707644751
 11
557.41533004513576
 21
295.25430222756734
  0
LINE
  8
_0-8_細線
  6
CONTINUOUS
 62
    4
 10
556.41533004513576
 20
288.59440707644751
 11
556.41533004513576
 21
296.98635303513618
  0
LINE
  8
_0-8_細線
  6
CONTINUOUS
 62
    4
 10
555.41533004513565
 20
288.59440707644751
 11
555.41533004513565
 21
298.71840384270502
  0
LINE
  8
_0-8_細線
  6
CONTINUOUS
 62
    4
 10
554.41533004513565
 20
288.59440707644751
 11
554.41533004513565
 21
300.45045465027374
  0
LINE
  8
_0-8_細線
  6
CONTINUOUS
 62
    4
 10
553.41533004513565
 20
288.59440707644751
 11
553.41533004513565
 21
302.18250545784258
  0
LINE
  8
_0-8_細線
  6
CONTINUOUS
 62
    4
 10
552.41533004513576
 20
288.59440707644751
 11
552.41533004513576
 21
303.91455626541131
  0
LINE
  8
_0-8_細線
  6
CONTINUOUS
 62
    4
 10
551.41533004513565
 20
288.59440707644751
 11
551.41533004513565
 21
305.64660707298015
  0
LINE
  8
_0-8_細線
  6
CONTINUOUS
 62
    4
 10
550.41533004513565
 20
288.59440707644751
 11
550.41533004513565
 21
307.04924863507597
  0
LINE
  8
_0-8_細線
  6
CONTINUOUS
 62
    4
 10
549.41533004513565
 20
288.59440707644751
 11
549.41533004513565
 21
305.31719782750713
  0
LINE
  8
_0-8_細線
  6
CONTINUOUS
 62
    4
 10
548.41533004513576
 20
288.59440707644751
 11
548.41533004513576
 21
303.58514701993806
  0
LINE
  8
_0-8_細線
  6
CONTINUOUS
 62
    4
 10
547.41533004513565
 20
288.59440707644751
 11
547.41533004513565
 21
301.85309621236945
  0
LINE
  8
_0-8_細線
  6
CONTINUOUS
 62
    4
 10
546.41533004513565
 20
288.59440707644751
 11
546.41533004513565
 21
300.1210454048005
  0
LINE
  8
_0-8_細線
  6
CONTINUOUS
 62
    4
 10
545.41533004513565
 20
288.59440707644751
 11
545.41533004513565
 21
298.38899459723166
  0
LINE
  8
_0-8_細線
  6
CONTINUOUS
 62
    4
 10
544.41533004513576
 20
288.59440707644751
 11
544.41533004513576
 21
296.65694378966282
  0
LINE
  8
_0-8_細線
  6
CONTINUOUS
 62
    4
 10
543.41533004513565
 20
288.59440707644751
 11
543.41533004513565
 21
294.92489298209398
  0
LINE
  8
_0-8_細線
  6
CONTINUOUS
 62
    4
 10
542.41533004513565
 20
288.59440707644751
 11
542.41533004513565
 21
293.19284217452525
  0
LINE
  8
_0-8_細線
  6
CONTINUOUS
 62
    4
 10
541.41533004513565
 20
288.59440707644751
 11
541.41533004513565
 21
291.46079136695641
  0
LINE
  8
_0-8_細線
  6
CONTINUOUS
 62
    4
 10
540.41533004513576
 20
288.59440707644751
 11
540.41533004513576
 21
289.72874055938746
  0
LINE
  8
_0-7_図面枠
  6
CONTINUOUS
 62
    7
 10
1195.4201415796176
 20
299.52695809074237
 11
1195.4201415796176
 21
243.27695809636782
  0
LINE
  8
_0-7_図面枠
  6
CONTINUOUS
 62
    7
 10
1270.4201415796176
 20
299.52695809074237
 11
1270.4201415796176
 21
243.27695809636782
  0
LINE
  8
_0-7_図面枠
  6
CONTINUOUS
 62
    7
 10
1420.4201415796165
 20
284.52695809074248
 11
1095.4201415796176
 21
284.52695809074248
  0
LINE
  8
_0-7_図面枠
  6
CONTINUOUS
 62
    7
 10
1320.4201415796176
 20
333.27695808736735
 11
1320.4201415796176
 21
243.27695809636782
  0
LINE
  8
_0-7_図面枠
  6
CONTINUOUS
 62
    7
 10
1370.4201415796176
 20
333.27695808736735
 11
1370.4201415796176
 21
243.27695809636782
  0
LINE
  8
_0-7_図面枠
  6
CONTINUOUS
 62
    7
 10
1420.4201415796165
 20
316.40195808905492
 11
1370.4201415796176
 21
316.40195808905492
  0
LINE
  8
_0-7_図面枠
  6
CONTINUOUS
 62
    7
 10
1420.4201415796165
 20
299.52695809074237
 11
1095.4201415796176
 21
299.52695809074237
  0
CIRCLE
  8
_0-9__0-0_
  6
CONTINUOUS
 62
    2
 10
1332.9201415796176
 20
316.40195808905492
 40
10
  0
CIRCLE
  8
_0-9__0-0_
  6
CONTINUOUS
 62
    2
 10
1332.9201415796176
 20
316.40195808905492
 40
5
  0
LINE
  8
_0-4_中心線
  6
CONTINUOUS
 62
    3
 10
1332.9201415796176
 20
328.90195808905492
 11
1332.9201415796176
 21
303.90195808905492
  0
LINE
  8
_0-9__0-0_
  6
CONTINUOUS
 62
    2
 10
1347.9201415796176
 20
321.4019580890548
 11
1365.4201415796176
 21
326.4019580890548
  0
LINE
  8
_0-9__0-0_
  6
CONTINUOUS
 62
    2
 10
1365.4201415796176
 20
326.4019580890548
 11
1365.4201415796176
 21
306.40195808905492
  0
LINE
  8
_0-9__0-0_
  6
CONTINUOUS
 62
    2
 10
1347.9201415796176
 20
311.40195808905492
 11
1365.4201415796176
 21
306.40195808905492
  0
LINE
  8
_0-9__0-0_
  6
CONTINUOUS
 62
    2
 10
1347.9201415796176
 20
321.4019580890548
 11
1347.9201415796176
 21
311.40195808905492
  0
LINE
  8
_0-4_中心線
  6
CONTINUOUS
 62
    3
 10
1320.4201415796176
 20
316.40195808905492
 11
1367.9201415796176
 21
316.40195808905492
  0
LINE
  8
_0-7_図面枠
  6
CONTINUOUS
 62
    7
 10
1095.4201415796176
 20
288.27695809186764
 11
758.18735682491069
 21
288.27695809186764
  0
LINE
  8
_0-7_図面枠
  6
CONTINUOUS
 62
    7
 10
758.18735682491069
 20
243.27695809636782
 11
758.18735682491069
 21
333.27695808736735
  0
TEXT
  8
_0-a_文字
 62
    7
 10
763.18735682491069
 20
321.20768994718219
 40
10
 41
1
 50
0
  1
品番
  0
TEXT
  8
_0-a_文字
 62
    7
 10
763.18735682491069
 20
276.22698510873226
 40
10
 41
1
 50
0
  1
名称
  0
TEXT
  8
_0-a_文字
 62
    7
 10
1334.6238285770805
 20
286.76567304971934
 40
10
 41
1
 50
0
  1
検図
  0
LINE
  8
_0-7_図面枠
  6
CONTINUOUS
 62
    7
 10
458.18735682491069
 20
333.27695808736735
 11
458.18735682491069
 21
243.27695809636782
  0
TEXT
  8
_0-a_文字
 62
    7
 10
1384.7534749129507
 20
319.83945808821113
 40
10
 41
1
 50
0
  1
単位
  0
TEXT
  8
_0-a_文字
 62
    7
 10
1381.1344272939025
 20
304.63112475656533
 40
10
 41
1
 50
0
  1
mm
  0
TEXT
  8
_0-a_文字
 62
    7
 10
1206.4439511034266
 20
258.90195809355509
 40
10
 41
1
 50
0
  1
S=1：5
  0
TEXT
  8
_0-a_文字
 62
    7
 10
1112.0868082462837
 20
258.90195809355509
 40
10
 41
1
 50
0
  1
08.06.05
  0
TEXT
  8
_0-a_文字
 62
    7
 10
1285.0868082462837
 20
258.90195809355509
 40
10
 41
1
 50
0
  1
竹内
  0
TEXT
  8
_0-a_文字
 62
    7
 10
1134.0868082462837
 20
287.02695809074237
 40
10
 41
1
 50
0
  1
日付
  0
TEXT
  8
_0-a_文字
 62
    7
 10
1210.0629987224745
 20
287.02695809074237
 40
10
 41
1
 50
0
  1
SCALE
  0
TEXT
  8
_0-a_文字
 62
    7
 10
1285.0868082462837
 20
287.02695809074237
 40
10
 41
1
 50
0
  1
製図
  0
TEXT
  8
_0-a_文字
 62
    7
 10
853.9466063451207
 20
300.77695808961755
 40
20
 41
1
 50
0
  1
P-600-9
  0
TEXT
  8
_0-a_文字
 62
    7
 10
844.13708253559685
 20
255.1102914274511
 40
20
 41
1
 50
0
  1
コーリーボール
  0
LINE
  8
_0-7_図面枠
  6
CONTINUOUS
 62
    7
 10
1420.4201415796165
 20
243.27695809636782
 11
1420.4201415796165
 21
1205.5097428510744
  0
TEXT
  8
_0-3_寸法線
 62
    7
 10
539.31935196072413
 20
1018.0306227755112
 40
12
 41
1
 50
-25.882039699999993
  1
φ63
  0
TEXT
  8
_0-3_寸法線
 62
    7
 10
658.81160503961462
 20
1002.2759306827505
 40
12
 41
1
 50
29.312546600000029
  1
φ47
  0
LINE
  8
_0-3_寸法線
  6
CONTINUOUS
 62
    1
 10
214.00108133025492
 20
1107.4988859215873
 11
214.00108133025492
 21
709.49892713093891
  0
LINE
  8
_0-3_寸法線
  6
CONTINUOUS
 62
    1
 10
252.7898359715283
 20
720.49892686052738
 11
252.78983597152842
 21
1096.4989268605275
  0
LINE
  8
_0-2_0
  6
CONTINUOUS
 62
    7
 10
217.21647161025498
 20
709.49892713093891
 11
214.00108133025492
 21
697.49892713093891
  0
LINE
  8
_0-2_0
  6
CONTINUOUS
 62
    7
 10
214.00108133025492
 20
697.49892713093891
 11
210.78569105025485
 21
709.49892713093891
  0
LINE
  8
_0-2_0
  6
CONTINUOUS
 62
    7
 10
214.00108133025492
 20
697.49892713093891
 11
214.00108133025492
 21
709.49892713093891
  0
LINE
  8
_0-2_0
  6
CONTINUOUS
 62
    7
 10
210.78569105025508
 20
1107.4988859215873
 11
214.00108133025492
 21
1119.4988859215871
  0
LINE
  8
_0-2_0
  6
CONTINUOUS
 62
    7
 10
214.00108133025492
 20
1119.4988859215871
 11
217.21647161025498
 21
1107.4988859215873
  0
LINE
  8
_0-2_0
  6
CONTINUOUS
 62
    7
 10
214.00108133025492
 20
1119.4988859215871
 11
214.00108133025492
 21
1107.4988859215873
  0
LINE
  8
_0-2_0
  6
CONTINUOUS
 62
    7
 10
249.57444569152835
 20
1096.4989268605275
 11
252.78983597152842
 21
1108.4989268605273
  0
LINE
  8
_0-2_0
  6
CONTINUOUS
 62
    7
 10
252.78983597152842
 20
1108.4989268605273
 11
256.00522625152837
 21
1096.4989268605275
  0
LINE
  8
_0-2_0
  6
CONTINUOUS
 62
    7
 10
252.78983597152842
 20
1108.4989268605273
 11
252.78983597152842
 21
1096.4989268605275
  0
LINE
  8
_0-2_0
  6
CONTINUOUS
 62
    7
 10
256.00522625152837
 20
720.49892686052738
 11
252.7898359715283
 21
708.49892686052738
  0
LINE
  8
_0-2_0
  6
CONTINUOUS
 62
    7
 10
252.7898359715283
 20
708.49892686052738
 11
249.57444569152835
 21
720.49892686052738
  0
LINE
  8
_0-2_0
  6
CONTINUOUS
 62
    7
 10
252.7898359715283
 20
708.49892686052738
 11
252.7898359715283
 21
720.49892686052738
  0
LINE
  8
_0-3_寸法線
  6
CONTINUOUS
 62
    1
 10
412.34570874437782
 20
697.49892713093891
 11
214.00108133025492
 21
697.49892713093891
  0
LINE
  8
_0-3_寸法線
  6
CONTINUOUS
 62
    1
 10
412.34570479627132
 20
708.49892686052726
 11
252.7898359715283
 21
708.49892686052738
  0
LINE
  8
_0-3_寸法線
  6
CONTINUOUS
 62
    1
 10
318.34570874437782
 20
814.49892713093902
 11
318.34570874437782
 21
1162.4646654365079
  0
LINE
  8
_0-3_寸法線
  6
CONTINUOUS
 62
    1
 10
307.34570874437782
 20
814.49892713093902
 11
307.34570874437782
 21
1189.946167862679
  0
LINE
  8
_0-3_寸法線
  6
CONTINUOUS
 62
    1
 10
612.34582686658382
 20
1108.4989268605273
 11
252.78983597152842
 21
1108.4989268605273
  0
LINE
  8
_0-3_寸法線
  6
CONTINUOUS
 62
    1
 10
612.50580938536837
 20
1119.4988859215871
 11
214.00108133025492
 21
1119.4988859215871
  0
LINE
  8
_0-3_寸法線
  6
CONTINUOUS
 62
    1
 10
330.34570874437782
 20
1162.4646654365079
 11
906.34570874437782
 21
1162.4646654365079
  0
LINE
  8
_0-3_寸法線
  6
CONTINUOUS
 62
    1
 10
319.34570874437782
 20
1189.946167862679
 11
917.3457087443777
 21
1189.946167862679
  0
LINE
  8
_0-3_寸法線
  6
CONTINUOUS
 62
    1
 10
918.34570874437793
 20
814.49892713093902
 11
918.34570874437793
 21
1162.4646654365079
  0
LINE
  8
_0-3_寸法線
  6
CONTINUOUS
 62
    1
 10
929.34570874437782
 20
814.49892713093891
 11
929.34570874437782
 21
1189.946167862679
  0
LINE
  8
_0-3_寸法線
  6
CONTINUOUS
 62
    1
 10
1042.6794450306465
 20
1123.8164317433398
 11
1042.6794450306465
 21
1148.2573183467534
  0
LINE
  8
_0-3_寸法線
  6
CONTINUOUS
 62
    1
 10
1054.6794450306456
 20
1148.2573183467534
 11
1145.6793839954896
 21
1148.2573183467534
  0
LINE
  8
_0-2_0
  6
CONTINUOUS
 62
    7
 10
1145.6793839954896
 20
1151.4727086267535
 11
1157.6793839954896
 21
1148.2573183467534
  0
LINE
  8
_0-2_0
  6
CONTINUOUS
 62
    7
 10
1157.6793839954896
 20
1148.2573183467534
 11
1145.6793839954896
 21
1145.0419280667538
  0
LINE
  8
_0-2_0
  6
CONTINUOUS
 62
    7
 10
1157.6793839954896
 20
1148.2573183467534
 11
1145.6793839954896
 21
1148.2573183467534
  0
LINE
  8
_0-2_0
  6
CONTINUOUS
 62
    7
 10
1054.6794450306456
 20
1145.0419280667538
 11
1042.6794450306465
 21
1148.2573183467534
  0
LINE
  8
_0-2_0
  6
CONTINUOUS
 62
    7
 10
1042.6794450306465
 20
1148.2573183467534
 11
1054.6794450306456
 21
1151.4727086267535
  0
LINE
  8
_0-2_0
  6
CONTINUOUS
 62
    7
 10
1042.6794450306465
 20
1148.2573183467534
 11
1054.6794450306456
 21
1148.2573183467534
  0
LINE
  8
_0-3_寸法線
  6
CONTINUOUS
 62
    1
 10
1157.6793839954896
 20
1011.9991263229664
 11
1157.6793839954896
 21
1148.2573183467534
  0
LINE
  8
_0-3_寸法線
  6
CONTINUOUS
 62
    1
 10
258.55375303764254
 20
531.25748847355101
 11
258.55375303764254
 21
424.77845772059538
  0
LINE
  8
_0-3_寸法線
  6
CONTINUOUS
 62
    1
 10
283.17412882613985
 20
440.25748847355067
 11
283.17412882613985
 21
531.25748847355101
  0
LINE
  8
_0-2_0
  6
CONTINUOUS
 62
    7
 10
261.7691433176426
 20
424.77845772059538
 11
258.55375303764254
 21
412.77845772059538
  0
LINE
  8
_0-2_0
  6
CONTINUOUS
 62
    7
 10
258.55375303764254
 20
412.77845772059538
 11
255.33836275764247
 21
424.77845772059538
  0
LINE
  8
_0-2_0
  6
CONTINUOUS
 62
    7
 10
258.55375303764254
 20
412.77845772059538
 11
258.55375303764254
 21
424.77845772059538
  0
LINE
  8
_0-2_0
  6
CONTINUOUS
 62
    7
 10
255.33836275764247
 20
531.25748847355101
 11
258.55375303764254
 21
543.25748847355101
  0
LINE
  8
_0-2_0
  6
CONTINUOUS
 62
    7
 10
258.55375303764254
 20
543.25748847355101
 11
261.7691433176426
 21
531.25748847355101
  0
LINE
  8
_0-2_0
  6
CONTINUOUS
 62
    7
 10
258.55375303764254
 20
543.25748847355101
 11
258.55375303764254
 21
531.25748847355101
  0
LINE
  8
_0-2_0
  6
CONTINUOUS
 62
    7
 10
279.9587385461399
 20
531.25748847355101
 11
283.17412882613985
 21
543.25748847355101
  0
LINE
  8
_0-2_0
  6
CONTINUOUS
 62
    7
 10
283.17412882613985
 20
543.25748847355101
 11
286.38951910613991
 21
531.25748847355101
  0
LINE
  8
_0-2_0
  6
CONTINUOUS
 62
    7
 10
283.17412882613985
 20
543.25748847355101
 11
283.17412882613985
 21
531.25748847355101
  0
LINE
  8
_0-2_0
  6
CONTINUOUS
 62
    7
 10
286.38951910613991
 20
440.25748847355067
 11
283.17412882613985
 21
428.25748847355067
  0
LINE
  8
_0-2_0
  6
CONTINUOUS
 62
    7
 10
283.17412882613985
 20
428.25748847355067
 11
279.9587385461399
 21
440.25748847355067
  0
LINE
  8
_0-2_0
  6
CONTINUOUS
 62
    7
 10
283.17412882613985
 20
428.25748847355067
 11
283.17412882613985
 21
440.25748847355067
  0
LINE
  8
_0-3_寸法線
  6
CONTINUOUS
 62
    1
 10
589.00580938536882
 20
412.77845772059527
 11
258.55375303764254
 21
412.77845772059538
  0
LINE
  8
_0-3_寸法線
  6
CONTINUOUS
 62
    1
 10
581.50580938536916
 20
428.25748847355055
 11
283.17412882613985
 21
428.25748847355067
  0
LINE
  8
_0-3_寸法線
  6
CONTINUOUS
 62
    1
 10
303.63398269809909
 20
543.25748847355101
 11
258.55375303764254
 21
543.25748847355101
  0
ENDSEC
  0
EOF
