  0
SECTION
  2
HEADER
  9
$ACADVER
  1
AC1009
  9
$INSBASE
 10
0
 20
0
 30
0
  9
$EXTMIN
 10
0
 20
0
  9
$EXTMAX
 10
840
 20
594
  9
$LIMMIN
 10
0
 20
0
  9
$LIMMAX
 10
840
 20
594
  9
$LTSCALE
 40
2
  0
ENDSEC
  0
SECTION
  2
TABLES
  0
TABLE
  2
LTYPE
 70
     9
  0
LTYPE
  2
CONTINUOUS
 70
    64
  3
実線
 72
    65
 73
     0
 40
0.0
  0
LTYPE
  2
DASHED1
 70
    64
  3
--  --  --  --  --  --  --  --  
 72
    65
 73
     2
 40
2.5
 49
1.25
 49
-1.25
  0
LTYPE
  2
DASHED2
 70
    64
  3
----    ----    ----    ----    
 72
    65
 73
     2
 40
5.0
 49
2.5
 49
-2.5
  0
LTYPE
  2
DASHED3
 70
    64
  3
------  ------  ------  ------  
 72
    65
 73
     2
 40
5.0
 49
3.75
 49
-1.25
  0
LTYPE
  2
CENTER1
 70
    64
  3
----- - ----- - ----- - ----- - 
 72
    65
 73
     4
 40
10.0
 49
6.25
 49
-1.25
 49
1.25
 49
-1.25
  0
LTYPE
  2
CENTER2
 70
    64
  3
----------  --  ----------  --  
 72
    65
 73
     4
 40
20.0
 49
12.5
 49
-2.5
 49
2.5
 49
-2.5
  0
LTYPE
  2
PHANTOM1
 70
    64
  3
--- - - --- - - --- - - --- - - 
 72
    65
 73
     6
 40
10.0
 49
3.25
 49
-1.25
 49
1.25
 49
-1.25
 49
1.25
 49
-1.25
  0
LTYPE
  2
PHANTOM2
 70
    64
  3
--------  -  -  --------  -  -  
 72
    65
 73
     6
 40
20.0
 49
10.0
 49
-2.5
 49
1.25
 49
-2.5
 49
1.25
 49
-2.5
  0
LTYPE
  2
DOT
 70
    64
  3
-   -   -   -   -   -   -   -   
 72
    65
 73
     2
 40
2.5
 49
0.625
 49
-1.875
  0
LTYPE
  2
DUMMY
 70
    64
  3
ダミー
 72
    65
 73
     0
 40
0.0
  0
LTYPE
  2
RAND1
 70
    64
  3
ランダム線1
 72
    65
 73
     4
 40
10.0
 49
1.0
 49
-2.0
 49
3.0
 49
-4.0
  0
LTYPE
  2
RAND2
 70
    64
  3
ランダム線2
 72
    65
 73
     4
 40
14.0
 49
2.0
 49
-3.0
 49
4.0
 49
-5.0
  0
LTYPE
  2
RAND3
 70
    64
  3
ランダム線3
 72
    65
 73
     4
 40
18.0
 49
3.0
 49
-4.0
 49
5.0
 49
-6.0
  0
LTYPE
  2
RAND4
 70
    64
  3
ランダム線4
 72
    65
 73
     4
 40
22.0
 49
4.0
 49
-5.0
 49
6.0
 49
-7.0
  0
LTYPE
  2
RAND5
 70
    64
  3
ランダム線5
 72
    65
 73
     4
 40
26.0
 49
5.0
 49
-6.0
 49
7.0
 49
-8.0
  0
LTYPE
  2
LONG1
 70
    64
  3
----------  --  ----------  --  
 72
    65
 73
     4
 40
40.0
 49
32.5
 49
-2.5
 49
2.5
 49
-2.5
  0
LTYPE
  2
LONG2
 70
    64
  3
--------  -  -  --------  -  -  
 72
    65
 73
     6
 40
40.0
 49
30.0
 49
-2.5
 49
1.25
 49
-2.5
 49
1.25
 49
-2.5
  0
LTYPE
  2
LONG3
 70
    64
  3
+++++++++++++++..+++++++++++++++
 72
    65
 73
     2
 40
40.0
 49
37.5
 49
-2.5
  0
LTYPE
  2
LONG4
 70
    64
  3
+++++++++++++++..+++++++++++++++
 72
    65
 73
     2
 40
80.0
 49
75.0
 49
-5.0
  0
LTYPE
  2
LONG5
 70
    64
  3
----------  --  ----------  --  
 72
    65
 73
     4
 40
60.0
 49
37.5
 49
-7.5
 49
7.5
 49
-7.5
  0
LTYPE
  2
dashed
 70
   64
  3
-------   -------------   ------
 72
   65
 73
    2
 40
7.5
 49
6
 49
-1.5
  0
LTYPE
  2
dashed_spaced
 70
   64
  3
----        --------        ----
 72
   65
 73
    2
 40
12
 49
6
 49
-6
  0
LTYPE
  2
long_dashed_dotted
 70
   64
  3
------------- --- --------------
 72
   65
 73
    4
 40
15.25
 49
12
 49
-1.5
 49
0.25
 49
-1.5
  0
LTYPE
  2
long_dashed_double-dotted
 70
   64
  3
----------- --- --- ------------
 72
   65
 73
    6
 40
17
 49
12
 49
-1.5
 49
0.25
 49
-1.5
 49
0.25
 49
-1.5
  0
LTYPE
  2
long_dashed_triplicate-dotted
 70
   64
  3
--------- --- --- --- ----------
 72
   65
 73
    8
 40
18.75
 49
12
 49
-1.5
 49
0.25
 49
-1.5
 49
0.25
 49
-1.5
 49
0.25
 49
-1.5
  0
LTYPE
  2
dotted
 70
   64
  3
   -       -       -       -    
 72
   65
 73
    2
 40
1.75
 49
0.25
 49
-1.5
  0
LTYPE
  2
chain
 70
   64
  3
-------------- -- --------------
 72
   65
 73
    4
 40
18.5
 49
12
 49
-1.5
 49
3.5
 49
-1.5
  0
LTYPE
  2
chain_double_dash
 70
   64
  3
------------ -- -- -------------
 72
   65
 73
    6
 40
23.5
 49
12
 49
-1.5
 49
3.5
 49
-1.5
 49
3.5
 49
-1.5
  0
LTYPE
  2
dashed_dotted
 70
   64
  3
-----------     -     ----------
 72
   65
 73
    4
 40
9.25
 49
6
 49
-1.5
 49
0.25
 49
-1.5
  0
LTYPE
  2
double-dashed_dotted
 70
   64
  3
------   -----------   -   -----
 72
   65
 73
    6
 40
16.75
 49
6
 49
-1.5
 49
6
 49
-1.5
 49
0.25
 49
-1.5
  0
LTYPE
  2
dashed_double-dotted
 70
   64
  3
---------    -    -    ---------
 72
   65
 73
    6
 40
11
 49
6
 49
-1.5
 49
0.25
 49
-1.5
 49
0.25
 49
-1.5
  0
LTYPE
  2
double-dashed_double-dotted
 70
   64
  3
-----   ---------   -   -   ----
 72
   65
 73
    8
 40
18.5
 49
6
 49
-1.5
 49
6
 49
-1.5
 49
0.25
 49
-1.5
 49
0.25
 49
-1.5
  0
LTYPE
  2
dashed_triplicate-dotted
 70
   64
  3
-------    -    -    -    ------
 72
   65
 73
    8
 40
12.75
 49
6
 49
-1.5
 49
0.25
 49
-1.5
 49
0.25
 49
-1.5
 49
0.25
 49
-1.5
  0
LTYPE
  2
double-dashed_triplicate-dotted
 70
   64
  3
-----  ---------  -  -  -  -----
 72
   65
 73
   10
 40
20.25
 49
6
 49
-1.5
 49
6
 49
-1.5
 49
0.25
 49
-1.5
 49
0.25
 49
-1.5
 49
0.25
 49
-1.5
  0
LTYPE
  2
undefined
 70
   64
  3
--------------------------------
 72
   65
 73
    0
 40
0
  0
LTYPE
  2
CENTER
 70
   64
  3
----------    ----    ----------
 72
   65
 73
    4
 40
50.799999999999983
 49
31.75
 49
-6.3499999999999979
 49
6.3499999999999979
 49
-6.3499999999999979
  0
LTYPE
  2
HIDDEN
 70
   64
  3
------     -----------     -----
 72
   65
 73
    2
 40
9.524999999999995
 49
6.3499999999999979
 49
-3.174999999999998
  0
LTYPE
  2
CENTER2_19
 70
   64
  3
----------    ----    ----------
 72
   65
 73
    4
 40
28.574999999999996
 49
19.050000000000001
 49
-3.1749999999999989
 49
3.1749999999999989
 49
-3.1749999999999989
  0
LTYPE
  2
DASHED
 70
   64
  3
------     -----------     -----
 72
   65
 73
    2
 40
19.049999999999997
 49
12.699999999999999
 49
-6.3499999999999988
  0
LTYPE
  2
DASH_CENTER
 70
   64
  3
-------------  --  -------------
 72
   65
 73
    4
 40
14
 49
11
 49
-1
 49
1
 49
-1
  0
LTYPE
  2
PHANTOM
 70
   64
  3
------------  -  -  ------------
 72
   65
 73
    6
 40
13.02
 49
10
 49
-1
 49
0.01
 49
-1
 49
0.01
 49
-1
  0
ENDTAB
  0
TABLE
  2
STYLE
  5
3
100
AcDbSymbolTable
 70
     1
  0
STYLE
  5
10
100
AcDbSymbolTableRecord
100
AcDbTextStyleTableRecord
  2
STANDARD
 70
     0
 40
0.0
 41
1.0
 50
0.0
 71
     0
 42
0.2
  3
txt
  4
bigfont.shx
  0
STYLE
  5
26
100
AcDbSymbolTableRecord
100
AcDbTextStyleTableRecord
  2
TATEGAKI
 70
    68
 40
0.0
 41
1.0
 50
0.0
 71
     0
 42
1.0
  3
txt
  4
bigfont.shx
  0
ENDTAB
  0
TABLE
  2
LAYER
 70
   10
  0
LAYER
  2
_0-1_1
 70
   64
 62
    7
  6
CONTINUOUS
  0
LAYER
  2
_0-2_0
 70
   64
 62
    7
  6
CONTINUOUS
  0
LAYER
  2
_0-3_寸法線
 70
   64
 62
    7
  6
CONTINUOUS
  0
LAYER
  2
_0-4_中心線
 70
   64
 62
    7
  6
CONTINUOUS
  0
LAYER
  2
_0-5_DEFPOINTS
 70
   64
 62
    7
  6
CONTINUOUS
  0
LAYER
  2
_0-6_図面枠
 70
   64
 62
    7
  6
CONTINUOUS
  0
LAYER
  2
_0-7_細線
 70
   64
 62
    7
  6
CONTINUOUS
  0
LAYER
  2
_0-8__0-0_
 70
   64
 62
    7
  6
CONTINUOUS
  0
LAYER
  2
_0-9_文字
 70
   64
 62
    7
  6
CONTINUOUS
  0
LAYER
  2
ADD_LINE
 70
   64
 62
    7
  6
CONTINUOUS
  0
ENDTAB
  0
ENDSEC
  0
SECTION
  2
BLOCKS
  0
ENDSEC
  0
SECTION
  2
ENTITIES
  0
LINE
  8
_0-5_DEFPOINTS
  6
CONTINUOUS
 62
    2
 10
105
 20
-148.5
 11
735
 21
-148.5
  0
LINE
  8
_0-5_DEFPOINTS
  6
CONTINUOUS
 62
    2
 10
735
 20
-148.5
 11
735
 21
742.5
  0
LINE
  8
_0-5_DEFPOINTS
  6
CONTINUOUS
 62
    2
 10
735
 20
742.5
 11
105
 21
742.5
  0
LINE
  8
_0-5_DEFPOINTS
  6
CONTINUOUS
 62
    2
 10
105
 20
742.5
 11
105
 21
-148.5
  0
LINE
  8
_0-6_図面枠
  6
CONTINUOUS
 62
    3
 10
708.66983542641151
 20
712.74731732608245
 11
708.66983542641151
 21
-118.74731732608262
  0
LINE
  8
_0-6_図面枠
  6
CONTINUOUS
 62
    3
 10
131.33016457358804
 20
712.74731732608245
 11
708.66983542641151
 21
712.74731732608245
  0
LINE
  8
_0-6_図面枠
  6
CONTINUOUS
 62
    3
 10
708.66983542641151
 20
-118.74731732608262
 11
131.33016457358804
 21
-118.74731732608262
  0
LINE
  8
_0-6_図面枠
  6
CONTINUOUS
 62
    3
 10
513.66983542641231
 20
-64.747317331482634
 11
513.66983542641231
 21
-118.74731732608262
  0
LINE
  8
_0-6_図面枠
  6
CONTINUOUS
 62
    3
 10
708.66983542641151
 20
-64.747317331482975
 11
131.33016457358804
 21
-64.747317331482975
  0
LINE
  8
_0-7_細線
  6
CONTINUOUS
 62
    4
 10
166.23348796671894
 20
-108.30453085963217
 11
178.84503737331283
 21
-108.30453085963217
  0
LINE
  8
_0-7_細線
  6
CONTINUOUS
 62
    4
 10
178.84503737331283
 20
-108.30453085963217
 11
178.84503737331283
 21
-95.675223227406434
  0
LINE
  8
_0-7_細線
  6
CONTINUOUS
 62
    4
 10
166.23348796671894
 20
-95.675223227406434
 11
166.23348796671894
 21
-108.30453085963217
  0
LINE
  8
_0-7_細線
  6
CONTINUOUS
 62
    4
 10
178.84503737331283
 20
-95.675223227406434
 11
166.23348796671894
 21
-95.675223227406434
  0
LINE
  8
_0-7_細線
  6
CONTINUOUS
 62
    4
 10
180.27400386068825
 20
-91.55684793803465
 11
186.72400386068762
 21
-80.385120229215829
  0
LINE
  8
_0-7_細線
  6
CONTINUOUS
 62
    4
 10
180.27400386068825
 20
-91.55684793803465
 11
193.17400386068834
 21
-91.55684793803465
  0
LINE
  8
_0-7_細線
  6
CONTINUOUS
 62
    4
 10
186.72400386068762
 20
-80.385120229215829
 11
193.17400386068834
 21
-91.55684793803465
  0
CIRCLE
  8
_0-7_細線
  6
CONTINUOUS
 62
    4
 10
196.87231224119819
 20
-77.997810295200281
 40
4.4276147505487149
  0
LINE
  8
_0-7_細線
  6
CONTINUOUS
 62
    4
 10
205.7726999335498
 20
-101.71503037309395
 11
211.2094948400852
 21
-101.71503037309395
  0
LINE
  8
_0-7_細線
  6
CONTINUOUS
 62
    4
 10
212.6084178145509
 20
-104.71503037309384
 11
214.42701768135538
 21
-108.61503037309404
  0
LINE
  8
_0-7_細線
  6
CONTINUOUS
 62
    4
 10
204.37377695908413
 20
-104.71503037309384
 11
202.55517709228002
 21
-108.61503037309404
  0
LINE
  8
_0-7_細線
  6
CONTINUOUS
 62
    4
 10
208.4910973868175
 20
-95.885408221864566
 11
211.2094948400852
 21
-101.71503037309395
  0
LINE
  8
_0-7_細線
  6
CONTINUOUS
 62
    4
 10
208.4910973868175
 20
-95.885408221864566
 11
205.7726999335498
 21
-101.71503037309395
  0
LINE
  8
_0-7_細線
  6
CONTINUOUS
 62
    4
 10
206.70615793847242
 20
-91.349646231544114
 11
198.65517709227947
 21
-108.61503037309404
  0
LINE
  8
_0-7_細線
  6
CONTINUOUS
 62
    4
 10
230.23477630575849
 20
-94.349646231544114
 11
230.4592183305183
 21
-94.472816465822632
  0
LINE
  8
_0-7_細線
  6
CONTINUOUS
 62
    4
 10
230.4592183305183
 20
-94.472816465822632
 11
230.84200768891219
 21
-94.688005064066658
  0
LINE
  8
_0-7_細線
  6
CONTINUOUS
 62
    4
 10
230.84200768891219
 20
-94.688005064066658
 11
231.21318690893639
 21
-94.911044010508306
  0
LINE
  8
_0-7_細線
  6
CONTINUOUS
 62
    4
 10
231.21318690893639
 20
-94.911044010508306
 11
231.5654078017476
 21
-95.146901879954783
  0
LINE
  8
_0-7_細線
  6
CONTINUOUS
 62
    4
 10
231.5654078017476
 20
-95.146901879954783
 11
231.8913221785067
 21
-95.400547247215002
  0
LINE
  8
_0-7_細線
  6
CONTINUOUS
 62
    4
 10
231.8913221785067
 20
-95.400547247215002
 11
232.1835818503703
 21
-95.67694868709674
  0
LINE
  8
_0-7_細線
  6
CONTINUOUS
 62
    4
 10
232.1835818503703
 20
-95.67694868709674
 11
232.33477630575788
 21
-95.849646231544114
  0
LINE
  8
_0-7_細線
  6
CONTINUOUS
 62
    4
 10
232.33477630575788
 20
-95.849646231544114
 11
232.550622217457
 21
-96.154249820867733
  0
LINE
  8
_0-7_細線
  6
CONTINUOUS
 62
    4
 10
232.550622217457
 20
-96.154249820867733
 11
232.8369889297239
 21
-96.736783669414592
  0
LINE
  8
_0-7_細線
  6
CONTINUOUS
 62
    4
 10
232.8369889297239
 20
-96.736783669414592
 11
233.03029924987709
 21
-97.380441640236938
  0
LINE
  8
_0-7_細線
  6
CONTINUOUS
 62
    4
 10
233.03029924987709
 20
-97.380441640236938
 11
233.14860861150939
 21
-98.071877855109562
  0
LINE
  8
_0-7_細線
  6
CONTINUOUS
 62
    4
 10
233.14860861150939
 20
-98.071877855109562
 11
233.209972448212
 21
-98.797746435805209
  0
LINE
  8
_0-7_細線
  6
CONTINUOUS
 62
    4
 10
233.209972448212
 20
-98.797746435805209
 11
233.2324461935784
 21
-99.544701504098441
  0
LINE
  8
_0-7_細線
  6
CONTINUOUS
 62
    4
 10
233.2324461935784
 20
-99.544701504098441
 11
233.23477630575849
 21
-99.982338302318965
  0
LINE
  8
_0-7_細線
  6
CONTINUOUS
 62
    4
 10
233.23477630575849
 20
-99.982338302318965
 11
233.2324461935784
 21
-100.41997510053938
  0
LINE
  8
_0-7_細線
  6
CONTINUOUS
 62
    4
 10
233.2324461935784
 20
-100.41997510053938
 11
233.209972448212
 21
-101.16693016883261
  0
LINE
  8
_0-7_細線
  6
CONTINUOUS
 62
    4
 10
233.209972448212
 20
-101.16693016883261
 11
233.14860861150939
 21
-101.89279874952814
  0
LINE
  8
_0-7_細線
  6
CONTINUOUS
 62
    4
 10
233.14860861150939
 20
-101.89279874952814
 11
233.03029924987709
 21
-102.58423496440065
  0
LINE
  8
_0-7_細線
  6
CONTINUOUS
 62
    4
 10
233.03029924987709
 20
-102.58423496440065
 11
232.8369889297239
 21
-103.22789293522357
  0
LINE
  8
_0-7_細線
  6
CONTINUOUS
 62
    4
 10
232.8369889297239
 20
-103.22789293522357
 11
232.550622217457
 21
-103.8104267837702
  0
LINE
  8
_0-7_細線
  6
CONTINUOUS
 62
    4
 10
232.550622217457
 20
-103.8104267837702
 11
232.33477630575788
 21
-104.11503037309404
  0
LINE
  8
_0-7_細線
  6
CONTINUOUS
 62
    4
 10
232.33477630575788
 20
-104.11503037309404
 11
232.1835818503703
 21
-104.28772791754085
  0
LINE
  8
_0-7_細線
  6
CONTINUOUS
 62
    4
 10
232.1835818503703
 20
-104.28772791754085
 11
231.8913221785067
 21
-104.56412935742259
  0
LINE
  8
_0-7_細線
  6
CONTINUOUS
 62
    4
 10
231.8913221785067
 20
-104.56412935742259
 11
231.5654078017476
 21
-104.81777472468315
  0
LINE
  8
_0-7_細線
  6
CONTINUOUS
 62
    4
 10
231.5654078017476
 20
-104.81777472468315
 11
231.21318690893639
 21
-105.05363259412962
  0
LINE
  8
_0-7_細線
  6
CONTINUOUS
 62
    4
 10
231.21318690893639
 20
-105.05363259412962
 11
230.84200768891219
 21
-105.27667154057116
  0
LINE
  8
_0-7_細線
  6
CONTINUOUS
 62
    4
 10
230.84200768891219
 20
-105.27667154057116
 11
230.4592183305183
 21
-105.49186013881575
  0
LINE
  8
_0-7_細線
  6
CONTINUOUS
 62
    4
 10
230.4592183305183
 20
-105.49186013881575
 11
230.23477630575849
 21
-105.61503037309404
  0
LINE
  8
_0-7_細線
  6
CONTINUOUS
 62
    4
 10
230.23477630575849
 20
-108.61503037309404
 11
230.43124248533121
 21
-108.56416895822969
  0
LINE
  8
_0-7_細線
  6
CONTINUOUS
 62
    4
 10
230.43124248533121
 20
-108.56416895822969
 11
230.77017458171099
 21
-108.47559569615663
  0
LINE
  8
_0-7_細線
  6
CONTINUOUS
 62
    4
 10
230.77017458171099
 20
-108.47559569615663
 11
231.10965474479161
 21
-108.38457474663863
  0
LINE
  8
_0-7_細線
  6
CONTINUOUS
 62
    4
 10
231.10965474479161
 20
-108.38457474663863
 11
231.4500298522332
 21
-108.28955694040775
  0
LINE
  8
_0-7_細線
  6
CONTINUOUS
 62
    4
 10
231.4500298522332
 20
-108.28955694040775
 11
231.7916467816928
 21
-108.18899310819614
  0
LINE
  8
_0-7_細線
  6
CONTINUOUS
 62
    4
 10
231.7916467816928
 20
-108.18899310819614
 11
232.13485241083049
 21
-108.08133408073394
  0
LINE
  8
_0-7_細線
  6
CONTINUOUS
 62
    4
 10
232.13485241083049
 20
-108.08133408073394
 11
232.33477630575788
 21
-108.01503037309402
  0
LINE
  8
_0-7_細線
  6
CONTINUOUS
 62
    4
 10
232.33477630575788
 20
-108.01503037309402
 11
232.732289023638
 21
-107.87408217355215
  0
LINE
  8
_0-7_細線
  6
CONTINUOUS
 62
    4
 10
232.732289023638
 20
-107.87408217355215
 11
233.41299679692989
 21
-107.59766054367327
  0
LINE
  8
_0-7_細線
  6
CONTINUOUS
 62
    4
 10
233.41299679692989
 20
-107.59766054367327
 11
234.07074658208671
 21
-107.27317383586427
  0
LINE
  8
_0-7_細線
  6
CONTINUOUS
 62
    4
 10
234.07074658208671
 20
-107.27317383586427
 11
234.6857005384351
 21
-106.89390447752095
  0
LINE
  8
_0-7_細線
  6
CONTINUOUS
 62
    4
 10
234.6857005384351
 20
-106.89390447752095
 11
235.23802082530051
 21
-106.45313489603865
  0
LINE
  8
_0-7_細線
  6
CONTINUOUS
 62
    4
 10
235.23802082530051
 20
-106.45313489603865
 11
235.70786960201229
 21
-105.94414751881374
  0
LINE
  8
_0-7_細線
  6
CONTINUOUS
 62
    4
 10
235.70786960201229
 20
-105.94414751881374
 11
235.93477630575779
 21
-105.61503037309404
  0
LINE
  8
_0-7_細線
  6
CONTINUOUS
 62
    4
 10
235.93477630575779
 20
-105.61503037309404
 11
236.0099878079979
 21
-105.48547650402526
  0
LINE
  8
_0-7_細線
  6
CONTINUOUS
 62
    4
 10
236.0099878079979
 20
-105.48547650402526
 11
236.12821569742371
 21
-105.25438017901462
  0
LINE
  8
_0-7_細線
  6
CONTINUOUS
 62
    4
 10
236.12821569742371
 20
-105.25438017901462
 11
236.23360006345339
 21
-105.01494640514937
  0
LINE
  8
_0-7_細線
  6
CONTINUOUS
 62
    4
 10
236.23360006345339
 20
-105.01494640514937
 11
236.32805543501971
 21
-104.76885460639318
  0
LINE
  8
_0-7_細線
  6
CONTINUOUS
 62
    4
 10
236.32805543501971
 20
-104.76885460639318
 11
236.41349634105219
 21
-104.51778420670956
  0
LINE
  8
_0-7_細線
  6
CONTINUOUS
 62
    4
 10
236.41349634105219
 20
-104.51778420670956
 11
236.49183731048399
 21
-104.2634146300623
  0
LINE
  8
_0-7_細線
  6
CONTINUOUS
 62
    4
 10
236.49183731048399
 20
-104.2634146300623
 11
236.5347763057577
 21
-104.11503037309404
  0
LINE
  8
_0-7_細線
  6
CONTINUOUS
 62
    4
 10
236.5347763057577
 20
-104.11503037309404
 11
236.6392218005783
 21
-103.73034837959875
  0
LINE
  8
_0-7_細線
  6
CONTINUOUS
 62
    4
 10
236.6392218005783
 20
-103.73034837959875
 11
236.7971814401842
 21
-103.06409366341842
  0
LINE
  8
_0-7_細線
  6
CONTINUOUS
 62
    4
 10
236.7971814401842
 20
-103.06409366341842
 11
236.92622188973081
 21
-102.39463126361755
  0
LINE
  8
_0-7_細線
  6
CONTINUOUS
 62
    4
 10
236.92622188973081
 20
-102.39463126361755
 11
237.02527255691999
 21
-101.72266154779885
  0
LINE
  8
_0-7_細線
  6
CONTINUOUS
 62
    4
 10
237.02527255691999
 20
-101.72266154779885
 11
237.0932628494499
 21
-101.04888488356511
  0
LINE
  8
_0-7_細線
  6
CONTINUOUS
 62
    4
 10
237.0932628494499
 20
-101.04888488356511
 11
237.1291221750227
 21
-100.37400163851913
  0
LINE
  8
_0-7_細線
  6
CONTINUOUS
 62
    4
 10
237.1291221750227
 20
-100.37400163851913
 11
237.13477630575809
 21
-99.982338302318965
  0
LINE
  8
_0-7_細線
  6
CONTINUOUS
 62
    4
 10
237.13477630575809
 20
-99.982338302318965
 11
237.1291221750227
 21
-99.590674966118684
  0
LINE
  8
_0-7_細線
  6
CONTINUOUS
 62
    4
 10
237.1291221750227
 20
-99.590674966118684
 11
237.0932628494499
 21
-98.915791721072821
  0
LINE
  8
_0-7_細線
  6
CONTINUOUS
 62
    4
 10
237.0932628494499
 20
-98.915791721072821
 11
237.02527255691999
 21
-98.242015056839534
  0
LINE
  8
_0-7_細線
  6
CONTINUOUS
 62
    4
 10
237.02527255691999
 20
-98.242015056839534
 11
236.92622188973081
 21
-97.57004534102083
  0
LINE
  8
_0-7_細線
  6
CONTINUOUS
 62
    4
 10
236.92622188973081
 20
-97.57004534102083
 11
236.7971814401842
 21
-96.900582941219511
  0
LINE
  8
_0-7_細線
  6
CONTINUOUS
 62
    4
 10
236.7971814401842
 20
-96.900582941219511
 11
236.6392218005783
 21
-96.234328225039405
  0
LINE
  8
_0-7_細線
  6
CONTINUOUS
 62
    4
 10
236.6392218005783
 20
-96.234328225039405
 11
236.5347763057577
 21
-95.849646231544114
  0
LINE
  8
_0-7_細線
  6
CONTINUOUS
 62
    4
 10
236.5347763057577
 20
-95.849646231544114
 11
236.49183731048399
 21
-95.70126197457563
  0
LINE
  8
_0-7_細線
  6
CONTINUOUS
 62
    4
 10
236.49183731048399
 20
-95.70126197457563
 11
236.41349634105219
 21
-95.446892397928821
  0
LINE
  8
_0-7_細線
  6
CONTINUOUS
 62
    4
 10
236.41349634105219
 20
-95.446892397928821
 11
236.32805543501971
 21
-95.195821998245094
  0
LINE
  8
_0-7_細線
  6
CONTINUOUS
 62
    4
 10
236.32805543501971
 20
-95.195821998245094
 11
236.23360006345339
 21
-94.949730199488442
  0
LINE
  8
_0-7_細線
  6
CONTINUOUS
 62
    4
 10
236.23360006345339
 20
-94.949730199488442
 11
236.12821569742371
 21
-94.710296425623312
  0
LINE
  8
_0-7_細線
  6
CONTINUOUS
 62
    4
 10
236.12821569742371
 20
-94.710296425623312
 11
236.0099878079979
 21
-94.479200100613014
  0
LINE
  8
_0-7_細線
  6
CONTINUOUS
 62
    4
 10
236.0099878079979
 20
-94.479200100613014
 11
235.93477630575779
 21
-94.349646231544114
  0
LINE
  8
_0-7_細線
  6
CONTINUOUS
 62
    4
 10
235.93477630575779
 20
-94.349646231544114
 11
235.70786960201229
 21
-94.02052908582408
  0
LINE
  8
_0-7_細線
  6
CONTINUOUS
 62
    4
 10
235.70786960201229
 20
-94.02052908582408
 11
235.23802082530051
 21
-93.511541708599168
  0
LINE
  8
_0-7_細線
  6
CONTINUOUS
 62
    4
 10
235.23802082530051
 20
-93.511541708599168
 11
234.6857005384351
 21
-93.070772127117209
  0
LINE
  8
_0-7_細線
  6
CONTINUOUS
 62
    4
 10
234.6857005384351
 20
-93.070772127117209
 11
234.07074658208671
 21
-92.691502768774001
  0
LINE
  8
_0-7_細線
  6
CONTINUOUS
 62
    4
 10
234.07074658208671
 20
-92.691502768774001
 11
233.41299679692989
 21
-92.367016060964886
  0
LINE
  8
_0-7_細線
  6
CONTINUOUS
 62
    4
 10
233.41299679692989
 20
-92.367016060964886
 11
232.732289023638
 21
-92.090594431086004
  0
LINE
  8
_0-7_細線
  6
CONTINUOUS
 62
    4
 10
232.732289023638
 20
-92.090594431086004
 11
232.33477630575788
 21
-91.949646231544136
  0
LINE
  8
_0-7_細線
  6
CONTINUOUS
 62
    4
 10
232.33477630575788
 20
-91.949646231544136
 11
232.13485241083049
 21
-91.883342523904332
  0
LINE
  8
_0-7_細線
  6
CONTINUOUS
 62
    4
 10
232.13485241083049
 20
-91.883342523904332
 11
231.7916467816928
 21
-91.775683496441786
  0
LINE
  8
_0-7_細線
  6
CONTINUOUS
 62
    4
 10
231.7916467816928
 20
-91.775683496441786
 11
231.4500298522332
 21
-91.675119664229953
  0
LINE
  8
_0-7_細線
  6
CONTINUOUS
 62
    4
 10
231.4500298522332
 20
-91.675119664229953
 11
231.10965474479161
 21
-91.580101857999523
  0
LINE
  8
_0-7_細線
  6
CONTINUOUS
 62
    4
 10
231.10965474479161
 20
-91.580101857999523
 11
230.77017458171099
 21
-91.48908090848164
  0
LINE
  8
_0-7_細線
  6
CONTINUOUS
 62
    4
 10
230.77017458171099
 20
-91.48908090848164
 11
230.43124248533121
 21
-91.400507646408585
  0
LINE
  8
_0-7_細線
  6
CONTINUOUS
 62
    4
 10
230.43124248533121
 20
-91.400507646408585
 11
230.23477630575849
 21
-91.349646231544114
  0
LINE
  8
_0-7_細線
  6
CONTINUOUS
 62
    4
 10
241.0347763057577
 20
-91.349646231544114
 11
247.1357571519504
 21
-104.43324187810043
  0
LINE
  8
_0-7_細線
  6
CONTINUOUS
 62
    4
 10
253.2367379981431
 20
-91.349646231544114
 11
247.1357571519504
 21
-104.43324187810043
  0
LINE
  8
_0-7_細線
  6
CONTINUOUS
 62
    4
 10
237.13477630575809
 20
-91.349646231544114
 11
245.18575715195101
 21
-108.61503037309404
  0
LINE
  8
_0-7_細線
  6
CONTINUOUS
 62
    4
 10
249.0857571519507
 20
-108.61503037309404
 11
257.13673799814273
 21
-91.349646231544114
  0
LINE
  8
_0-7_細線
  6
CONTINUOUS
 62
    4
 10
260.13673799814359
 20
-91.349646231544114
 11
252.0857571519507
 21
-108.61503037309404
  0
LINE
  8
_0-7_細線
  6
CONTINUOUS
 62
    4
 10
264.14303987948392
 20
-91.349646231544114
 11
272.1940207256759
 21
-108.61503037309404
  0
LINE
  8
_0-7_細線
  6
CONTINUOUS
 62
    4
 10
204.37377695908413
 20
-104.71503037309384
 11
212.6084178145509
 21
-104.71503037309384
  0
LINE
  8
_0-7_細線
  6
CONTINUOUS
 62
    4
 10
257.80435701875439
 20
-104.71503037309384
 11
266.4754208588717
 21
-104.71503037309384
  0
LINE
  8
_0-7_細線
  6
CONTINUOUS
 62
    4
 10
259.20327999322012
 20
-101.71503037309395
 11
265.07649788440699
 21
-101.71503037309395
  0
LINE
  8
_0-7_細線
  6
CONTINUOUS
 62
    4
 10
277.82366610982513
 20
-94.349646231544114
 11
286.73766745309297
 21
-108.61503037309404
  0
LINE
  8
_0-7_細線
  6
CONTINUOUS
 62
    4
 10
288.55994424269988
 20
-105.3039191221315
 11
288.55994424269988
 21
-91.349646231544114
  0
LINE
  8
_0-7_細線
  6
CONTINUOUS
 62
    4
 10
291.85994424270007
 20
-108.61503037309404
 11
291.85994424270007
 21
-91.349646231544114
  0
LINE
  8
_0-7_細線
  6
CONTINUOUS
 62
    4
 10
279.84034678519288
 20
-91.349646231544114
 11
288.55994424269988
 21
-105.3039191221315
  0
LINE
  8
_0-7_細線
  6
CONTINUOUS
 62
    4
 10
273.92366610982504
 20
-91.349646231544114
 11
273.92366610982504
 21
-108.61503037309404
  0
LINE
  8
_0-7_細線
  6
CONTINUOUS
 62
    4
 10
230.23477630575849
 20
-94.349646231544114
 11
224.23477630575849
 21
-94.349646231544114
  0
LINE
  8
_0-7_細線
  6
CONTINUOUS
 62
    4
 10
224.23477630575849
 20
-105.61503037309404
 11
230.23477630575849
 21
-105.61503037309404
  0
LINE
  8
_0-7_細線
  6
CONTINUOUS
 62
    4
 10
265.07649788440699
 20
-101.71503037309395
 11
262.1398889388135
 21
-95.417452166438409
  0
LINE
  8
_0-7_細線
  6
CONTINUOUS
 62
    4
 10
259.20327999322012
 20
-101.71503037309395
 11
262.1398889388135
 21
-95.417452166438409
  0
LINE
  8
_0-7_細線
  6
CONTINUOUS
 62
    4
 10
255.98575715195031
 20
-108.61503037309404
 11
257.80435701875439
 21
-104.71503037309384
  0
LINE
  8
_0-7_細線
  6
CONTINUOUS
 62
    4
 10
268.29402072567581
 20
-108.61503037309404
 11
266.4754208588717
 21
-104.71503037309384
  0
LINE
  8
_0-7_細線
  6
CONTINUOUS
 62
    4
 10
277.82366610982513
 20
-94.349646231544114
 11
277.82366610982513
 21
-108.61503037309404
  0
LINE
  8
_0-7_細線
  6
CONTINUOUS
 62
    4
 10
198.65517709227947
 20
-108.61503037309404
 11
202.55517709228002
 21
-108.61503037309404
  0
LINE
  8
_0-7_細線
  6
CONTINUOUS
 62
    4
 10
214.42701768135538
 20
-108.61503037309404
 11
218.3270176813555
 21
-108.61503037309404
  0
LINE
  8
_0-7_細線
  6
CONTINUOUS
 62
    4
 10
210.2760368351635
 20
-91.349646231544114
 11
218.3270176813555
 21
-108.61503037309404
  0
LINE
  8
_0-7_細線
  6
CONTINUOUS
 62
    4
 10
210.2760368351635
 20
-91.349646231544114
 11
206.70615793847242
 21
-91.349646231544114
  0
LINE
  8
_0-7_細線
  6
CONTINUOUS
 62
    4
 10
220.3347763057584
 20
-91.349646231544114
 11
220.3347763057584
 21
-108.61503037309404
  0
LINE
  8
_0-7_細線
  6
CONTINUOUS
 62
    4
 10
224.23477630575849
 20
-94.349646231544114
 11
224.23477630575849
 21
-105.61503037309404
  0
LINE
  8
_0-7_細線
  6
CONTINUOUS
 62
    4
 10
220.3347763057584
 20
-108.61503037309404
 11
230.23477630575849
 21
-108.61503037309404
  0
LINE
  8
_0-7_細線
  6
CONTINUOUS
 62
    4
 10
230.23477630575849
 20
-91.349646231544114
 11
220.3347763057584
 21
-91.349646231544114
  0
LINE
  8
_0-7_細線
  6
CONTINUOUS
 62
    4
 10
241.0347763057577
 20
-91.349646231544114
 11
237.13477630575809
 21
-91.349646231544114
  0
LINE
  8
_0-7_細線
  6
CONTINUOUS
 62
    4
 10
245.18575715195101
 20
-108.61503037309404
 11
249.0857571519507
 21
-108.61503037309404
  0
LINE
  8
_0-7_細線
  6
CONTINUOUS
 62
    4
 10
257.13673799814273
 20
-91.349646231544114
 11
253.2367379981431
 21
-91.349646231544114
  0
LINE
  8
_0-7_細線
  6
CONTINUOUS
 62
    4
 10
252.0857571519507
 20
-108.61503037309404
 11
255.98575715195031
 21
-108.61503037309404
  0
LINE
  8
_0-7_細線
  6
CONTINUOUS
 62
    4
 10
268.29402072567581
 20
-108.61503037309404
 11
272.1940207256759
 21
-108.61503037309404
  0
LINE
  8
_0-7_細線
  6
CONTINUOUS
 62
    4
 10
273.92366610982504
 20
-108.61503037309404
 11
277.82366610982513
 21
-108.61503037309404
  0
LINE
  8
_0-7_細線
  6
CONTINUOUS
 62
    4
 10
286.73766745309297
 20
-108.61503037309404
 11
291.85994424270007
 21
-108.61503037309404
  0
LINE
  8
_0-7_細線
  6
CONTINUOUS
 62
    4
 10
291.85994424270007
 20
-91.349646231544114
 11
288.55994424269988
 21
-91.349646231544114
  0
LINE
  8
_0-7_細線
  6
CONTINUOUS
 62
    4
 10
279.84034678519288
 20
-91.349646231544114
 11
273.92366610982504
 21
-91.349646231544114
  0
LINE
  8
_0-7_細線
  6
CONTINUOUS
 62
    4
 10
264.14303987948392
 20
-91.349646231544114
 11
260.13673799814359
 21
-91.349646231544114
  0
LINE
  8
_0-7_細線
  6
CONTINUOUS
 62
    4
 10
198.87218928146854
 20
-108.14964623154418
 11
202.77218928146863
 21
-108.14964623154418
  0
LINE
  8
_0-7_細線
  6
CONTINUOUS
 62
    4
 10
214.21000549216632
 20
-108.14964623154418
 11
218.11000549216692
 21
-108.14964623154418
  0
LINE
  8
_0-7_細線
  6
CONTINUOUS
 62
    4
 10
220.3347763057584
 20
-108.14964623154418
 11
231.9170804761477
 21
-108.14964623154418
  0
LINE
  8
_0-7_細線
  6
CONTINUOUS
 62
    4
 10
244.968744962762
 20
-108.14964623154418
 11
249.3027693411388
 21
-108.14964623154418
  0
LINE
  8
_0-7_細線
  6
CONTINUOUS
 62
    4
 10
252.30276934113931
 20
-108.14964623154418
 11
256.20276934113889
 21
-108.14964623154418
  0
LINE
  8
_0-7_細線
  6
CONTINUOUS
 62
    4
 10
268.07700853648811
 20
-108.14964623154418
 11
271.9770085364878
 21
-108.14964623154418
  0
LINE
  8
_0-7_細線
  6
CONTINUOUS
 62
    4
 10
273.92366610982504
 20
-108.14964623154418
 11
277.82366610982513
 21
-108.14964623154418
  0
LINE
  8
_0-7_細線
  6
CONTINUOUS
 62
    4
 10
286.44686316617447
 20
-108.14964623154418
 11
291.85994424270007
 21
-108.14964623154418
  0
LINE
  8
_0-7_細線
  6
CONTINUOUS
 62
    4
 10
199.15197387636158
 20
-107.54964623154405
 11
203.05197387636122
 21
-107.54964623154405
  0
LINE
  8
_0-7_細線
  6
CONTINUOUS
 62
    4
 10
213.93022089727418
 20
-107.54964623154405
 11
217.8302208972743
 21
-107.54964623154405
  0
LINE
  8
_0-7_細線
  6
CONTINUOUS
 62
    4
 10
220.3347763057584
 20
-107.54964623154405
 11
233.5103240609667
 21
-107.54964623154405
  0
LINE
  8
_0-7_細線
  6
CONTINUOUS
 62
    4
 10
244.6889603678689
 20
-107.54964623154405
 11
249.5825539360319
 21
-107.54964623154405
  0
LINE
  8
_0-7_細線
  6
CONTINUOUS
 62
    4
 10
252.5825539360319
 20
-107.54964623154405
 11
256.48255393603154
 21
-107.54964623154405
  0
LINE
  8
_0-7_細線
  6
CONTINUOUS
 62
    4
 10
267.79722394159461
 20
-107.54964623154405
 11
271.6972239415947
 21
-107.54964623154405
  0
LINE
  8
_0-7_細線
  6
CONTINUOUS
 62
    4
 10
273.92366610982504
 20
-107.54964623154405
 11
277.82366610982513
 21
-107.54964623154405
  0
LINE
  8
_0-7_細線
  6
CONTINUOUS
 62
    4
 10
286.07194155502901
 20
-107.54964623154405
 11
291.85994424270007
 21
-107.54964623154405
  0
LINE
  8
_0-7_細線
  6
CONTINUOUS
 62
    4
 10
199.43175847125462
 20
-106.94964623154414
 11
203.33175847125472
 21
-106.94964623154414
  0
LINE
  8
_0-7_細線
  6
CONTINUOUS
 62
    4
 10
213.65043630238029
 20
-106.94964623154414
 11
217.5504363023808
 21
-106.94964623154414
  0
LINE
  8
_0-7_細線
  6
CONTINUOUS
 62
    4
 10
220.3347763057584
 20
-106.94964623154414
 11
234.59531988569751
 21
-106.94964623154414
  0
LINE
  8
_0-7_細線
  6
CONTINUOUS
 62
    4
 10
244.40917577297591
 20
-106.94964623154414
 11
249.86233853092489
 21
-106.94964623154414
  0
LINE
  8
_0-7_細線
  6
CONTINUOUS
 62
    4
 10
252.86233853092489
 20
-106.94964623154414
 11
256.76233853092504
 21
-106.94964623154414
  0
LINE
  8
_0-7_細線
  6
CONTINUOUS
 62
    4
 10
267.51743934670208
 20
-106.94964623154414
 11
271.41743934670171
 21
-106.94964623154414
  0
LINE
  8
_0-7_細線
  6
CONTINUOUS
 62
    4
 10
273.92366610982504
 20
-106.94964623154414
 11
277.82366610982513
 21
-106.94964623154414
  0
LINE
  8
_0-7_細線
  6
CONTINUOUS
 62
    4
 10
285.6970199438835
 20
-106.94964623154414
 11
291.85994424270007
 21
-106.94964623154414
  0
LINE
  8
_0-7_細線
  6
CONTINUOUS
 62
    4
 10
199.71154306614676
 20
-106.349646231544
 11
203.61154306614731
 21
-106.349646231544
  0
LINE
  8
_0-7_細線
  6
CONTINUOUS
 62
    4
 10
213.37065170748809
 20
-106.349646231544
 11
217.27065170748818
 21
-106.349646231544
  0
LINE
  8
_0-7_細線
  6
CONTINUOUS
 62
    4
 10
220.3347763057584
 20
-106.349646231544
 11
235.33355172565709
 21
-106.349646231544
  0
LINE
  8
_0-7_細線
  6
CONTINUOUS
 62
    4
 10
244.12939117808281
 20
-106.349646231544
 11
250.14212312581799
 21
-106.349646231544
  0
LINE
  8
_0-7_細線
  6
CONTINUOUS
 62
    4
 10
253.1421231258179
 20
-106.349646231544
 11
257.04212312581762
 21
-106.349646231544
  0
LINE
  8
_0-7_細線
  6
CONTINUOUS
 62
    4
 10
267.23765475180858
 20
-106.349646231544
 11
271.13765475180861
 21
-106.349646231544
  0
LINE
  8
_0-7_細線
  6
CONTINUOUS
 62
    4
 10
273.92366610982504
 20
-106.349646231544
 11
277.82366610982513
 21
-106.349646231544
  0
LINE
  8
_0-7_細線
  6
CONTINUOUS
 62
    4
 10
285.32209833273799
 20
-106.349646231544
 11
291.85994424270007
 21
-106.349646231544
  0
LINE
  8
_0-7_細線
  6
CONTINUOUS
 62
    4
 10
199.99132766104026
 20
-105.7496462315442
 11
203.8913276610408
 21
-105.7496462315442
  0
LINE
  8
_0-7_細線
  6
CONTINUOUS
 62
    4
 10
213.0908671125942
 20
-105.7496462315442
 11
216.99086711259469
 21
-105.7496462315442
  0
LINE
  8
_0-7_細線
  6
CONTINUOUS
 62
    4
 10
220.3347763057584
 20
-105.7496462315442
 11
235.84196667517449
 21
-105.7496462315442
  0
LINE
  8
_0-7_細線
  6
CONTINUOUS
 62
    4
 10
243.8496065831898
 20
-105.7496462315442
 11
250.421907720711
 21
-105.7496462315442
  0
LINE
  8
_0-7_細線
  6
CONTINUOUS
 62
    4
 10
253.421907720711
 20
-105.7496462315442
 11
257.32190772071112
 21
-105.7496462315442
  0
LINE
  8
_0-7_細線
  6
CONTINUOUS
 62
    4
 10
266.95787015691599
 20
-105.7496462315442
 11
270.85787015691653
 21
-105.7496462315442
  0
LINE
  8
_0-7_細線
  6
CONTINUOUS
 62
    4
 10
273.92366610982504
 20
-105.7496462315442
 11
277.82366610982513
 21
-105.7496462315442
  0
LINE
  8
_0-7_細線
  6
CONTINUOUS
 62
    4
 10
284.94717672159163
 20
-105.7496462315442
 11
291.85994424270007
 21
-105.7496462315442
  0
LINE
  8
_0-7_細線
  6
CONTINUOUS
 62
    4
 10
200.27111225593376
 20
-105.14964623154441
 11
204.17111225593339
 21
-105.14964623154441
  0
LINE
  8
_0-7_細線
  6
CONTINUOUS
 62
    4
 10
212.81108251770161
 20
-105.14964623154441
 11
216.7110825177021
 21
-105.14964623154441
  0
LINE
  8
_0-7_細線
  6
CONTINUOUS
 62
    4
 10
220.3347763057584
 20
-105.14964623154441
 11
224.23477630575849
 21
-105.14964623154441
  0
LINE
  8
_0-7_細線
  6
CONTINUOUS
 62
    4
 10
231.05340195829939
 20
-105.14964623154441
 11
236.1743132904146
 21
-105.14964623154441
  0
LINE
  8
_0-7_細線
  6
CONTINUOUS
 62
    4
 10
243.56982198829681
 20
-105.14964623154441
 11
250.70169231560399
 21
-105.14964623154441
  0
LINE
  8
_0-7_細線
  6
CONTINUOUS
 62
    4
 10
253.70169231560411
 20
-105.14964623154441
 11
257.60169231560371
 21
-105.14964623154441
  0
LINE
  8
_0-7_細線
  6
CONTINUOUS
 62
    4
 10
266.67808556202249
 20
-105.14964623154441
 11
270.57808556202258
 21
-105.14964623154441
  0
LINE
  8
_0-7_細線
  6
CONTINUOUS
 62
    4
 10
273.92366610982504
 20
-105.14964623154441
 11
277.82366610982513
 21
-105.14964623154441
  0
LINE
  8
_0-7_細線
  6
CONTINUOUS
 62
    4
 10
284.57225511044612
 20
-105.14964623154441
 11
288.46354384154051
 21
-105.14964623154441
  0
LINE
  8
_0-7_細線
  6
CONTINUOUS
 62
    4
 10
288.55994424269988
 20
-105.14964623154441
 11
291.85994424270007
 21
-105.14964623154441
  0
LINE
  8
_0-7_細線
  6
CONTINUOUS
 62
    4
 10
200.5508968508268
 20
-104.54964623154405
 11
216.4312979228086
 21
-104.54964623154405
  0
LINE
  8
_0-7_細線
  6
CONTINUOUS
 62
    4
 10
220.3347763057584
 20
-104.54964623154405
 11
224.23477630575849
 21
-104.54964623154405
  0
LINE
  8
_0-7_細線
  6
CONTINUOUS
 62
    4
 10
231.90663625797941
 20
-104.54964623154405
 11
236.4026534847323
 21
-104.54964623154405
  0
LINE
  8
_0-7_細線
  6
CONTINUOUS
 62
    4
 10
243.29003739340371
 20
-104.54964623154405
 11
250.98147691049709
 21
-104.54964623154405
  0
LINE
  8
_0-7_細線
  6
CONTINUOUS
 62
    4
 10
253.98147691049709
 20
-104.54964623154405
 11
270.29830096713039
 21
-104.54964623154405
  0
LINE
  8
_0-7_細線
  6
CONTINUOUS
 62
    4
 10
273.92366610982504
 20
-104.54964623154405
 11
277.82366610982513
 21
-104.54964623154405
  0
LINE
  8
_0-7_細線
  6
CONTINUOUS
 62
    4
 10
284.19733349930061
 20
-104.54964623154405
 11
288.088622230395
 21
-104.54964623154405
  0
LINE
  8
_0-7_細線
  6
CONTINUOUS
 62
    4
 10
288.55994424269988
 20
-104.54964623154405
 11
291.85994424270007
 21
-104.54964623154405
  0
LINE
  8
_0-7_細線
  6
CONTINUOUS
 62
    4
 10
200.83068144571894
 20
-103.94964623154391
 11
216.15151332791601
 21
-103.94964623154391
  0
LINE
  8
_0-7_細線
  6
CONTINUOUS
 62
    4
 10
220.3347763057584
 20
-103.94964623154391
 11
224.23477630575849
 21
-103.94964623154391
  0
LINE
  8
_0-7_細線
  6
CONTINUOUS
 62
    4
 10
232.45196957617441
 20
-103.94964623154391
 11
236.57967996330331
 21
-103.94964623154391
  0
LINE
  8
_0-7_細線
  6
CONTINUOUS
 62
    4
 10
243.0102527985116
 20
-103.94964623154391
 11
246.9102527985103
 21
-103.94964623154391
  0
LINE
  8
_0-7_細線
  6
CONTINUOUS
 62
    4
 10
247.3612615053905
 20
-103.94964623154391
 11
251.26126150539011
 21
-103.94964623154391
  0
LINE
  8
_0-7_細線
  6
CONTINUOUS
 62
    4
 10
254.26126150539011
 20
-103.94964623154391
 11
270.01851637223649
 21
-103.94964623154391
  0
LINE
  8
_0-7_細線
  6
CONTINUOUS
 62
    4
 10
273.92366610982504
 20
-103.94964623154391
 11
277.82366610982513
 21
-103.94964623154391
  0
LINE
  8
_0-7_細線
  6
CONTINUOUS
 62
    4
 10
283.8224118881551
 20
-103.94964623154391
 11
287.71370061924949
 21
-103.94964623154391
  0
LINE
  8
_0-7_細線
  6
CONTINUOUS
 62
    4
 10
288.55994424269988
 20
-103.94964623154391
 11
291.85994424270007
 21
-103.94964623154391
  0
LINE
  8
_0-7_細線
  6
CONTINUOUS
 62
    4
 10
201.11046604061289
 20
-103.349646231544
 11
215.87172873302251
 21
-103.349646231544
  0
LINE
  8
_0-7_細線
  6
CONTINUOUS
 62
    4
 10
220.3347763057584
 20
-103.349646231544
 11
224.23477630575849
 21
-103.349646231544
  0
LINE
  8
_0-7_細線
  6
CONTINUOUS
 62
    4
 10
232.77713645718148
 20
-103.349646231544
 11
236.72948093517491
 21
-103.349646231544
  0
LINE
  8
_0-7_細線
  6
CONTINUOUS
 62
    4
 10
242.7304682036181
 20
-103.349646231544
 11
246.63046820361771
 21
-103.349646231544
  0
LINE
  8
_0-7_細線
  6
CONTINUOUS
 62
    4
 10
247.64104610028309
 20
-103.349646231544
 11
251.54104610028321
 21
-103.349646231544
  0
LINE
  8
_0-7_細線
  6
CONTINUOUS
 62
    4
 10
254.54104610028321
 20
-103.349646231544
 11
269.7387317773443
 21
-103.349646231544
  0
LINE
  8
_0-7_細線
  6
CONTINUOUS
 62
    4
 10
273.92366610982504
 20
-103.349646231544
 11
277.82366610982513
 21
-103.349646231544
  0
LINE
  8
_0-7_細線
  6
CONTINUOUS
 62
    4
 10
283.44749027700959
 20
-103.349646231544
 11
287.33877900810398
 21
-103.349646231544
  0
LINE
  8
_0-7_細線
  6
CONTINUOUS
 62
    4
 10
288.55994424269988
 20
-103.349646231544
 11
291.85994424270007
 21
-103.349646231544
  0
LINE
  8
_0-7_細線
  6
CONTINUOUS
 62
    4
 10
201.39025063550503
 20
-102.7496462315442
 11
215.59194413813
 21
-102.7496462315442
  0
LINE
  8
_0-7_細線
  6
CONTINUOUS
 62
    4
 10
220.3347763057584
 20
-102.7496462315442
 11
224.23477630575849
 21
-102.7496462315442
  0
LINE
  8
_0-7_細線
  6
CONTINUOUS
 62
    4
 10
232.98062114992649
 20
-102.7496462315442
 11
236.85779192104181
 21
-102.7496462315442
  0
LINE
  8
_0-7_細線
  6
CONTINUOUS
 62
    4
 10
242.4506836087246
 20
-102.7496462315442
 11
246.35068360872509
 21
-102.7496462315442
  0
LINE
  8
_0-7_細線
  6
CONTINUOUS
 62
    4
 10
247.92083069517659
 20
-102.7496462315442
 11
251.8208306951762
 21
-102.7496462315442
  0
LINE
  8
_0-7_細線
  6
CONTINUOUS
 62
    4
 10
254.8208306951762
 20
-102.7496462315442
 11
269.4589471824504
 21
-102.7496462315442
  0
LINE
  8
_0-7_細線
  6
CONTINUOUS
 62
    4
 10
273.92366610982504
 20
-102.7496462315442
 11
277.82366610982513
 21
-102.7496462315442
  0
LINE
  8
_0-7_細線
  6
CONTINUOUS
 62
    4
 10
283.07256866586408
 20
-102.7496462315442
 11
286.96385739695847
 21
-102.7496462315442
  0
LINE
  8
_0-7_細線
  6
CONTINUOUS
 62
    4
 10
288.55994424269988
 20
-102.7496462315442
 11
291.85994424270007
 21
-102.7496462315442
  0
LINE
  8
_0-7_細線
  6
CONTINUOUS
 62
    4
 10
201.67003523039853
 20
-102.14964623154418
 11
215.31215954323642
 21
-102.14964623154418
  0
LINE
  8
_0-7_細線
  6
CONTINUOUS
 62
    4
 10
220.3347763057584
 20
-102.14964623154418
 11
224.23477630575849
 21
-102.14964623154418
  0
LINE
  8
_0-7_細線
  6
CONTINUOUS
 62
    4
 10
233.1046602891908
 20
-102.14964623154418
 11
236.96233353331689
 21
-102.14964623154418
  0
LINE
  8
_0-7_細線
  6
CONTINUOUS
 62
    4
 10
242.17089901383201
 20
-102.14964623154418
 11
246.0708990138321
 21
-102.14964623154418
  0
LINE
  8
_0-7_細線
  6
CONTINUOUS
 62
    4
 10
248.20061529006921
 20
-102.14964623154418
 11
252.1006152900693
 21
-102.14964623154418
  0
LINE
  8
_0-7_細線
  6
CONTINUOUS
 62
    4
 10
255.1006152900693
 20
-102.14964623154418
 11
269.17916258755821
 21
-102.14964623154418
  0
LINE
  8
_0-7_細線
  6
CONTINUOUS
 62
    4
 10
273.92366610982504
 20
-102.14964623154418
 11
277.82366610982513
 21
-102.14964623154418
  0
LINE
  8
_0-7_細線
  6
CONTINUOUS
 62
    4
 10
282.69764705471761
 20
-102.14964623154418
 11
286.58893578581291
 21
-102.14964623154418
  0
LINE
  8
_0-7_細線
  6
CONTINUOUS
 62
    4
 10
288.55994424269988
 20
-102.14964623154418
 11
291.85994424270007
 21
-102.14964623154418
  0
LINE
  8
_0-7_細線
  6
CONTINUOUS
 62
    4
 10
201.94981982529112
 20
-101.54964623154405
 11
205.84981982529121
 21
-101.54964623154405
  0
LINE
  8
_0-7_細線
  6
CONTINUOUS
 62
    4
 10
211.1323749483438
 20
-101.54964623154405
 11
215.03237494834389
 21
-101.54964623154405
  0
LINE
  8
_0-7_細線
  6
CONTINUOUS
 62
    4
 10
220.3347763057584
 20
-101.54964623154405
 11
224.23477630575849
 21
-101.54964623154405
  0
LINE
  8
_0-7_細線
  6
CONTINUOUS
 62
    4
 10
233.1776182086148
 20
-101.54964623154405
 11
237.04273140135379
 21
-101.54964623154405
  0
LINE
  8
_0-7_細線
  6
CONTINUOUS
 62
    4
 10
241.89111441893851
 20
-101.54964623154405
 11
245.791114418939
 21
-101.54964623154405
  0
LINE
  8
_0-7_細線
  6
CONTINUOUS
 62
    4
 10
248.48039988496271
 20
-101.54964623154405
 11
252.38039988496141
 21
-101.54964623154405
  0
LINE
  8
_0-7_細線
  6
CONTINUOUS
 62
    4
 10
255.38039988496141
 20
-101.54964623154405
 11
259.28039988496198
 21
-101.54964623154405
  0
LINE
  8
_0-7_細線
  6
CONTINUOUS
 62
    4
 10
264.99937799266513
 20
-101.54964623154405
 11
268.89937799266431
 21
-101.54964623154405
  0
LINE
  8
_0-7_細線
  6
CONTINUOUS
 62
    4
 10
273.92366610982504
 20
-101.54964623154405
 11
277.82366610982513
 21
-101.54964623154405
  0
LINE
  8
_0-7_細線
  6
CONTINUOUS
 62
    4
 10
282.3227254435721
 20
-101.54964623154405
 11
286.2140141746674
 21
-101.54964623154405
  0
LINE
  8
_0-7_細線
  6
CONTINUOUS
 62
    4
 10
288.55994424269988
 20
-101.54964623154405
 11
291.85994424270007
 21
-101.54964623154405
  0
LINE
  8
_0-7_細線
  6
CONTINUOUS
 62
    4
 10
202.22960442018461
 20
-100.9496462315438
 11
206.12960442018419
 21
-100.9496462315438
  0
LINE
  8
_0-7_細線
  6
CONTINUOUS
 62
    4
 10
210.85259035345069
 20
-100.9496462315438
 11
214.75259035345039
 21
-100.9496462315438
  0
LINE
  8
_0-7_細線
  6
CONTINUOUS
 62
    4
 10
220.3347763057584
 20
-100.9496462315438
 11
224.23477630575849
 21
-100.9496462315438
  0
LINE
  8
_0-7_細線
  6
CONTINUOUS
 62
    4
 10
233.21650990151619
 20
-100.9496462315438
 11
237.09853580763749
 21
-100.9496462315438
  0
LINE
  8
_0-7_細線
  6
CONTINUOUS
 62
    4
 10
241.6113298240459
 20
-100.9496462315438
 11
245.51132982404599
 21
-100.9496462315438
  0
LINE
  8
_0-7_細線
  6
CONTINUOUS
 62
    4
 10
248.7601844798553
 20
-100.9496462315438
 11
252.66018447985539
 21
-100.9496462315438
  0
LINE
  8
_0-7_細線
  6
CONTINUOUS
 62
    4
 10
255.66018447985491
 20
-100.9496462315438
 11
259.56018447985548
 21
-100.9496462315438
  0
LINE
  8
_0-7_細線
  6
CONTINUOUS
 62
    4
 10
264.71959339777209
 20
-100.9496462315438
 11
268.61959339777218
 21
-100.9496462315438
  0
LINE
  8
_0-7_細線
  6
CONTINUOUS
 62
    4
 10
273.92366610982504
 20
-100.9496462315438
 11
277.82366610982513
 21
-100.9496462315438
  0
LINE
  8
_0-7_細線
  6
CONTINUOUS
 62
    4
 10
281.94780383242659
 20
-100.9496462315438
 11
285.83909256352189
 21
-100.9496462315438
  0
LINE
  8
_0-7_細線
  6
CONTINUOUS
 62
    4
 10
288.55994424269988
 20
-100.9496462315438
 11
291.85994424270007
 21
-100.9496462315438
  0
LINE
  8
_0-7_細線
  6
CONTINUOUS
 62
    4
 10
202.5093890150772
 20
-100.34964623154411
 11
206.40938901507729
 21
-100.34964623154411
  0
LINE
  8
_0-7_細線
  6
CONTINUOUS
 62
    4
 10
210.57280575855771
 20
-100.34964623154411
 11
214.4728057585582
 21
-100.34964623154411
  0
LINE
  8
_0-7_細線
  6
CONTINUOUS
 62
    4
 10
220.3347763057584
 20
-100.34964623154411
 11
224.23477630575849
 21
-100.34964623154411
  0
LINE
  8
_0-7_細線
  6
CONTINUOUS
 62
    4
 10
233.23282064598951
 20
-100.34964623154411
 11
237.1294737745786
 21
-100.34964623154411
  0
LINE
  8
_0-7_細線
  6
CONTINUOUS
 62
    4
 10
241.33154522915331
 20
-100.34964623154411
 11
245.231545229153
 21
-100.34964623154411
  0
LINE
  8
_0-7_細線
  6
CONTINUOUS
 62
    4
 10
249.03996907474789
 20
-100.34964623154411
 11
252.93996907474749
 21
-100.34964623154411
  0
LINE
  8
_0-7_細線
  6
CONTINUOUS
 62
    4
 10
255.93996907474749
 20
-100.34964623154411
 11
259.83996907474801
 21
-100.34964623154411
  0
LINE
  8
_0-7_細線
  6
CONTINUOUS
 62
    4
 10
264.43980880287904
 20
-100.34964623154411
 11
268.33980880287868
 21
-100.34964623154411
  0
LINE
  8
_0-7_細線
  6
CONTINUOUS
 62
    4
 10
273.92366610982504
 20
-100.34964623154411
 11
277.82366610982513
 21
-100.34964623154411
  0
LINE
  8
_0-7_細線
  6
CONTINUOUS
 62
    4
 10
281.57288222128113
 20
-100.34964623154411
 11
285.46417095237643
 21
-100.34964623154411
  0
LINE
  8
_0-7_細線
  6
CONTINUOUS
 62
    4
 10
288.55994424269988
 20
-100.34964623154411
 11
291.85994424270007
 21
-100.34964623154411
  0
LINE
  8
_0-7_細線
  6
CONTINUOUS
 62
    4
 10
202.7891736099707
 20
-99.749646231543977
 11
206.68917360997028
 21
-99.749646231543977
  0
LINE
  8
_0-7_細線
  6
CONTINUOUS
 62
    4
 10
210.2930211636646
 20
-99.749646231543977
 11
214.19302116366521
 21
-99.749646231543977
  0
LINE
  8
_0-7_細線
  6
CONTINUOUS
 62
    4
 10
220.3347763057584
 20
-99.749646231543977
 11
224.23477630575849
 21
-99.749646231543977
  0
LINE
  8
_0-7_細線
  6
CONTINUOUS
 62
    4
 10
233.2335373819962
 20
-99.749646231543977
 11
237.1314171162
 21
-99.749646231543977
  0
LINE
  8
_0-7_細線
  6
CONTINUOUS
 62
    4
 10
241.05176063425981
 20
-99.749646231543977
 11
244.9517606342599
 21
-99.749646231543977
  0
LINE
  8
_0-7_細線
  6
CONTINUOUS
 62
    4
 10
249.3197536696409
 20
-99.749646231543977
 11
253.21975366964151
 21
-99.749646231543977
  0
LINE
  8
_0-7_細線
  6
CONTINUOUS
 62
    4
 10
256.21975366964102
 20
-99.749646231543977
 11
260.1197536696406
 21
-99.749646231543977
  0
LINE
  8
_0-7_細線
  6
CONTINUOUS
 62
    4
 10
264.160024207986
 20
-99.749646231543977
 11
268.06002420798609
 21
-99.749646231543977
  0
LINE
  8
_0-7_細線
  6
CONTINUOUS
 62
    4
 10
273.92366610982504
 20
-99.749646231543977
 11
277.82366610982513
 21
-99.749646231543977
  0
LINE
  8
_0-7_細線
  6
CONTINUOUS
 62
    4
 10
281.19796061013562
 20
-99.749646231543977
 11
285.08924934123092
 21
-99.749646231543977
  0
LINE
  8
_0-7_細線
  6
CONTINUOUS
 62
    4
 10
288.55994424269988
 20
-99.749646231543977
 11
291.85994424270007
 21
-99.749646231543977
  0
LINE
  8
_0-7_細線
  6
CONTINUOUS
 62
    4
 10
203.06895820486329
 20
-99.149646231544068
 11
206.96895820486338
 21
-99.149646231544068
  0
LINE
  8
_0-7_細線
  6
CONTINUOUS
 62
    4
 10
210.0132365687721
 20
-99.149646231544068
 11
213.91323656877211
 21
-99.149646231544068
  0
LINE
  8
_0-7_細線
  6
CONTINUOUS
 62
    4
 10
220.3347763057584
 20
-99.149646231544068
 11
224.23477630575849
 21
-99.149646231544068
  0
LINE
  8
_0-7_細線
  6
CONTINUOUS
 62
    4
 10
233.22056010835351
 20
-99.149646231544068
 11
237.10568850246341
 21
-99.149646231544068
  0
LINE
  8
_0-7_細線
  6
CONTINUOUS
 62
    4
 10
240.77197603936719
 20
-99.149646231544068
 11
244.6719760393668
 21
-99.149646231544068
  0
LINE
  8
_0-7_細線
  6
CONTINUOUS
 62
    4
 10
249.599538264534
 20
-99.149646231544068
 11
253.49953826453361
 21
-99.149646231544068
  0
LINE
  8
_0-7_細線
  6
CONTINUOUS
 62
    4
 10
256.49953826453361
 20
-99.149646231544068
 11
260.3995382645341
 21
-99.149646231544068
  0
LINE
  8
_0-7_細線
  6
CONTINUOUS
 62
    4
 10
263.8802396130929
 20
-99.149646231544068
 11
267.78023961309259
 21
-99.149646231544068
  0
LINE
  8
_0-7_細線
  6
CONTINUOUS
 62
    4
 10
273.92366610982504
 20
-99.149646231544068
 11
277.82366610982513
 21
-99.149646231544068
  0
LINE
  8
_0-7_細線
  6
CONTINUOUS
 62
    4
 10
280.8230389989896
 20
-99.149646231544068
 11
284.7143277300849
 21
-99.149646231544068
  0
LINE
  8
_0-7_細線
  6
CONTINUOUS
 62
    4
 10
288.55994424269988
 20
-99.149646231544068
 11
291.85994424270007
 21
-99.149646231544068
  0
LINE
  8
_0-7_細線
  6
CONTINUOUS
 62
    4
 10
203.34874279975679
 20
-98.549646231544386
 11
207.2487427997564
 21
-98.549646231544386
  0
LINE
  8
_0-7_細線
  6
CONTINUOUS
 62
    4
 10
209.73345197387948
 20
-98.549646231544386
 11
213.63345197387912
 21
-98.549646231544386
  0
LINE
  8
_0-7_細線
  6
CONTINUOUS
 62
    4
 10
220.3347763057584
 20
-98.549646231544386
 11
224.23477630575849
 21
-98.549646231544386
  0
LINE
  8
_0-7_細線
  6
CONTINUOUS
 62
    4
 10
233.18899843056599
 20
-98.549646231544386
 11
237.05631538560439
 21
-98.549646231544386
  0
LINE
  8
_0-7_細線
  6
CONTINUOUS
 62
    4
 10
240.49219144447369
 20
-98.549646231544386
 11
244.39219144447381
 21
-98.549646231544386
  0
LINE
  8
_0-7_細線
  6
CONTINUOUS
 62
    4
 10
249.87932285942699
 20
-98.549646231544386
 11
253.77932285942711
 21
-98.549646231544386
  0
LINE
  8
_0-7_細線
  6
CONTINUOUS
 62
    4
 10
256.77932285942711
 20
-98.549646231544386
 11
260.67932285942669
 21
-98.549646231544386
  0
LINE
  8
_0-7_細線
  6
CONTINUOUS
 62
    4
 10
263.60045501819991
 20
-98.549646231544386
 11
267.5004550182
 21
-98.549646231544386
  0
LINE
  8
_0-7_細線
  6
CONTINUOUS
 62
    4
 10
273.92366610982504
 20
-98.549646231544386
 11
277.82366610982513
 21
-98.549646231544386
  0
LINE
  8
_0-7_細線
  6
CONTINUOUS
 62
    4
 10
280.44811738784409
 20
-98.549646231544386
 11
284.33940611893939
 21
-98.549646231544386
  0
LINE
  8
_0-7_細線
  6
CONTINUOUS
 62
    4
 10
288.55994424269988
 20
-98.549646231544386
 11
291.85994424270007
 21
-98.549646231544386
  0
LINE
  8
_0-7_細線
  6
CONTINUOUS
 62
    4
 10
203.62852739464938
 20
-97.949646231543795
 11
207.5285273946495
 21
-97.949646231543795
  0
LINE
  8
_0-7_細線
  6
CONTINUOUS
 62
    4
 10
209.45366737898598
 20
-97.949646231543795
 11
213.3536673789861
 21
-97.949646231543795
  0
LINE
  8
_0-7_細線
  6
CONTINUOUS
 62
    4
 10
220.3347763057584
 20
-97.949646231543795
 11
224.23477630575849
 21
-97.949646231543795
  0
LINE
  8
_0-7_細線
  6
CONTINUOUS
 62
    4
 10
233.12769396306589
 20
-97.949646231543795
 11
236.9821763778379
 21
-97.949646231543795
  0
LINE
  8
_0-7_細線
  6
CONTINUOUS
 62
    4
 10
240.2124068495811
 20
-97.949646231543795
 11
244.11240684958079
 21
-97.949646231543795
  0
LINE
  8
_0-7_細線
  6
CONTINUOUS
 62
    4
 10
250.15910745432001
 20
-97.949646231543795
 11
254.0591074543197
 21
-97.949646231543795
  0
LINE
  8
_0-7_細線
  6
CONTINUOUS
 62
    4
 10
257.0591074543197
 20
-97.949646231543795
 11
260.95910745432019
 21
-97.949646231543795
  0
LINE
  8
_0-7_細線
  6
CONTINUOUS
 62
    4
 10
263.32067042330681
 20
-97.949646231543795
 11
267.2206704233065
 21
-97.949646231543795
  0
LINE
  8
_0-7_細線
  6
CONTINUOUS
 62
    4
 10
273.92366610982504
 20
-97.949646231543795
 11
277.82366610982513
 21
-97.949646231543795
  0
LINE
  8
_0-7_細線
  6
CONTINUOUS
 62
    4
 10
280.07319577669864
 20
-97.949646231543795
 11
283.96448450779394
 21
-97.949646231543795
  0
LINE
  8
_0-7_細線
  6
CONTINUOUS
 62
    4
 10
288.55994424269988
 20
-97.949646231543795
 11
291.85994424270007
 21
-97.949646231543795
  0
LINE
  8
_0-7_細線
  6
CONTINUOUS
 62
    4
 10
203.90831198954288
 20
-97.349646231544114
 11
207.80831198954252
 21
-97.349646231544114
  0
LINE
  8
_0-7_細線
  6
CONTINUOUS
 62
    4
 10
209.17388278409339
 20
-97.349646231544114
 11
213.073882784093
 21
-97.349646231544114
  0
LINE
  8
_0-7_細線
  6
CONTINUOUS
 62
    4
 10
220.3347763057584
 20
-97.349646231544114
 11
224.23477630575849
 21
-97.349646231544114
  0
LINE
  8
_0-7_細線
  6
CONTINUOUS
 62
    4
 10
233.0210504398203
 20
-97.349646231544114
 11
236.88373944385299
 21
-97.349646231544114
  0
LINE
  8
_0-7_細線
  6
CONTINUOUS
 62
    4
 10
239.9326222546876
 20
-97.349646231544114
 11
243.8326222546882
 21
-97.349646231544114
  0
LINE
  8
_0-7_細線
  6
CONTINUOUS
 62
    4
 10
250.43889204921311
 20
-97.349646231544114
 11
254.3388920492132
 21
-97.349646231544114
  0
LINE
  8
_0-7_細線
  6
CONTINUOUS
 62
    4
 10
257.3388920492132
 20
-97.349646231544114
 11
261.23889204921284
 21
-97.349646231544114
  0
LINE
  8
_0-7_細線
  6
CONTINUOUS
 62
    4
 10
263.04088582841382
 20
-97.349646231544114
 11
266.94088582841391
 21
-97.349646231544114
  0
LINE
  8
_0-7_細線
  6
CONTINUOUS
 62
    4
 10
273.92366610982504
 20
-97.349646231544114
 11
277.82366610982513
 21
-97.349646231544114
  0
LINE
  8
_0-7_細線
  6
CONTINUOUS
 62
    4
 10
279.69827416555313
 20
-97.349646231544114
 11
283.58956289664843
 21
-97.349646231544114
  0
LINE
  8
_0-7_細線
  6
CONTINUOUS
 62
    4
 10
288.55994424269988
 20
-97.349646231544114
 11
291.85994424270007
 21
-97.349646231544114
  0
LINE
  8
_0-7_細線
  6
CONTINUOUS
 62
    4
 10
204.18809658443547
 20
-96.749646231543977
 11
208.0880965844355
 21
-96.749646231543977
  0
LINE
  8
_0-7_細線
  6
CONTINUOUS
 62
    4
 10
208.89409818919989
 20
-96.749646231543977
 11
212.79409818919999
 21
-96.749646231543977
  0
LINE
  8
_0-7_細線
  6
CONTINUOUS
 62
    4
 10
220.3347763057584
 20
-96.749646231543977
 11
224.23477630575849
 21
-96.749646231543977
  0
LINE
  8
_0-7_細線
  6
CONTINUOUS
 62
    4
 10
232.84085195343479
 20
-96.749646231543977
 11
236.7613964653321
 21
-96.749646231543977
  0
LINE
  8
_0-7_細線
  6
CONTINUOUS
 62
    4
 10
239.65283765979501
 20
-96.749646231543977
 11
243.55283765979561
 21
-96.749646231543977
  0
LINE
  8
_0-7_細線
  6
CONTINUOUS
 62
    4
 10
250.7186766441061
 20
-96.749646231543977
 11
254.61867664410579
 21
-96.749646231543977
  0
LINE
  8
_0-7_細線
  6
CONTINUOUS
 62
    4
 10
257.61867664410579
 20
-96.749646231543977
 11
261.51867664410577
 21
-96.749646231543977
  0
LINE
  8
_0-7_細線
  6
CONTINUOUS
 62
    4
 10
262.76110123352078
 20
-96.749646231543977
 11
266.66110123352041
 21
-96.749646231543977
  0
LINE
  8
_0-7_細線
  6
CONTINUOUS
 62
    4
 10
273.92366610982504
 20
-96.749646231543977
 11
277.82366610982513
 21
-96.749646231543977
  0
LINE
  8
_0-7_細線
  6
CONTINUOUS
 62
    4
 10
279.32335255440762
 20
-96.749646231543977
 11
283.21464128550241
 21
-96.749646231543977
  0
LINE
  8
_0-7_細線
  6
CONTINUOUS
 62
    4
 10
288.55994424269988
 20
-96.749646231543977
 11
291.85994424270007
 21
-96.749646231543977
  0
LINE
  8
_0-7_細線
  6
CONTINUOUS
 62
    4
 10
204.46788117932897
 20
-96.149646231544068
 11
208.36788117932861
 21
-96.149646231544068
  0
LINE
  8
_0-7_細線
  6
CONTINUOUS
 62
    4
 10
208.6143135943073
 20
-96.149646231544068
 11
212.51431359430688
 21
-96.149646231544068
  0
LINE
  8
_0-7_細線
  6
CONTINUOUS
 62
    4
 10
220.3347763057584
 20
-96.149646231544068
 11
224.23477630575849
 21
-96.149646231544068
  0
LINE
  8
_0-7_細線
  6
CONTINUOUS
 62
    4
 10
232.54736005650619
 20
-96.149646231544068
 11
236.61622968536969
 21
-96.149646231544068
  0
LINE
  8
_0-7_細線
  6
CONTINUOUS
 62
    4
 10
239.37305306490151
 20
-96.149646231544068
 11
243.27305306490209
 21
-96.149646231544068
  0
LINE
  8
_0-7_細線
  6
CONTINUOUS
 62
    4
 10
250.9984612389992
 20
-96.149646231544068
 11
254.89846123899929
 21
-96.149646231544068
  0
LINE
  8
_0-7_細線
  6
CONTINUOUS
 62
    4
 10
257.89846123899929
 20
-96.149646231544068
 11
261.79846123899893
 21
-96.149646231544068
  0
LINE
  8
_0-7_細線
  6
CONTINUOUS
 62
    4
 10
262.48131663862773
 20
-96.149646231544068
 11
266.38131663862782
 21
-96.149646231544068
  0
LINE
  8
_0-7_細線
  6
CONTINUOUS
 62
    4
 10
273.92366610982504
 20
-96.149646231544068
 11
277.82366610982513
 21
-96.149646231544068
  0
LINE
  8
_0-7_細線
  6
CONTINUOUS
 62
    4
 10
278.94843094326211
 20
-96.149646231544068
 11
282.8397196743569
 21
-96.149646231544068
  0
LINE
  8
_0-7_細線
  6
CONTINUOUS
 62
    4
 10
288.55994424269988
 20
-96.149646231544068
 11
291.85994424270007
 21
-96.149646231544068
  0
LINE
  8
_0-7_細線
  6
CONTINUOUS
 62
    4
 10
204.74766577422156
 20
-95.549646231544386
 11
212.2345289994139
 21
-95.549646231544386
  0
LINE
  8
_0-7_細線
  6
CONTINUOUS
 62
    4
 10
220.3347763057584
 20
-95.549646231544386
 11
224.23477630575849
 21
-95.549646231544386
  0
LINE
  8
_0-7_細線
  6
CONTINUOUS
 62
    4
 10
232.04897555489168
 20
-95.549646231544386
 11
236.44514255851459
 21
-95.549646231544386
  0
LINE
  8
_0-7_細線
  6
CONTINUOUS
 62
    4
 10
239.09326847000889
 20
-95.549646231544386
 11
242.9932684700095
 21
-95.549646231544386
  0
LINE
  8
_0-7_細線
  6
CONTINUOUS
 62
    4
 10
251.27824583389221
 20
-95.549646231544386
 11
255.17824583389191
 21
-95.549646231544386
  0
LINE
  8
_0-7_細線
  6
CONTINUOUS
 62
    4
 10
258.17824583389188
 20
-95.549646231544386
 11
262.07824583389197
 21
-95.549646231544386
  0
LINE
  8
_0-7_細線
  6
CONTINUOUS
 62
    4
 10
262.20153204373469
 20
-95.549646231544386
 11
266.10153204373432
 21
-95.549646231544386
  0
LINE
  8
_0-7_細線
  6
CONTINUOUS
 62
    4
 10
273.92366610982504
 20
-95.549646231544386
 11
277.82366610982513
 21
-95.549646231544386
  0
LINE
  8
_0-7_細線
  6
CONTINUOUS
 62
    4
 10
278.5735093321166
 20
-95.549646231544386
 11
282.46479806321139
 21
-95.549646231544386
  0
LINE
  8
_0-7_細線
  6
CONTINUOUS
 62
    4
 10
288.55994424269988
 20
-95.549646231544386
 11
291.85994424270007
 21
-95.549646231544386
  0
LINE
  8
_0-7_細線
  6
CONTINUOUS
 62
    4
 10
205.027450369115
 20
-94.949646231543909
 11
211.9547444045208
 21
-94.949646231543909
  0
LINE
  8
_0-7_細線
  6
CONTINUOUS
 62
    4
 10
220.3347763057584
 20
-94.949646231543909
 11
224.23477630575849
 21
-94.949646231543909
  0
LINE
  8
_0-7_細線
  6
CONTINUOUS
 62
    4
 10
231.27083395200378
 20
-94.949646231543909
 11
236.23356310580741
 21
-94.949646231543909
  0
LINE
  8
_0-7_細線
  6
CONTINUOUS
 62
    4
 10
238.81348387511551
 20
-94.949646231543909
 11
242.713483875116
 21
-94.949646231543909
  0
LINE
  8
_0-7_細線
  6
CONTINUOUS
 62
    4
 10
251.5580304287852
 20
-94.949646231543909
 11
255.45803042878541
 21
-94.949646231543909
  0
LINE
  8
_0-7_細線
  6
CONTINUOUS
 62
    4
 10
258.45803042878538
 20
-94.949646231543909
 11
265.82174744884173
 21
-94.949646231543909
  0
LINE
  8
_0-7_細線
  6
CONTINUOUS
 62
    4
 10
273.92366610982504
 20
-94.949646231543909
 11
277.82366610982513
 21
-94.949646231543909
  0
LINE
  8
_0-7_細線
  6
CONTINUOUS
 62
    4
 10
278.19858772097109
 20
-94.949646231543909
 11
282.08987645206594
 21
-94.949646231543909
  0
LINE
  8
_0-7_細線
  6
CONTINUOUS
 62
    4
 10
288.55994424269988
 20
-94.949646231543909
 11
291.85994424270007
 21
-94.949646231543909
  0
LINE
  8
_0-7_細線
  6
CONTINUOUS
 62
    4
 10
205.30723496400759
 20
-94.349646231544114
 11
211.67495980962781
 21
-94.349646231544114
  0
LINE
  8
_0-7_細線
  6
CONTINUOUS
 62
    4
 10
220.3347763057584
 20
-94.349646231544114
 11
224.23477630575849
 21
-94.349646231544114
  0
LINE
  8
_0-7_細線
  6
CONTINUOUS
 62
    4
 10
230.23477630575849
 20
-94.349646231544114
 11
235.93477630575779
 21
-94.349646231544114
  0
LINE
  8
_0-7_細線
  6
CONTINUOUS
 62
    4
 10
238.53369928022329
 20
-94.349646231544114
 11
242.43369928022341
 21
-94.349646231544114
  0
LINE
  8
_0-7_細線
  6
CONTINUOUS
 62
    4
 10
251.83781502367739
 20
-94.349646231544114
 11
255.737815023678
 21
-94.349646231544114
  0
LINE
  8
_0-7_細線
  6
CONTINUOUS
 62
    4
 10
258.73781502367791
 20
-94.349646231544114
 11
265.54196285394823
 21
-94.349646231544114
  0
LINE
  8
_0-7_細線
  6
CONTINUOUS
 62
    4
 10
273.92366610982504
 20
-94.349646231544114
 11
277.82366610982513
 21
-94.349646231544114
  0
LINE
  8
_0-7_細線
  6
CONTINUOUS
 62
    4
 10
277.82366610982513
 20
-94.349646231544114
 11
281.71495484092043
 21
-94.349646231544114
  0
LINE
  8
_0-7_細線
  6
CONTINUOUS
 62
    4
 10
288.55994424269988
 20
-94.349646231544114
 11
291.85994424270007
 21
-94.349646231544114
  0
LINE
  8
_0-7_細線
  6
CONTINUOUS
 62
    4
 10
205.58701955890018
 20
-93.749646231543977
 11
211.39517521473471
 21
-93.749646231543977
  0
LINE
  8
_0-7_細線
  6
CONTINUOUS
 62
    4
 10
220.3347763057584
 20
-93.749646231543977
 11
235.45781629340189
 21
-93.749646231543977
  0
LINE
  8
_0-7_細線
  6
CONTINUOUS
 62
    4
 10
238.25391468532939
 20
-93.749646231543977
 11
242.15391468532991
 21
-93.749646231543977
  0
LINE
  8
_0-7_細線
  6
CONTINUOUS
 62
    4
 10
252.11759961857089
 20
-93.749646231543977
 11
256.01759961857141
 21
-93.749646231543977
  0
LINE
  8
_0-7_細線
  6
CONTINUOUS
 62
    4
 10
259.01759961857141
 20
-93.749646231543977
 11
265.26217825905559
 21
-93.749646231543977
  0
LINE
  8
_0-7_細線
  6
CONTINUOUS
 62
    4
 10
273.92366610982504
 20
-93.749646231543977
 11
281.34003322977492
 21
-93.749646231543977
  0
LINE
  8
_0-7_細線
  6
CONTINUOUS
 62
    4
 10
288.55994424269988
 20
-93.749646231543977
 11
291.85994424270007
 21
-93.749646231543977
  0
LINE
  8
_0-7_細線
  6
CONTINUOUS
 62
    4
 10
205.8668041537932
 20
-93.149646231544182
 11
211.11539061984172
 21
-93.149646231544182
  0
LINE
  8
_0-7_細線
  6
CONTINUOUS
 62
    4
 10
220.3347763057584
 20
-93.149646231544182
 11
234.7845362335772
 21
-93.149646231544182
  0
LINE
  8
_0-7_細線
  6
CONTINUOUS
 62
    4
 10
237.9741300904372
 20
-93.149646231544182
 11
241.87413009043729
 21
-93.149646231544182
  0
LINE
  8
_0-7_細線
  6
CONTINUOUS
 62
    4
 10
252.39738421346351
 20
-93.149646231544182
 11
256.297384213464
 21
-93.149646231544182
  0
LINE
  8
_0-7_細線
  6
CONTINUOUS
 62
    4
 10
259.297384213464
 20
-93.149646231544182
 11
264.982393664163
 21
-93.149646231544182
  0
LINE
  8
_0-7_細線
  6
CONTINUOUS
 62
    4
 10
273.92366610982504
 20
-93.149646231544182
 11
280.96511161862941
 21
-93.149646231544182
  0
LINE
  8
_0-7_細線
  6
CONTINUOUS
 62
    4
 10
288.55994424269988
 20
-93.149646231544182
 11
291.85994424270007
 21
-93.149646231544182
  0
LINE
  8
_0-7_細線
  6
CONTINUOUS
 62
    4
 10
206.1465887486863
 20
-92.549646231544386
 11
210.8356060249487
 21
-92.549646231544386
  0
LINE
  8
_0-7_細線
  6
CONTINUOUS
 62
    4
 10
220.3347763057584
 20
-92.549646231544386
 11
233.7831967236782
 21
-92.549646231544386
  0
LINE
  8
_0-7_細線
  6
CONTINUOUS
 62
    4
 10
237.69434549554421
 20
-92.549646231544386
 11
241.59434549554379
 21
-92.549646231544386
  0
LINE
  8
_0-7_細線
  6
CONTINUOUS
 62
    4
 10
252.67716880835701
 20
-92.549646231544386
 11
256.57716880835659
 21
-92.549646231544386
  0
LINE
  8
_0-7_細線
  6
CONTINUOUS
 62
    4
 10
259.5771688083575
 20
-92.549646231544386
 11
264.70260906927001
 21
-92.549646231544386
  0
LINE
  8
_0-7_細線
  6
CONTINUOUS
 62
    4
 10
273.92366610982504
 20
-92.549646231544386
 11
280.5901900074839
 21
-92.549646231544386
  0
LINE
  8
_0-7_細線
  6
CONTINUOUS
 62
    4
 10
288.55994424269988
 20
-92.549646231544386
 11
291.85994424270007
 21
-92.549646231544386
  0
LINE
  8
_0-7_細線
  6
CONTINUOUS
 62
    4
 10
206.4263733435794
 20
-91.949646231544136
 11
210.5558214300556
 21
-91.949646231544136
  0
LINE
  8
_0-7_細線
  6
CONTINUOUS
 62
    4
 10
220.3347763057584
 20
-91.949646231544136
 11
232.33477630575788
 21
-91.949646231544136
  0
LINE
  8
_0-7_細線
  6
CONTINUOUS
 62
    4
 10
237.4145609006512
 20
-91.949646231544136
 11
241.3145609006512
 21
-91.949646231544136
  0
LINE
  8
_0-7_細線
  6
CONTINUOUS
 62
    4
 10
252.9569534032496
 20
-91.949646231544136
 11
256.85695340325009
 21
-91.949646231544136
  0
LINE
  8
_0-7_細線
  6
CONTINUOUS
 62
    4
 10
259.85695340325009
 20
-91.949646231544136
 11
264.42282447437691
 21
-91.949646231544136
  0
LINE
  8
_0-7_細線
  6
CONTINUOUS
 62
    4
 10
273.92366610982504
 20
-91.949646231544136
 11
280.21526839633839
 21
-91.949646231544136
  0
LINE
  8
_0-7_細線
  6
CONTINUOUS
 62
    4
 10
288.55994424269988
 20
-91.949646231544136
 11
291.85994424270007
 21
-91.949646231544136
  0
LINE
  8
_0-7_細線
  6
CONTINUOUS
 62
    4
 10
206.70615793847242
 20
-91.349646231544114
 11
210.2760368351635
 21
-91.349646231544114
  0
LINE
  8
_0-7_細線
  6
CONTINUOUS
 62
    4
 10
220.3347763057584
 20
-91.349646231544114
 11
230.23477630575849
 21
-91.349646231544114
  0
LINE
  8
_0-7_細線
  6
CONTINUOUS
 62
    4
 10
237.13477630575809
 20
-91.349646231544114
 11
241.0347763057577
 21
-91.349646231544114
  0
LINE
  8
_0-7_細線
  6
CONTINUOUS
 62
    4
 10
253.2367379981431
 20
-91.349646231544114
 11
257.13673799814273
 21
-91.349646231544114
  0
LINE
  8
_0-7_細線
  6
CONTINUOUS
 62
    4
 10
260.13673799814359
 20
-91.349646231544114
 11
264.14303987948392
 21
-91.349646231544114
  0
LINE
  8
_0-7_細線
  6
CONTINUOUS
 62
    4
 10
273.92366610982504
 20
-91.349646231544114
 11
279.84034678519288
 21
-91.349646231544114
  0
LINE
  8
_0-7_細線
  6
CONTINUOUS
 62
    4
 10
288.55994424269988
 20
-91.349646231544114
 11
291.85994424270007
 21
-91.349646231544114
  0
LINE
  8
_0-7_細線
  6
CONTINUOUS
 62
    4
 10
198.73229698402224
 20
-108.44964623154391
 11
202.63229698402188
 21
-108.44964623154391
  0
LINE
  8
_0-7_細線
  6
CONTINUOUS
 62
    4
 10
214.3498977896131
 20
-108.44964623154391
 11
218.2498977896127
 21
-108.44964623154391
  0
LINE
  8
_0-7_細線
  6
CONTINUOUS
 62
    4
 10
220.3347763057584
 20
-108.44964623154391
 11
230.86695810819691
 21
-108.44964623154391
  0
LINE
  8
_0-7_細線
  6
CONTINUOUS
 62
    4
 10
245.1086372602083
 20
-108.44964623154391
 11
249.1628770436925
 21
-108.44964623154391
  0
LINE
  8
_0-7_細線
  6
CONTINUOUS
 62
    4
 10
252.16287704369299
 20
-108.44964623154391
 11
256.06287704369311
 21
-108.44964623154391
  0
LINE
  8
_0-7_細線
  6
CONTINUOUS
 62
    4
 10
268.2169008339344
 20
-108.44964623154391
 11
272.11690083393449
 21
-108.44964623154391
  0
LINE
  8
_0-7_細線
  6
CONTINUOUS
 62
    4
 10
273.92366610982504
 20
-108.44964623154391
 11
277.82366610982513
 21
-108.44964623154391
  0
LINE
  8
_0-7_細線
  6
CONTINUOUS
 62
    4
 10
286.63432397174677
 20
-108.44964623154391
 11
291.85994424270007
 21
-108.44964623154391
  0
LINE
  8
_0-7_細線
  6
CONTINUOUS
 62
    4
 10
199.01208157891483
 20
-107.84964623154411
 11
202.91208157891492
 21
-107.84964623154411
  0
LINE
  8
_0-7_細線
  6
CONTINUOUS
 62
    4
 10
214.07011319472051
 20
-107.84964623154411
 11
217.9701131947206
 21
-107.84964623154411
  0
LINE
  8
_0-7_細線
  6
CONTINUOUS
 62
    4
 10
220.3347763057584
 20
-107.84964623154411
 11
232.79246425550969
 21
-107.84964623154411
  0
LINE
  8
_0-7_細線
  6
CONTINUOUS
 62
    4
 10
244.82885266531571
 20
-107.84964623154411
 11
249.44266163858509
 21
-107.84964623154411
  0
LINE
  8
_0-7_細線
  6
CONTINUOUS
 62
    4
 10
252.44266163858509
 20
-107.84964623154411
 11
256.3426616385857
 21
-107.84964623154411
  0
LINE
  8
_0-7_細線
  6
CONTINUOUS
 62
    4
 10
267.93711623904142
 20
-107.84964623154411
 11
271.83711623904099
 21
-107.84964623154411
  0
LINE
  8
_0-7_細線
  6
CONTINUOUS
 62
    4
 10
273.92366610982504
 20
-107.84964623154411
 11
277.82366610982513
 21
-107.84964623154411
  0
LINE
  8
_0-7_細線
  6
CONTINUOUS
 62
    4
 10
286.25940236060137
 20
-107.84964623154411
 11
291.85994424270007
 21
-107.84964623154411
  0
LINE
  8
_0-7_細線
  6
CONTINUOUS
 62
    4
 10
199.29186617380833
 20
-107.2496462315442
 11
203.19186617380797
 21
-107.2496462315442
  0
LINE
  8
_0-7_細線
  6
CONTINUOUS
 62
    4
 10
213.79032859982789
 20
-107.2496462315442
 11
217.6903285998267
 21
-107.2496462315442
  0
LINE
  8
_0-7_細線
  6
CONTINUOUS
 62
    4
 10
220.3347763057584
 20
-107.2496462315442
 11
234.1088946503175
 21
-107.2496462315442
  0
LINE
  8
_0-7_細線
  6
CONTINUOUS
 62
    4
 10
244.54906807042221
 20
-107.2496462315442
 11
249.72244623347859
 21
-107.2496462315442
  0
LINE
  8
_0-7_細線
  6
CONTINUOUS
 62
    4
 10
252.72244623347859
 20
-107.2496462315442
 11
256.6224462334792
 21
-107.2496462315442
  0
LINE
  8
_0-7_細線
  6
CONTINUOUS
 62
    4
 10
267.65733164414792
 20
-107.2496462315442
 11
271.55733164414841
 21
-107.2496462315442
  0
LINE
  8
_0-7_細線
  6
CONTINUOUS
 62
    4
 10
273.92366610982504
 20
-107.2496462315442
 11
277.82366610982513
 21
-107.2496462315442
  0
LINE
  8
_0-7_細線
  6
CONTINUOUS
 62
    4
 10
285.8844807494558
 20
-107.2496462315442
 11
291.85994424270007
 21
-107.2496462315442
  0
LINE
  8
_0-7_細線
  6
CONTINUOUS
 62
    4
 10
199.57165076870092
 20
-106.64964623154418
 11
203.47165076870101
 21
-106.64964623154418
  0
LINE
  8
_0-7_細線
  6
CONTINUOUS
 62
    4
 10
213.51054400493439
 20
-106.64964623154418
 11
217.41054400493448
 21
-106.64964623154418
  0
LINE
  8
_0-7_細線
  6
CONTINUOUS
 62
    4
 10
220.3347763057584
 20
-106.64964623154418
 11
234.99177607121891
 21
-106.64964623154418
  0
LINE
  8
_0-7_細線
  6
CONTINUOUS
 62
    4
 10
244.26928347552959
 20
-106.64964623154418
 11
250.00223082837121
 21
-106.64964623154418
  0
LINE
  8
_0-7_細線
  6
CONTINUOUS
 62
    4
 10
253.00223082837121
 20
-106.64964623154418
 11
256.90223082837178
 21
-106.64964623154418
  0
LINE
  8
_0-7_細線
  6
CONTINUOUS
 62
    4
 10
267.37754704925533
 20
-106.64964623154418
 11
271.27754704925491
 21
-106.64964623154418
  0
LINE
  8
_0-7_細線
  6
CONTINUOUS
 62
    4
 10
273.92366610982504
 20
-106.64964623154418
 11
277.82366610982513
 21
-106.64964623154418
  0
LINE
  8
_0-7_細線
  6
CONTINUOUS
 62
    4
 10
285.5095591383099
 20
-106.64964623154418
 11
291.85994424270007
 21
-106.64964623154418
  0
LINE
  8
_0-7_細線
  6
CONTINUOUS
 62
    4
 10
199.85143536359442
 20
-106.04964623154405
 11
203.75143536359406
 21
-106.04964623154405
  0
LINE
  8
_0-7_細線
  6
CONTINUOUS
 62
    4
 10
213.2307594100418
 20
-106.04964623154405
 11
217.13075941004149
 21
-106.04964623154405
  0
LINE
  8
_0-7_細線
  6
CONTINUOUS
 62
    4
 10
220.3347763057584
 20
-106.04964623154405
 11
235.61048321614251
 21
-106.04964623154405
  0
LINE
  8
_0-7_細線
  6
CONTINUOUS
 62
    4
 10
243.98949888063609
 20
-106.04964623154405
 11
250.28201542326471
 21
-106.04964623154405
  0
LINE
  8
_0-7_細線
  6
CONTINUOUS
 62
    4
 10
253.28201542326471
 20
-106.04964623154405
 11
257.18201542326426
 21
-106.04964623154405
  0
LINE
  8
_0-7_細線
  6
CONTINUOUS
 62
    4
 10
267.09776245436228
 20
-106.04964623154405
 11
270.99776245436226
 21
-106.04964623154405
  0
LINE
  8
_0-7_細線
  6
CONTINUOUS
 62
    4
 10
273.92366610982504
 20
-106.04964623154405
 11
277.82366610982513
 21
-106.04964623154405
  0
LINE
  8
_0-7_細線
  6
CONTINUOUS
 62
    4
 10
285.13463752716484
 20
-106.04964623154405
 11
291.85994424270007
 21
-106.04964623154405
  0
LINE
  8
_0-7_細線
  6
CONTINUOUS
 62
    4
 10
200.13121995848701
 20
-105.44964623154414
 11
204.0312199584871
 21
-105.44964623154414
  0
LINE
  8
_0-7_細線
  6
CONTINUOUS
 62
    4
 10
212.9509748151483
 20
-105.44964623154414
 11
216.85097481514839
 21
-105.44964623154414
  0
LINE
  8
_0-7_細線
  6
CONTINUOUS
 62
    4
 10
220.3347763057584
 20
-105.44964623154414
 11
224.23477630575849
 21
-105.44964623154414
  0
LINE
  8
_0-7_細線
  6
CONTINUOUS
 62
    4
 10
230.53431075926051
 20
-105.44964623154414
 11
236.02831842183579
 21
-105.44964623154414
  0
LINE
  8
_0-7_細線
  6
CONTINUOUS
 62
    4
 10
243.7097142857435
 20
-105.44964623154414
 11
250.5618000181573
 21
-105.44964623154414
  0
LINE
  8
_0-7_細線
  6
CONTINUOUS
 62
    4
 10
253.5618000181573
 20
-105.44964623154414
 11
257.46180001815742
 21
-105.44964623154414
  0
LINE
  8
_0-7_細線
  6
CONTINUOUS
 62
    4
 10
266.81797785946924
 20
-105.44964623154414
 11
270.71797785946876
 21
-105.44964623154414
  0
LINE
  8
_0-7_細線
  6
CONTINUOUS
 62
    4
 10
273.92366610982504
 20
-105.44964623154414
 11
277.82366610982513
 21
-105.44964623154414
  0
LINE
  8
_0-7_細線
  6
CONTINUOUS
 62
    4
 10
284.75971591601876
 20
-105.44964623154414
 11
291.85994424270007
 21
-105.44964623154414
  0
LINE
  8
_0-7_細線
  6
CONTINUOUS
 62
    4
 10
200.41100455338051
 20
-104.849646231544
 11
204.31100455338014
 21
-104.849646231544
  0
LINE
  8
_0-7_細線
  6
CONTINUOUS
 62
    4
 10
212.67119022025571
 20
-104.849646231544
 11
216.5711902202554
 21
-104.849646231544
  0
LINE
  8
_0-7_細線
  6
CONTINUOUS
 62
    4
 10
220.3347763057584
 20
-104.849646231544
 11
224.23477630575849
 21
-104.849646231544
  0
LINE
  8
_0-7_細線
  6
CONTINUOUS
 62
    4
 10
231.51781214327701
 20
-104.849646231544
 11
236.2970458564325
 21
-104.849646231544
  0
LINE
  8
_0-7_細線
  6
CONTINUOUS
 62
    4
 10
243.42992969085
 20
-104.849646231544
 11
250.8415846130508
 21
-104.849646231544
  0
LINE
  8
_0-7_細線
  6
CONTINUOUS
 62
    4
 10
253.8415846130508
 20
-104.849646231544
 11
257.74158461305041
 21
-104.849646231544
  0
LINE
  8
_0-7_細線
  6
CONTINUOUS
 62
    4
 10
266.53819326457619
 20
-104.849646231544
 11
270.43819326457628
 21
-104.849646231544
  0
LINE
  8
_0-7_細線
  6
CONTINUOUS
 62
    4
 10
273.92366610982504
 20
-104.849646231544
 11
277.82366610982513
 21
-104.849646231544
  0
LINE
  8
_0-7_細線
  6
CONTINUOUS
 62
    4
 10
284.38479430487331
 20
-104.849646231544
 11
288.27608303596861
 21
-104.849646231544
  0
LINE
  8
_0-7_細線
  6
CONTINUOUS
 62
    4
 10
288.55994424269988
 20
-104.849646231544
 11
291.85994424270007
 21
-104.849646231544
  0
LINE
  8
_0-7_細線
  6
CONTINUOUS
 62
    4
 10
200.6907891482731
 20
-104.2496462315442
 11
216.2914056253623
 21
-104.2496462315442
  0
LINE
  8
_0-7_細線
  6
CONTINUOUS
 62
    4
 10
220.3347763057584
 20
-104.2496462315442
 11
224.23477630575849
 21
-104.2496462315442
  0
LINE
  8
_0-7_細線
  6
CONTINUOUS
 62
    4
 10
232.2169218714632
 20
-104.2496462315442
 11
236.49582156872631
 21
-104.2496462315442
  0
LINE
  8
_0-7_細線
  6
CONTINUOUS
 62
    4
 10
243.15014509595741
 20
-104.2496462315442
 11
247.05014509595699
 21
-104.2496462315442
  0
LINE
  8
_0-7_細線
  6
CONTINUOUS
 62
    4
 10
247.22136920794381
 20
-104.2496462315442
 11
251.12136920794339
 21
-104.2496462315442
  0
LINE
  8
_0-7_細線
  6
CONTINUOUS
 62
    4
 10
254.12136920794339
 20
-104.2496462315442
 11
270.15840866968279
 21
-104.2496462315442
  0
LINE
  8
_0-7_細線
  6
CONTINUOUS
 62
    4
 10
273.92366610982504
 20
-104.2496462315442
 11
277.82366610982513
 21
-104.2496462315442
  0
LINE
  8
_0-7_細線
  6
CONTINUOUS
 62
    4
 10
284.0098726937278
 20
-104.2496462315442
 11
287.9011614248227
 21
-104.2496462315442
  0
LINE
  8
_0-7_細線
  6
CONTINUOUS
 62
    4
 10
288.55994424269988
 20
-104.2496462315442
 11
291.85994424270007
 21
-104.2496462315442
  0
LINE
  8
_0-7_細線
  6
CONTINUOUS
 62
    4
 10
200.9705737431666
 20
-103.64964623154418
 11
216.01162103046931
 21
-103.64964623154418
  0
LINE
  8
_0-7_細線
  6
CONTINUOUS
 62
    4
 10
220.3347763057584
 20
-103.64964623154418
 11
224.23477630575849
 21
-103.64964623154418
  0
LINE
  8
_0-7_細線
  6
CONTINUOUS
 62
    4
 10
232.62966002487769
 20
-103.64964623154418
 11
236.6583551468982
 21
-103.64964623154418
  0
LINE
  8
_0-7_細線
  6
CONTINUOUS
 62
    4
 10
242.87036050106391
 20
-103.64964623154418
 11
246.77036050106449
 21
-103.64964623154418
  0
LINE
  8
_0-7_細線
  6
CONTINUOUS
 62
    4
 10
247.5011538028368
 20
-103.64964623154418
 11
251.40115380283689
 21
-103.64964623154418
  0
LINE
  8
_0-7_細線
  6
CONTINUOUS
 62
    4
 10
254.40115380283689
 20
-103.64964623154418
 11
269.8786240747902
 21
-103.64964623154418
  0
LINE
  8
_0-7_細線
  6
CONTINUOUS
 62
    4
 10
273.92366610982504
 20
-103.64964623154418
 11
277.82366610982513
 21
-103.64964623154418
  0
LINE
  8
_0-7_細線
  6
CONTINUOUS
 62
    4
 10
283.63495108258189
 20
-103.64964623154418
 11
287.52623981367719
 21
-103.64964623154418
  0
LINE
  8
_0-7_細線
  6
CONTINUOUS
 62
    4
 10
288.55994424269988
 20
-103.64964623154418
 11
291.85994424270007
 21
-103.64964623154418
  0
LINE
  8
_0-7_細線
  6
CONTINUOUS
 62
    4
 10
201.25035833805873
 20
-103.04964623154405
 11
215.73183643557621
 21
-103.04964623154405
  0
LINE
  8
_0-7_細線
  6
CONTINUOUS
 62
    4
 10
220.3347763057584
 20
-103.04964623154405
 11
224.23477630575849
 21
-103.04964623154405
  0
LINE
  8
_0-7_細線
  6
CONTINUOUS
 62
    4
 10
232.89052190673399
 20
-103.04964623154405
 11
236.79996621660229
 21
-103.04964623154405
  0
LINE
  8
_0-7_細線
  6
CONTINUOUS
 62
    4
 10
242.5905759061713
 20
-103.04964623154405
 11
246.49057590617099
 21
-103.04964623154405
  0
LINE
  8
_0-7_細線
  6
CONTINUOUS
 62
    4
 10
247.7809383977289
 20
-103.04964623154405
 11
251.68093839772951
 21
-103.04964623154405
  0
LINE
  8
_0-7_細線
  6
CONTINUOUS
 62
    4
 10
254.68093839772951
 20
-103.04964623154405
 11
269.59883947989761
 21
-103.04964623154405
  0
LINE
  8
_0-7_細線
  6
CONTINUOUS
 62
    4
 10
273.92366610982504
 20
-103.04964623154405
 11
277.82366610982513
 21
-103.04964623154405
  0
LINE
  8
_0-7_細線
  6
CONTINUOUS
 62
    4
 10
283.26002947143627
 20
-103.04964623154405
 11
287.15131820253168
 21
-103.04964623154405
  0
LINE
  8
_0-7_細線
  6
CONTINUOUS
 62
    4
 10
288.55994424269988
 20
-103.04964623154405
 11
291.85994424270007
 21
-103.04964623154405
  0
LINE
  8
_0-7_細線
  6
CONTINUOUS
 62
    4
 10
201.53014293295178
 20
-102.44964623154391
 11
215.4520518406832
 21
-102.44964623154391
  0
LINE
  8
_0-7_細線
  6
CONTINUOUS
 62
    4
 10
220.3347763057584
 20
-102.44964623154391
 11
224.23477630575849
 21
-102.44964623154391
  0
LINE
  8
_0-7_細線
  6
CONTINUOUS
 62
    4
 10
233.05332828238139
 20
-102.44964623154391
 11
236.91561762548071
 21
-102.44964623154391
  0
LINE
  8
_0-7_細線
  6
CONTINUOUS
 62
    4
 10
242.3107913112778
 20
-102.44964623154391
 11
246.2107913112784
 21
-102.44964623154391
  0
LINE
  8
_0-7_細線
  6
CONTINUOUS
 62
    4
 10
248.06072299262291
 20
-102.44964623154391
 11
251.960722992623
 21
-102.44964623154391
  0
LINE
  8
_0-7_細線
  6
CONTINUOUS
 62
    4
 10
254.960722992623
 20
-102.44964623154391
 11
269.31905488500411
 21
-102.44964623154391
  0
LINE
  8
_0-7_細線
  6
CONTINUOUS
 62
    4
 10
273.92366610982504
 20
-102.44964623154391
 11
277.82366610982513
 21
-102.44964623154391
  0
LINE
  8
_0-7_細線
  6
CONTINUOUS
 62
    4
 10
282.88510786029087
 20
-102.44964623154391
 11
286.77639659138617
 21
-102.44964623154391
  0
LINE
  8
_0-7_細線
  6
CONTINUOUS
 62
    4
 10
288.55994424269988
 20
-102.44964623154391
 11
291.85994424270007
 21
-102.44964623154391
  0
LINE
  8
_0-7_細線
  6
CONTINUOUS
 62
    4
 10
201.80992752784482
 20
-101.849646231544
 11
215.17226724579018
 21
-101.849646231544
  0
LINE
  8
_0-7_細線
  6
CONTINUOUS
 62
    4
 10
220.3347763057584
 20
-101.849646231544
 11
224.23477630575849
 21
-101.849646231544
  0
LINE
  8
_0-7_細線
  6
CONTINUOUS
 62
    4
 10
233.15225666039461
 20
-101.849646231544
 11
237.00655457402331
 21
-101.849646231544
  0
LINE
  8
_0-7_細線
  6
CONTINUOUS
 62
    4
 10
242.03100671638521
 20
-101.849646231544
 11
245.93100671638581
 21
-101.849646231544
  0
LINE
  8
_0-7_細線
  6
CONTINUOUS
 62
    4
 10
248.34050758751499
 20
-101.849646231544
 11
252.24050758751559
 21
-101.849646231544
  0
LINE
  8
_0-7_細線
  6
CONTINUOUS
 62
    4
 10
255.24050758751511
 20
-101.849646231544
 11
269.03927029011152
 21
-101.849646231544
  0
LINE
  8
_0-7_細線
  6
CONTINUOUS
 62
    4
 10
273.92366610982504
 20
-101.849646231544
 11
277.82366610982513
 21
-101.849646231544
  0
LINE
  8
_0-7_細線
  6
CONTINUOUS
 62
    4
 10
282.51018624914531
 20
-101.849646231544
 11
286.40147498024061
 21
-101.849646231544
  0
LINE
  8
_0-7_細線
  6
CONTINUOUS
 62
    4
 10
288.55994424269988
 20
-101.849646231544
 11
291.85994424270007
 21
-101.849646231544
  0
LINE
  8
_0-7_細線
  6
CONTINUOUS
 62
    4
 10
202.08971212273786
 20
-101.24964623154398
 11
205.9897121227375
 21
-101.24964623154398
  0
LINE
  8
_0-7_細線
  6
CONTINUOUS
 62
    4
 10
210.9924826508975
 20
-101.24964623154398
 11
214.89248265089708
 21
-101.24964623154398
  0
LINE
  8
_0-7_細線
  6
CONTINUOUS
 62
    4
 10
220.3347763057584
 20
-101.24964623154398
 11
224.23477630575849
 21
-101.24964623154398
  0
LINE
  8
_0-7_細線
  6
CONTINUOUS
 62
    4
 10
233.2029797568355
 20
-101.24964623154398
 11
237.07300417398321
 21
-101.24964623154398
  0
LINE
  8
_0-7_細線
  6
CONTINUOUS
 62
    4
 10
241.75122212149179
 20
-101.24964623154398
 11
245.65122212149231
 21
-101.24964623154398
  0
LINE
  8
_0-7_細線
  6
CONTINUOUS
 62
    4
 10
248.620292182409
 20
-101.24964623154398
 11
252.52029218240909
 21
-101.24964623154398
  0
LINE
  8
_0-7_細線
  6
CONTINUOUS
 62
    4
 10
255.52029218240821
 20
-101.24964623154398
 11
259.42029218240873
 21
-101.24964623154398
  0
LINE
  8
_0-7_細線
  6
CONTINUOUS
 62
    4
 10
264.85948569521838
 20
-101.24964623154398
 11
268.75948569521802
 21
-101.24964623154398
  0
LINE
  8
_0-7_細線
  6
CONTINUOUS
 62
    4
 10
273.92366610982504
 20
-101.24964623154398
 11
277.82366610982513
 21
-101.24964623154398
  0
LINE
  8
_0-7_細線
  6
CONTINUOUS
 62
    4
 10
282.1352646379998
 20
-101.24964623154398
 11
286.0265533690951
 21
-101.24964623154398
  0
LINE
  8
_0-7_細線
  6
CONTINUOUS
 62
    4
 10
288.55994424269988
 20
-101.24964623154398
 11
291.85994424270007
 21
-101.24964623154398
  0
LINE
  8
_0-7_細線
  6
CONTINUOUS
 62
    4
 10
202.36949671763091
 20
-100.64964623154407
 11
206.269496717631
 21
-100.64964623154407
  0
LINE
  8
_0-7_細線
  6
CONTINUOUS
 62
    4
 10
210.712698056004
 20
-100.64964623154407
 11
214.61269805600449
 21
-100.64964623154407
  0
LINE
  8
_0-7_細線
  6
CONTINUOUS
 62
    4
 10
220.3347763057584
 20
-100.64964623154407
 11
224.23477630575849
 21
-100.64964623154407
  0
LINE
  8
_0-7_細線
  6
CONTINUOUS
 62
    4
 10
233.22553604498279
 20
-100.64964623154407
 11
237.11447604285669
 21
-100.64964623154407
  0
LINE
  8
_0-7_細線
  6
CONTINUOUS
 62
    4
 10
241.4714375265996
 20
-100.64964623154407
 11
245.37143752659969
 21
-100.64964623154407
  0
LINE
  8
_0-7_細線
  6
CONTINUOUS
 62
    4
 10
248.90007677730111
 20
-100.64964623154407
 11
252.80007677730171
 21
-100.64964623154407
  0
LINE
  8
_0-7_細線
  6
CONTINUOUS
 62
    4
 10
255.80007677730171
 20
-100.64964623154407
 11
259.70007677730177
 21
-100.64964623154407
  0
LINE
  8
_0-7_細線
  6
CONTINUOUS
 62
    4
 10
264.57970110032579
 20
-100.64964623154407
 11
268.47970110032543
 21
-100.64964623154407
  0
LINE
  8
_0-7_細線
  6
CONTINUOUS
 62
    4
 10
273.92366610982504
 20
-100.64964623154407
 11
277.82366610982513
 21
-100.64964623154407
  0
LINE
  8
_0-7_細線
  6
CONTINUOUS
 62
    4
 10
281.76034302685429
 20
-100.64964623154407
 11
285.65163175794959
 21
-100.64964623154407
  0
LINE
  8
_0-7_細線
  6
CONTINUOUS
 62
    4
 10
288.55994424269988
 20
-100.64964623154407
 11
291.85994424270007
 21
-100.64964623154407
  0
LINE
  8
_0-7_細線
  6
CONTINUOUS
 62
    4
 10
202.64928131252395
 20
-100.04964623154439
 11
206.54928131252359
 21
-100.04964623154439
  0
LINE
  8
_0-7_細線
  6
CONTINUOUS
 62
    4
 10
210.43291346111141
 20
-100.04964623154439
 11
214.3329134611119
 21
-100.04964623154439
  0
LINE
  8
_0-7_細線
  6
CONTINUOUS
 62
    4
 10
220.3347763057584
 20
-100.04964623154439
 11
224.23477630575849
 21
-100.04964623154439
  0
LINE
  8
_0-7_細線
  6
CONTINUOUS
 62
    4
 10
233.2344179377539
 20
-100.04964623154439
 11
237.13380463494721
 21
-100.04964623154439
  0
LINE
  8
_0-7_細線
  6
CONTINUOUS
 62
    4
 10
241.19165293170661
 20
-100.04964623154439
 11
245.09165293170619
 21
-100.04964623154439
  0
LINE
  8
_0-7_細線
  6
CONTINUOUS
 62
    4
 10
249.17986137219461
 20
-100.04964623154439
 11
253.0798613721951
 21
-100.04964623154439
  0
LINE
  8
_0-7_細線
  6
CONTINUOUS
 62
    4
 10
256.07986137219416
 20
-100.04964623154439
 11
259.97986137219482
 21
-100.04964623154439
  0
LINE
  8
_0-7_細線
  6
CONTINUOUS
 62
    4
 10
264.29991650543229
 20
-100.04964623154439
 11
268.19991650543238
 21
-100.04964623154439
  0
LINE
  8
_0-7_細線
  6
CONTINUOUS
 62
    4
 10
273.92366610982504
 20
-100.04964623154439
 11
277.82366610982513
 21
-100.04964623154439
  0
LINE
  8
_0-7_細線
  6
CONTINUOUS
 62
    4
 10
281.38542141570883
 20
-100.04964623154439
 11
285.27671014680323
 21
-100.04964623154439
  0
LINE
  8
_0-7_細線
  6
CONTINUOUS
 62
    4
 10
288.55994424269988
 20
-100.04964623154439
 11
291.85994424270007
 21
-100.04964623154439
  0
LINE
  8
_0-7_細線
  6
CONTINUOUS
 62
    4
 10
202.929065907417
 20
-99.449646231543795
 11
206.82906590741709
 21
-99.449646231543795
  0
LINE
  8
_0-7_細線
  6
CONTINUOUS
 62
    4
 10
210.15312886621791
 20
-99.449646231543795
 11
214.0531288662184
 21
-99.449646231543795
  0
LINE
  8
_0-7_細線
  6
CONTINUOUS
 62
    4
 10
220.3347763057584
 20
-99.449646231543795
 11
224.23477630575849
 21
-99.449646231543795
  0
LINE
  8
_0-7_細線
  6
CONTINUOUS
 62
    4
 10
233.22958625182011
 20
-99.449646231543795
 11
237.12162873768301
 21
-99.449646231543795
  0
LINE
  8
_0-7_細線
  6
CONTINUOUS
 62
    4
 10
240.91186833681351
 20
-99.449646231543795
 11
244.8118683368136
 21
-99.449646231543795
  0
LINE
  8
_0-7_細線
  6
CONTINUOUS
 62
    4
 10
249.4596459670872
 20
-99.449646231543795
 11
253.35964596708769
 21
-99.449646231543795
  0
LINE
  8
_0-7_細線
  6
CONTINUOUS
 62
    4
 10
256.35964596708766
 20
-99.449646231543795
 11
260.25964596708741
 21
-99.449646231543795
  0
LINE
  8
_0-7_細線
  6
CONTINUOUS
 62
    4
 10
264.0201319105397
 20
-99.449646231543795
 11
267.92013191053934
 21
-99.449646231543795
  0
LINE
  8
_0-7_細線
  6
CONTINUOUS
 62
    4
 10
273.92366610982504
 20
-99.449646231543795
 11
277.82366610982513
 21
-99.449646231543795
  0
LINE
  8
_0-7_細線
  6
CONTINUOUS
 62
    4
 10
281.01049980456332
 20
-99.449646231543795
 11
284.90178853565772
 21
-99.449646231543795
  0
LINE
  8
_0-7_細線
  6
CONTINUOUS
 62
    4
 10
288.55994424269988
 20
-99.449646231543795
 11
291.85994424270007
 21
-99.449646231543795
  0
LINE
  8
_0-7_細線
  6
CONTINUOUS
 62
    4
 10
203.20885050231004
 20
-98.849646231544114
 11
207.10885050230971
 21
-98.849646231544114
  0
LINE
  8
_0-7_細線
  6
CONTINUOUS
 62
    4
 10
209.87334427132572
 20
-98.849646231544114
 11
213.7733442713259
 21
-98.849646231544114
  0
LINE
  8
_0-7_細線
  6
CONTINUOUS
 62
    4
 10
220.3347763057584
 20
-98.849646231544114
 11
224.23477630575849
 21
-98.849646231544114
  0
LINE
  8
_0-7_細線
  6
CONTINUOUS
 62
    4
 10
233.21153396488691
 20
-98.849646231544114
 11
237.0865881582337
 21
-98.849646231544114
  0
LINE
  8
_0-7_細線
  6
CONTINUOUS
 62
    4
 10
240.6320837419205
 20
-98.849646231544114
 11
244.5320837419201
 21
-98.849646231544114
  0
LINE
  8
_0-7_細線
  6
CONTINUOUS
 62
    4
 10
249.7394305619807
 20
-98.849646231544114
 11
253.6394305619803
 21
-98.849646231544114
  0
LINE
  8
_0-7_細線
  6
CONTINUOUS
 62
    4
 10
256.63943056198127
 20
-98.849646231544114
 11
260.53943056198
 21
-98.849646231544114
  0
LINE
  8
_0-7_細線
  6
CONTINUOUS
 62
    4
 10
263.7403473156462
 20
-98.849646231544114
 11
267.6403473156463
 21
-98.849646231544114
  0
LINE
  8
_0-7_細線
  6
CONTINUOUS
 62
    4
 10
273.92366610982504
 20
-98.849646231544114
 11
277.82366610982513
 21
-98.849646231544114
  0
LINE
  8
_0-7_細線
  6
CONTINUOUS
 62
    4
 10
280.63557819341781
 20
-98.849646231544114
 11
284.52686692451221
 21
-98.849646231544114
  0
LINE
  8
_0-7_細線
  6
CONTINUOUS
 62
    4
 10
288.55994424269988
 20
-98.849646231544114
 11
291.85994424270007
 21
-98.849646231544114
  0
LINE
  8
_0-7_細線
  6
CONTINUOUS
 62
    4
 10
203.48863509720309
 20
-98.249646231543977
 11
207.38863509720312
 21
-98.249646231543977
  0
LINE
  8
_0-7_細線
  6
CONTINUOUS
 62
    4
 10
209.59355967643179
 20
-98.249646231543977
 11
213.49355967643231
 21
-98.249646231543977
  0
LINE
  8
_0-7_細線
  6
CONTINUOUS
 62
    4
 10
220.3347763057584
 20
-98.249646231543977
 11
224.23477630575849
 21
-98.249646231543977
  0
LINE
  8
_0-7_細線
  6
CONTINUOUS
 62
    4
 10
233.1636368823458
 20
-98.249646231543977
 11
237.02604261297549
 21
-98.249646231543977
  0
LINE
  8
_0-7_細線
  6
CONTINUOUS
 62
    4
 10
240.3522991470274
 20
-98.249646231543977
 11
244.25229914702749
 21
-98.249646231543977
  0
LINE
  8
_0-7_細線
  6
CONTINUOUS
 62
    4
 10
250.01921515687329
 20
-98.249646231543977
 11
253.91921515687341
 21
-98.249646231543977
  0
LINE
  8
_0-7_細線
  6
CONTINUOUS
 62
    4
 10
256.9192151568738
 20
-98.249646231543977
 11
260.8192151568735
 21
-98.249646231543977
  0
LINE
  8
_0-7_細線
  6
CONTINUOUS
 62
    4
 10
263.46056272075361
 20
-98.249646231543977
 11
267.36056272075319
 21
-98.249646231543977
  0
LINE
  8
_0-7_細線
  6
CONTINUOUS
 62
    4
 10
273.92366610982504
 20
-98.249646231543977
 11
277.82366610982513
 21
-98.249646231543977
  0
LINE
  8
_0-7_細線
  6
CONTINUOUS
 62
    4
 10
280.2606565822723
 20
-98.249646231543977
 11
284.1519453133667
 21
-98.249646231543977
  0
LINE
  8
_0-7_細線
  6
CONTINUOUS
 62
    4
 10
288.55994424269988
 20
-98.249646231543977
 11
291.85994424270007
 21
-98.249646231543977
  0
LINE
  8
_0-7_細線
  6
CONTINUOUS
 62
    4
 10
203.76841969209613
 20
-97.649646231544068
 11
207.66841969209571
 21
-97.649646231544068
  0
LINE
  8
_0-7_細線
  6
CONTINUOUS
 62
    4
 10
209.31377508153969
 20
-97.649646231544068
 11
213.21377508153969
 21
-97.649646231544068
  0
LINE
  8
_0-7_細線
  6
CONTINUOUS
 62
    4
 10
220.3347763057584
 20
-97.649646231544068
 11
224.23477630575849
 21
-97.649646231544068
  0
LINE
  8
_0-7_細線
  6
CONTINUOUS
 62
    4
 10
233.07636195625651
 20
-97.649646231544068
 11
236.9379553371316
 21
-97.649646231544068
  0
LINE
  8
_0-7_細線
  6
CONTINUOUS
 62
    4
 10
240.07251455213441
 20
-97.649646231544068
 11
243.97251455213399
 21
-97.649646231544068
  0
LINE
  8
_0-7_細線
  6
CONTINUOUS
 62
    4
 10
250.29899975176679
 20
-97.649646231544068
 11
254.19899975176639
 21
-97.649646231544068
  0
LINE
  8
_0-7_細線
  6
CONTINUOUS
 62
    4
 10
257.19899975176639
 20
-97.649646231544068
 11
261.09899975176609
 21
-97.649646231544068
  0
LINE
  8
_0-7_細線
  6
CONTINUOUS
 62
    4
 10
263.18077812586012
 20
-97.649646231544068
 11
267.08077812586021
 21
-97.649646231544068
  0
LINE
  8
_0-7_細線
  6
CONTINUOUS
 62
    4
 10
273.92366610982504
 20
-97.649646231544068
 11
277.82366610982513
 21
-97.649646231544068
  0
LINE
  8
_0-7_細線
  6
CONTINUOUS
 62
    4
 10
279.88573497112679
 20
-97.649646231544068
 11
283.77702370222119
 21
-97.649646231544068
  0
LINE
  8
_0-7_細線
  6
CONTINUOUS
 62
    4
 10
288.55994424269988
 20
-97.649646231544068
 11
291.85994424270007
 21
-97.649646231544068
  0
LINE
  8
_0-7_細線
  6
CONTINUOUS
 62
    4
 10
204.04820428698872
 20
-97.049646231544045
 11
207.94820428698921
 21
-97.049646231544045
  0
LINE
  8
_0-7_細線
  6
CONTINUOUS
 62
    4
 10
209.03399048664571
 20
-97.049646231544045
 11
212.93399048664628
 21
-97.049646231544045
  0
LINE
  8
_0-7_細線
  6
CONTINUOUS
 62
    4
 10
220.3347763057584
 20
-97.049646231544045
 11
224.23477630575849
 21
-97.049646231544045
  0
LINE
  8
_0-7_細線
  6
CONTINUOUS
 62
    4
 10
232.9309511966278
 20
-97.049646231544045
 11
236.82591373941409
 21
-97.049646231544045
  0
LINE
  8
_0-7_細線
  6
CONTINUOUS
 62
    4
 10
239.79272995724131
 20
-97.049646231544045
 11
243.6927299572414
 21
-97.049646231544045
  0
LINE
  8
_0-7_細線
  6
CONTINUOUS
 62
    4
 10
250.5787843466594
 20
-97.049646231544045
 11
254.47878434665949
 21
-97.049646231544045
  0
LINE
  8
_0-7_細線
  6
CONTINUOUS
 62
    4
 10
257.47878434665949
 20
-97.049646231544045
 11
261.37878434665959
 21
-97.049646231544045
  0
LINE
  8
_0-7_細線
  6
CONTINUOUS
 62
    4
 10
262.90099353096753
 20
-97.049646231544045
 11
266.80099353096716
 21
-97.049646231544045
  0
LINE
  8
_0-7_細線
  6
CONTINUOUS
 62
    4
 10
273.92366610982504
 20
-97.049646231544045
 11
277.82366610982513
 21
-97.049646231544045
  0
LINE
  8
_0-7_細線
  6
CONTINUOUS
 62
    4
 10
279.51081335998038
 20
-97.049646231544045
 11
283.40210209107556
 21
-97.049646231544045
  0
LINE
  8
_0-7_細線
  6
CONTINUOUS
 62
    4
 10
288.55994424269988
 20
-97.049646231544045
 11
291.85994424270007
 21
-97.049646231544045
  0
LINE
  8
_0-7_細線
  6
CONTINUOUS
 62
    4
 10
204.32798888188131
 20
-96.449646231543795
 11
208.2279888818818
 21
-96.449646231543795
  0
LINE
  8
_0-7_細線
  6
CONTINUOUS
 62
    4
 10
208.7542058917536
 20
-96.449646231543795
 11
212.65420589175369
 21
-96.449646231543795
  0
LINE
  8
_0-7_細線
  6
CONTINUOUS
 62
    4
 10
220.3347763057584
 20
-96.449646231543795
 11
224.23477630575849
 21
-96.449646231543795
  0
LINE
  8
_0-7_細線
  6
CONTINUOUS
 62
    4
 10
232.69583557999681
 20
-96.449646231543795
 11
236.69027067705451
 21
-96.449646231543795
  0
LINE
  8
_0-7_細線
  6
CONTINUOUS
 62
    4
 10
239.51294536234829
 20
-96.449646231543795
 11
243.4129453623479
 21
-96.449646231543795
  0
LINE
  8
_0-7_細線
  6
CONTINUOUS
 62
    4
 10
250.8585689415529
 20
-96.449646231543795
 11
254.75856894155251
 21
-96.449646231543795
  0
LINE
  8
_0-7_細線
  6
CONTINUOUS
 62
    4
 10
257.75856894155254
 20
-96.449646231543795
 11
261.65856894155218
 21
-96.449646231543795
  0
LINE
  8
_0-7_細線
  6
CONTINUOUS
 62
    4
 10
262.62120893607403
 20
-96.449646231543795
 11
266.52120893607412
 21
-96.449646231543795
  0
LINE
  8
_0-7_細線
  6
CONTINUOUS
 62
    4
 10
273.92366610982504
 20
-96.449646231543795
 11
277.82366610982513
 21
-96.449646231543795
  0
LINE
  8
_0-7_細線
  6
CONTINUOUS
 62
    4
 10
279.13589174883481
 20
-96.449646231543795
 11
283.02718047993011
 21
-96.449646231543795
  0
LINE
  8
_0-7_細線
  6
CONTINUOUS
 62
    4
 10
288.55994424269988
 20
-96.449646231543795
 11
291.85994424270007
 21
-96.449646231543795
  0
LINE
  8
_0-7_細線
  6
CONTINUOUS
 62
    4
 10
204.60777347677481
 20
-95.849646231544114
 11
212.37442129686019
 21
-95.849646231544114
  0
LINE
  8
_0-7_細線
  6
CONTINUOUS
 62
    4
 10
220.3347763057584
 20
-95.849646231544114
 11
224.23477630575849
 21
-95.849646231544114
  0
LINE
  8
_0-7_細線
  6
CONTINUOUS
 62
    4
 10
232.33477630575788
 20
-95.849646231544114
 11
236.5347763057577
 21
-95.849646231544114
  0
LINE
  8
_0-7_細線
  6
CONTINUOUS
 62
    4
 10
239.2331607674553
 20
-95.849646231544114
 11
243.13316076745579
 21
-95.849646231544114
  0
LINE
  8
_0-7_細線
  6
CONTINUOUS
 62
    4
 10
251.13835353644549
 20
-95.849646231544114
 11
255.03835353644561
 21
-95.849646231544114
  0
LINE
  8
_0-7_細線
  6
CONTINUOUS
 62
    4
 10
258.03835353644558
 20
-95.849646231544114
 11
261.93835353644556
 21
-95.849646231544114
  0
LINE
  8
_0-7_細線
  6
CONTINUOUS
 62
    4
 10
262.34142434118144
 20
-95.849646231544114
 11
266.24142434118198
 21
-95.849646231544114
  0
LINE
  8
_0-7_細線
  6
CONTINUOUS
 62
    4
 10
273.92366610982504
 20
-95.849646231544114
 11
277.82366610982513
 21
-95.849646231544114
  0
LINE
  8
_0-7_細線
  6
CONTINUOUS
 62
    4
 10
278.7609701376893
 20
-95.849646231544114
 11
282.65225886878369
 21
-95.849646231544114
  0
LINE
  8
_0-7_細線
  6
CONTINUOUS
 62
    4
 10
288.55994424269988
 20
-95.849646231544114
 11
291.85994424270007
 21
-95.849646231544114
  0
LINE
  8
_0-7_細線
  6
CONTINUOUS
 62
    4
 10
204.8875580716674
 20
-95.249646231543977
 11
212.0946367019676
 21
-95.249646231543977
  0
LINE
  8
_0-7_細線
  6
CONTINUOUS
 62
    4
 10
220.3347763057584
 20
-95.249646231543977
 11
224.23477630575849
 21
-95.249646231543977
  0
LINE
  8
_0-7_細線
  6
CONTINUOUS
 62
    4
 10
231.69742622445909
 20
-95.249646231543977
 11
236.34637217512659
 21
-95.249646231543977
  0
LINE
  8
_0-7_細線
  6
CONTINUOUS
 62
    4
 10
238.9533761725622
 20
-95.249646231543977
 11
242.85337617256181
 21
-95.249646231543977
  0
LINE
  8
_0-7_細線
  6
CONTINUOUS
 62
    4
 10
251.41813813133899
 20
-95.249646231543977
 11
255.3181381313386
 21
-95.249646231543977
  0
LINE
  8
_0-7_細線
  6
CONTINUOUS
 62
    4
 10
258.31813813133863
 20
-95.249646231543977
 11
265.96163974628837
 21
-95.249646231543977
  0
LINE
  8
_0-7_細線
  6
CONTINUOUS
 62
    4
 10
273.92366610982504
 20
-95.249646231543977
 11
277.82366610982513
 21
-95.249646231543977
  0
LINE
  8
_0-7_細線
  6
CONTINUOUS
 62
    4
 10
278.38604852654379
 20
-95.249646231543977
 11
282.27733725763824
 21
-95.249646231543977
  0
LINE
  8
_0-7_細線
  6
CONTINUOUS
 62
    4
 10
288.55994424269988
 20
-95.249646231543977
 11
291.85994424270007
 21
-95.249646231543977
  0
LINE
  8
_0-7_細線
  6
CONTINUOUS
 62
    4
 10
205.1673426665613
 20
-94.649646231544182
 11
211.8148521070741
 21
-94.649646231544182
  0
LINE
  8
_0-7_細線
  6
CONTINUOUS
 62
    4
 10
220.3347763057584
 20
-94.649646231544182
 11
224.23477630575849
 21
-94.649646231544182
  0
LINE
  8
_0-7_細線
  6
CONTINUOUS
 62
    4
 10
230.7737728799591
 20
-94.649646231544182
 11
236.09718731807169
 21
-94.649646231544182
  0
LINE
  8
_0-7_細線
  6
CONTINUOUS
 62
    4
 10
238.67359157766961
 20
-94.649646231544182
 11
242.5735915776697
 21
-94.649646231544182
  0
LINE
  8
_0-7_細線
  6
CONTINUOUS
 62
    4
 10
251.69792272623161
 20
-94.649646231544182
 11
255.59792272623159
 21
-94.649646231544182
  0
LINE
  8
_0-7_細線
  6
CONTINUOUS
 62
    4
 10
258.59792272623156
 20
-94.649646231544182
 11
265.68185515139589
 21
-94.649646231544182
  0
LINE
  8
_0-7_細線
  6
CONTINUOUS
 62
    4
 10
273.92366610982504
 20
-94.649646231544182
 11
277.82366610982513
 21
-94.649646231544182
  0
LINE
  8
_0-7_細線
  6
CONTINUOUS
 62
    4
 10
278.01112691539834
 20
-94.649646231544182
 11
281.90241564649273
 21
-94.649646231544182
  0
LINE
  8
_0-7_細線
  6
CONTINUOUS
 62
    4
 10
288.55994424269988
 20
-94.649646231544182
 11
291.85994424270007
 21
-94.649646231544182
  0
LINE
  8
_0-7_細線
  6
CONTINUOUS
 62
    4
 10
205.44712726145349
 20
-94.049646231544045
 11
211.53506751218151
 21
-94.049646231544045
  0
LINE
  8
_0-7_細線
  6
CONTINUOUS
 62
    4
 10
220.3347763057584
 20
-94.049646231544045
 11
235.72794414277561
 21
-94.049646231544045
  0
LINE
  8
_0-7_細線
  6
CONTINUOUS
 62
    4
 10
238.39380698277699
 20
-94.049646231544045
 11
242.29380698277581
 21
-94.049646231544045
  0
LINE
  8
_0-7_細線
  6
CONTINUOUS
 62
    4
 10
251.9777073211242
 20
-94.049646231544045
 11
255.87770732112469
 21
-94.049646231544045
  0
LINE
  8
_0-7_細線
  6
CONTINUOUS
 62
    4
 10
258.87770732112472
 20
-94.049646231544045
 11
265.40207055650239
 21
-94.049646231544045
  0
LINE
  8
_0-7_細線
  6
CONTINUOUS
 62
    4
 10
273.92366610982504
 20
-94.049646231544045
 11
281.52749403534722
 21
-94.049646231544045
  0
LINE
  8
_0-7_細線
  6
CONTINUOUS
 62
    4
 10
288.55994424269988
 20
-94.049646231544045
 11
291.85994424270007
 21
-94.049646231544045
  0
LINE
  8
_0-7_細線
  6
CONTINUOUS
 62
    4
 10
205.72691185634699
 20
-93.449646231543909
 11
211.25528291728801
 21
-93.449646231543909
  0
LINE
  8
_0-7_細線
  6
CONTINUOUS
 62
    4
 10
220.3347763057584
 20
-93.449646231543909
 11
235.1604607370389
 21
-93.449646231543909
  0
LINE
  8
_0-7_細線
  6
CONTINUOUS
 62
    4
 10
238.11402238788349
 20
-93.449646231543909
 11
242.01402238788361
 21
-93.449646231543909
  0
LINE
  8
_0-7_細線
  6
CONTINUOUS
 62
    4
 10
252.25749191601761
 20
-93.449646231543909
 11
256.1574919160177
 21
-93.449646231543909
  0
LINE
  8
_0-7_細線
  6
CONTINUOUS
 62
    4
 10
259.1574919160177
 20
-93.449646231543909
 11
265.1222859616089
 21
-93.449646231543909
  0
LINE
  8
_0-7_細線
  6
CONTINUOUS
 62
    4
 10
273.92366610982504
 20
-93.449646231543909
 11
281.15257242420171
 21
-93.449646231543909
  0
LINE
  8
_0-7_細線
  6
CONTINUOUS
 62
    4
 10
288.55994424269988
 20
-93.449646231543909
 11
291.85994424270007
 21
-93.449646231543909
  0
LINE
  8
_0-7_細線
  6
CONTINUOUS
 62
    4
 10
206.00669645123961
 20
-92.849646231544114
 11
210.9754983223954
 21
-92.849646231544114
  0
LINE
  8
_0-7_細線
  6
CONTINUOUS
 62
    4
 10
220.3347763057584
 20
-92.849646231544114
 11
234.3271631524255
 21
-92.849646231544114
  0
LINE
  8
_0-7_細線
  6
CONTINUOUS
 62
    4
 10
237.8342377929909
 20
-92.849646231544114
 11
241.73423779298969
 21
-92.849646231544114
  0
LINE
  8
_0-7_細線
  6
CONTINUOUS
 62
    4
 10
252.5372765109102
 20
-92.849646231544114
 11
256.4372765109099
 21
-92.849646231544114
  0
LINE
  8
_0-7_細線
  6
CONTINUOUS
 62
    4
 10
259.4372765109099
 20
-92.849646231544114
 11
264.84250136671631
 21
-92.849646231544114
  0
LINE
  8
_0-7_細線
  6
CONTINUOUS
 62
    4
 10
273.92366610982504
 20
-92.849646231544114
 11
280.7776508130562
 21
-92.849646231544114
  0
LINE
  8
_0-7_細線
  6
CONTINUOUS
 62
    4
 10
288.55994424269988
 20
-92.849646231544114
 11
291.85994424270007
 21
-92.849646231544114
  0
LINE
  8
_0-7_細線
  6
CONTINUOUS
 62
    4
 10
206.28648104613302
 20
-92.249646231544318
 11
210.6957137275019
 21
-92.249646231544318
  0
LINE
  8
_0-7_細線
  6
CONTINUOUS
 62
    4
 10
220.3347763057584
 20
-92.249646231544318
 11
233.12396530807081
 21
-92.249646231544318
  0
LINE
  8
_0-7_細線
  6
CONTINUOUS
 62
    4
 10
237.55445319809741
 20
-92.249646231544318
 11
241.4544531980975
 21
-92.249646231544318
  0
LINE
  8
_0-7_細線
  6
CONTINUOUS
 62
    4
 10
252.8170611058037
 20
-92.249646231544318
 11
256.7170611058034
 21
-92.249646231544318
  0
LINE
  8
_0-7_細線
  6
CONTINUOUS
 62
    4
 10
259.71706110580379
 20
-92.249646231544318
 11
264.56271677182372
 21
-92.249646231544318
  0
LINE
  8
_0-7_細線
  6
CONTINUOUS
 62
    4
 10
273.92366610982504
 20
-92.249646231544318
 11
280.40272920191069
 21
-92.249646231544318
  0
LINE
  8
_0-7_細線
  6
CONTINUOUS
 62
    4
 10
288.55994424269988
 20
-92.249646231544318
 11
291.85994424270007
 21
-92.249646231544318
  0
LINE
  8
_0-7_細線
  6
CONTINUOUS
 62
    4
 10
206.56626564102561
 20
-91.649646231544182
 11
210.41592913260979
 21
-91.649646231544182
  0
LINE
  8
_0-7_細線
  6
CONTINUOUS
 62
    4
 10
220.3347763057584
 20
-91.649646231544182
 11
231.3587782991678
 21
-91.649646231544182
  0
LINE
  8
_0-7_細線
  6
CONTINUOUS
 62
    4
 10
237.27466860320479
 20
-91.649646231544182
 11
241.17466860320451
 21
-91.649646231544182
  0
LINE
  8
_0-7_細線
  6
CONTINUOUS
 62
    4
 10
253.0968457006972
 20
-91.649646231544182
 11
256.99684570069587
 21
-91.649646231544182
  0
LINE
  8
_0-7_細線
  6
CONTINUOUS
 62
    4
 10
259.99684570069689
 20
-91.649646231544182
 11
264.28293217693022
 21
-91.649646231544182
  0
LINE
  8
_0-7_細線
  6
CONTINUOUS
 62
    4
 10
273.92366610982504
 20
-91.649646231544182
 11
280.02780759076472
 21
-91.649646231544182
  0
LINE
  8
_0-7_細線
  6
CONTINUOUS
 62
    4
 10
288.55994424269988
 20
-91.649646231544182
 11
291.85994424270007
 21
-91.649646231544182
  0
LINE
  8
_0-7_細線
  6
CONTINUOUS
 62
    4
 10
166.23348796671894
 20
-108.24284207717022
 11
178.84503737331283
 21
-108.24284207717022
  0
LINE
  8
_0-7_細線
  6
CONTINUOUS
 62
    4
 10
166.23348796671894
 20
-107.94284207717016
 11
178.84503737331283
 21
-107.94284207717016
  0
LINE
  8
_0-7_細線
  6
CONTINUOUS
 62
    4
 10
166.23348796671894
 20
-107.64284207717043
 11
178.84503737331283
 21
-107.64284207717043
  0
LINE
  8
_0-7_細線
  6
CONTINUOUS
 62
    4
 10
166.23348796671894
 20
-107.34284207717047
 11
178.84503737331283
 21
-107.34284207717047
  0
LINE
  8
_0-7_細線
  6
CONTINUOUS
 62
    4
 10
166.23348796671894
 20
-107.04284207717041
 11
178.84503737331283
 21
-107.04284207717041
  0
LINE
  8
_0-7_細線
  6
CONTINUOUS
 62
    4
 10
166.23348796671894
 20
-106.74284207717034
 11
178.84503737331283
 21
-106.74284207717034
  0
LINE
  8
_0-7_細線
  6
CONTINUOUS
 62
    4
 10
166.23348796671894
 20
-106.44284207717016
 11
178.84503737331283
 21
-106.44284207717016
  0
LINE
  8
_0-7_細線
  6
CONTINUOUS
 62
    4
 10
166.23348796671894
 20
-106.14284207717043
 11
178.84503737331283
 21
-106.14284207717043
  0
LINE
  8
_0-7_細線
  6
CONTINUOUS
 62
    4
 10
166.23348796671894
 20
-105.84284207717047
 11
178.84503737331283
 21
-105.84284207717047
  0
LINE
  8
_0-7_細線
  6
CONTINUOUS
 62
    4
 10
166.23348796671894
 20
-105.54284207717075
 11
178.84503737331283
 21
-105.54284207717075
  0
LINE
  8
_0-7_細線
  6
CONTINUOUS
 62
    4
 10
166.23348796671894
 20
-105.24284207717034
 11
178.84503737331283
 21
-105.24284207717034
  0
LINE
  8
_0-7_細線
  6
CONTINUOUS
 62
    4
 10
166.23348796671894
 20
-104.94284207717061
 11
178.84503737331283
 21
-104.94284207717061
  0
LINE
  8
_0-7_細線
  6
CONTINUOUS
 62
    4
 10
166.23348796671894
 20
-104.64284207717043
 11
178.84503737331283
 21
-104.64284207717043
  0
LINE
  8
_0-7_細線
  6
CONTINUOUS
 62
    4
 10
166.23348796671894
 20
-104.34284207717047
 11
178.84503737331283
 21
-104.34284207717047
  0
LINE
  8
_0-7_細線
  6
CONTINUOUS
 62
    4
 10
166.23348796671894
 20
-104.04284207717075
 11
178.84503737331283
 21
-104.04284207717075
  0
LINE
  8
_0-7_細線
  6
CONTINUOUS
 62
    4
 10
166.23348796671894
 20
-103.74284207717034
 11
178.84503737331283
 21
-103.74284207717034
  0
LINE
  8
_0-7_細線
  6
CONTINUOUS
 62
    4
 10
166.23348796671894
 20
-103.44284207717061
 11
178.84503737331283
 21
-103.44284207717061
  0
LINE
  8
_0-7_細線
  6
CONTINUOUS
 62
    4
 10
166.23348796671894
 20
-103.14284207717054
 11
178.84503737331283
 21
-103.14284207717054
  0
LINE
  8
_0-7_細線
  6
CONTINUOUS
 62
    4
 10
166.23348796671894
 20
-102.84284207717081
 11
178.84503737331283
 21
-102.84284207717081
  0
LINE
  8
_0-7_細線
  6
CONTINUOUS
 62
    4
 10
166.23348796671894
 20
-102.54284207717075
 11
178.84503737331283
 21
-102.54284207717075
  0
LINE
  8
_0-7_細線
  6
CONTINUOUS
 62
    4
 10
166.23348796671894
 20
-102.24284207717068
 11
178.84503737331283
 21
-102.24284207717068
  0
LINE
  8
_0-7_細線
  6
CONTINUOUS
 62
    4
 10
166.23348796671894
 20
-101.94284207717061
 11
178.84503737331283
 21
-101.94284207717061
  0
LINE
  8
_0-7_細線
  6
CONTINUOUS
 62
    4
 10
166.23348796671894
 20
-101.64284207717054
 11
178.84503737331283
 21
-101.64284207717054
  0
LINE
  8
_0-7_細線
  6
CONTINUOUS
 62
    4
 10
166.23348796671894
 20
-101.34284207717081
 11
178.84503737331283
 21
-101.34284207717081
  0
LINE
  8
_0-7_細線
  6
CONTINUOUS
 62
    4
 10
166.23348796671894
 20
-101.04284207717075
 11
178.84503737331283
 21
-101.04284207717075
  0
LINE
  8
_0-7_細線
  6
CONTINUOUS
 62
    4
 10
166.23348796671894
 20
-100.74284207717102
 11
178.84503737331283
 21
-100.74284207717102
  0
LINE
  8
_0-7_細線
  6
CONTINUOUS
 62
    4
 10
166.23348796671894
 20
-100.44284207717061
 11
178.84503737331283
 21
-100.44284207717061
  0
LINE
  8
_0-7_細線
  6
CONTINUOUS
 62
    4
 10
166.23348796671894
 20
-100.14284207717088
 11
178.84503737331283
 21
-100.14284207717088
  0
LINE
  8
_0-7_細線
  6
CONTINUOUS
 62
    4
 10
166.23348796671894
 20
-99.842842077171042
 11
178.84503737331283
 21
-99.842842077171042
  0
LINE
  8
_0-7_細線
  6
CONTINUOUS
 62
    4
 10
166.23348796671894
 20
-99.542842077170747
 11
178.84503737331283
 21
-99.542842077170747
  0
LINE
  8
_0-7_細線
  6
CONTINUOUS
 62
    4
 10
166.23348796671894
 20
-99.242842077170678
 11
178.84503737331283
 21
-99.242842077170678
  0
LINE
  8
_0-7_細線
  6
CONTINUOUS
 62
    4
 10
166.23348796671894
 20
-98.942842077170951
 11
178.84503737331283
 21
-98.942842077170951
  0
LINE
  8
_0-7_細線
  6
CONTINUOUS
 62
    4
 10
166.23348796671894
 20
-98.642842077170883
 11
178.84503737331283
 21
-98.642842077170883
  0
LINE
  8
_0-7_細線
  6
CONTINUOUS
 62
    4
 10
166.23348796671894
 20
-98.342842077171042
 11
178.84503737331283
 21
-98.342842077171042
  0
LINE
  8
_0-7_細線
  6
CONTINUOUS
 62
    4
 10
166.23348796671894
 20
-98.042842077170747
 11
178.84503737331283
 21
-98.042842077170747
  0
LINE
  8
_0-7_細線
  6
CONTINUOUS
 62
    4
 10
166.23348796671894
 20
-97.742842077170678
 11
178.84503737331283
 21
-97.742842077170678
  0
LINE
  8
_0-7_細線
  6
CONTINUOUS
 62
    4
 10
166.23348796671894
 20
-97.442842077170951
 11
178.84503737331283
 21
-97.442842077170951
  0
LINE
  8
_0-7_細線
  6
CONTINUOUS
 62
    4
 10
166.23348796671894
 20
-97.142842077170883
 11
178.84503737331283
 21
-97.142842077170883
  0
LINE
  8
_0-7_細線
  6
CONTINUOUS
 62
    4
 10
166.23348796671894
 20
-96.842842077171042
 11
178.84503737331283
 21
-96.842842077171042
  0
LINE
  8
_0-7_細線
  6
CONTINUOUS
 62
    4
 10
166.23348796671894
 20
-96.542842077170747
 11
178.84503737331283
 21
-96.542842077170747
  0
LINE
  8
_0-7_細線
  6
CONTINUOUS
 62
    4
 10
166.23348796671894
 20
-96.242842077171019
 11
178.84503737331283
 21
-96.242842077171019
  0
LINE
  8
_0-7_細線
  6
CONTINUOUS
 62
    4
 10
166.23348796671894
 20
-95.942842077170951
 11
178.84503737331283
 21
-95.942842077170951
  0
LINE
  8
_0-7_細線
  6
CONTINUOUS
 62
    4
 10
194.6769755984667
 20
-81.842842077170701
 11
199.06764888392968
 21
-81.842842077170701
  0
LINE
  8
_0-7_細線
  6
CONTINUOUS
 62
    4
 10
193.8600803256129
 20
-81.242842077170906
 11
199.88454415678348
 21
-81.242842077170906
  0
LINE
  8
_0-7_細線
  6
CONTINUOUS
 62
    4
 10
193.32159692570963
 20
-80.642842077170769
 11
200.42302755668675
 21
-80.642842077170769
  0
LINE
  8
_0-7_細線
  6
CONTINUOUS
 62
    4
 10
192.94527552249997
 20
-80.042842077170974
 11
200.79934895989641
 21
-80.042842077170974
  0
LINE
  8
_0-7_細線
  6
CONTINUOUS
 62
    4
 10
192.68714133329081
 20
-79.442842077170496
 11
201.05748314910556
 21
-79.442842077170496
  0
LINE
  8
_0-7_細線
  6
CONTINUOUS
 62
    4
 10
192.52608471991948
 20
-78.842842077171042
 11
201.21853976247689
 21
-78.842842077171042
  0
LINE
  8
_0-7_細線
  6
CONTINUOUS
 62
    4
 10
192.45148292928093
 20
-78.242842077170906
 11
201.29314155311545
 21
-78.242842077170906
  0
LINE
  8
_0-7_細線
  6
CONTINUOUS
 62
    4
 10
192.45894958405256
 20
-77.64284207717111
 11
201.28567489834381
 21
-77.64284207717111
  0
LINE
  8
_0-7_細線
  6
CONTINUOUS
 62
    4
 10
192.54890986785244
 20
-77.042842077170974
 11
201.19571461454393
 21
-77.042842077170974
  0
LINE
  8
_0-7_細線
  6
CONTINUOUS
 62
    4
 10
192.72673071139866
 20
-76.442842077171179
 11
201.01789377099772
 21
-76.442842077171179
  0
LINE
  8
_0-7_細線
  6
CONTINUOUS
 62
    4
 10
193.00451126925759
 20
-75.842842077171042
 11
200.74011321313878
 21
-75.842842077171042
  0
LINE
  8
_0-7_細線
  6
CONTINUOUS
 62
    4
 10
193.4062016692576
 20
-75.242842077170906
 11
200.33842281313878
 21
-75.242842077170906
  0
LINE
  8
_0-7_細線
  6
CONTINUOUS
 62
    4
 10
193.98302848301569
 20
-74.64284207717111
 11
199.76159599938069
 21
-74.64284207717111
  0
LINE
  8
_0-7_細線
  6
CONTINUOUS
 62
    4
 10
194.88183521956194
 20
-74.042842077171315
 11
198.86278926283444
 21
-74.042842077171315
  0
LINE
  8
_0-7_細線
  6
CONTINUOUS
 62
    4
 10
201.06694850572308
 20
-79.415131355367805
 11
201.06694850572308
 21
-76.580489235032758
  0
LINE
  8
_0-7_細線
  6
CONTINUOUS
 62
    4
 10
200.46694850572362
 20
-80.582836891783984
 11
200.46694850572362
 21
-75.412783698616579
  0
LINE
  8
_0-7_細線
  6
CONTINUOUS
 62
    4
 10
199.86694850572371
 20
-81.259087042498265
 11
199.86694850572371
 21
-74.736533547901956
  0
LINE
  8
_0-7_細線
  6
CONTINUOUS
 62
    4
 10
199.2669485057238
 20
-81.721986652451335
 11
199.2669485057238
 21
-74.273633937949228
  0
LINE
  8
_0-7_細線
  6
CONTINUOUS
 62
    4
 10
198.66694850572435
 20
-82.045408726039852
 11
198.66694850572435
 21
-73.95021186436071
  0
LINE
  8
_0-7_細線
  6
CONTINUOUS
 62
    4
 10
198.06694850572308
 20
-82.261214636190687
 11
198.06694850572308
 21
-73.734405954209535
  0
LINE
  8
_0-7_細線
  6
CONTINUOUS
 62
    4
 10
197.46694850572362
 20
-82.385313012256063
 11
197.46694850572362
 21
-73.610307578144159
  0
LINE
  8
_0-7_細線
  6
CONTINUOUS
 62
    4
 10
196.86694850572371
 20
-82.425421796860348
 11
196.86694850572371
 21
-73.570198793539873
  0
LINE
  8
_0-7_細線
  6
CONTINUOUS
 62
    4
 10
178.56694850572308
 20
-108.30453085963217
 11
178.56694850572308
 21
-95.675223227406434
  0
LINE
  8
_0-7_細線
  6
CONTINUOUS
 62
    4
 10
178.2669485057238
 20
-108.30453085963217
 11
178.2669485057238
 21
-95.675223227406434
  0
LINE
  8
_0-7_細線
  6
CONTINUOUS
 62
    4
 10
177.96694850572362
 20
-108.30453085963217
 11
177.96694850572362
 21
-95.675223227406434
  0
LINE
  8
_0-7_細線
  6
CONTINUOUS
 62
    4
 10
177.66694850572344
 20
-108.30453085963217
 11
177.66694850572435
 21
-95.675223227406434
  0
LINE
  8
_0-7_細線
  6
CONTINUOUS
 62
    4
 10
177.36694850572371
 20
-108.30453085963217
 11
177.36694850572371
 21
-95.675223227406434
  0
LINE
  8
_0-7_細線
  6
CONTINUOUS
 62
    4
 10
177.06694850572308
 20
-108.30453085963217
 11
177.06694850572308
 21
-95.675223227406434
  0
LINE
  8
_0-7_細線
  6
CONTINUOUS
 62
    4
 10
176.7669485057238
 20
-108.30453085963217
 11
176.7669485057238
 21
-95.675223227406434
  0
LINE
  8
_0-7_細線
  6
CONTINUOUS
 62
    4
 10
176.46694850572362
 20
-108.30453085963217
 11
176.46694850572362
 21
-95.675223227406434
  0
LINE
  8
_0-7_細線
  6
CONTINUOUS
 62
    4
 10
176.16694850572344
 20
-108.30453085963217
 11
176.16694850572344
 21
-95.675223227406434
  0
LINE
  8
_0-7_細線
  6
CONTINUOUS
 62
    4
 10
175.86694850572371
 20
-108.30453085963217
 11
175.86694850572371
 21
-95.675223227406434
  0
LINE
  8
_0-7_細線
  6
CONTINUOUS
 62
    4
 10
175.56694850572308
 20
-108.30453085963217
 11
175.56694850572308
 21
-95.675223227406434
  0
LINE
  8
_0-7_細線
  6
CONTINUOUS
 62
    4
 10
175.2669485057238
 20
-108.30453085963217
 11
175.2669485057238
 21
-95.675223227406434
  0
LINE
  8
_0-7_細線
  6
CONTINUOUS
 62
    4
 10
174.96694850572362
 20
-108.30453085963217
 11
174.96694850572362
 21
-95.675223227406434
  0
LINE
  8
_0-7_細線
  6
CONTINUOUS
 62
    4
 10
174.66694850572435
 20
-108.30453085963217
 11
174.66694850572435
 21
-95.675223227406434
  0
LINE
  8
_0-7_細線
  6
CONTINUOUS
 62
    4
 10
174.36694850572371
 20
-108.30453085963217
 11
174.36694850572371
 21
-95.675223227406434
  0
LINE
  8
_0-7_細線
  6
CONTINUOUS
 62
    4
 10
174.06694850572308
 20
-108.30453085963217
 11
174.06694850572308
 21
-95.675223227406434
  0
LINE
  8
_0-7_細線
  6
CONTINUOUS
 62
    4
 10
173.7669485057238
 20
-108.30453085963217
 11
173.7669485057238
 21
-95.675223227406434
  0
LINE
  8
_0-7_細線
  6
CONTINUOUS
 62
    4
 10
173.46694850572362
 20
-108.30453085963217
 11
173.46694850572362
 21
-95.675223227406434
  0
LINE
  8
_0-7_細線
  6
CONTINUOUS
 62
    4
 10
173.16694850572344
 20
-108.30453085963217
 11
173.16694850572344
 21
-95.675223227406434
  0
LINE
  8
_0-7_細線
  6
CONTINUOUS
 62
    4
 10
172.86694850572371
 20
-108.30453085963217
 11
172.86694850572371
 21
-95.675223227406434
  0
LINE
  8
_0-7_細線
  6
CONTINUOUS
 62
    4
 10
172.56694850572308
 20
-108.30453085963217
 11
172.56694850572308
 21
-95.675223227406434
  0
LINE
  8
_0-7_細線
  6
CONTINUOUS
 62
    4
 10
172.2669485057238
 20
-108.30453085963217
 11
172.2669485057238
 21
-95.675223227406434
  0
LINE
  8
_0-7_細線
  6
CONTINUOUS
 62
    4
 10
171.96694850572362
 20
-108.30453085963217
 11
171.96694850572362
 21
-95.675223227406434
  0
LINE
  8
_0-7_細線
  6
CONTINUOUS
 62
    4
 10
171.66694850572435
 20
-108.30453085963217
 11
171.66694850572435
 21
-95.675223227406434
  0
LINE
  8
_0-7_細線
  6
CONTINUOUS
 62
    4
 10
171.36694850572371
 20
-108.30453085963217
 11
171.36694850572371
 21
-95.675223227406434
  0
LINE
  8
_0-7_細線
  6
CONTINUOUS
 62
    4
 10
171.06694850572308
 20
-108.30453085963217
 11
171.06694850572308
 21
-95.675223227406434
  0
LINE
  8
_0-7_細線
  6
CONTINUOUS
 62
    4
 10
170.7669485057238
 20
-108.30453085963217
 11
170.7669485057238
 21
-95.675223227406434
  0
LINE
  8
_0-7_細線
  6
CONTINUOUS
 62
    4
 10
170.46694850572362
 20
-108.30453085963217
 11
170.46694850572362
 21
-95.675223227406434
  0
LINE
  8
_0-7_細線
  6
CONTINUOUS
 62
    4
 10
170.16694850572435
 20
-108.30453085963217
 11
170.16694850572435
 21
-95.675223227406434
  0
LINE
  8
_0-7_細線
  6
CONTINUOUS
 62
    4
 10
169.86694850572371
 20
-108.30453085963217
 11
169.86694850572371
 21
-95.675223227406434
  0
LINE
  8
_0-7_細線
  6
CONTINUOUS
 62
    4
 10
169.56694850572308
 20
-108.30453085963217
 11
169.56694850572308
 21
-95.675223227406434
  0
LINE
  8
_0-7_細線
  6
CONTINUOUS
 62
    4
 10
169.2669485057238
 20
-108.30453085963217
 11
169.2669485057238
 21
-95.675223227406434
  0
LINE
  8
_0-7_細線
  6
CONTINUOUS
 62
    4
 10
168.96694850572362
 20
-108.30453085963217
 11
168.96694850572362
 21
-95.675223227406434
  0
LINE
  8
_0-7_細線
  6
CONTINUOUS
 62
    4
 10
168.66694850572344
 20
-108.30453085963217
 11
168.66694850572344
 21
-95.675223227406434
  0
LINE
  8
_0-7_細線
  6
CONTINUOUS
 62
    4
 10
168.36694850572371
 20
-108.30453085963217
 11
168.36694850572371
 21
-95.675223227406434
  0
LINE
  8
_0-7_細線
  6
CONTINUOUS
 62
    4
 10
168.06694850572399
 20
-108.30453085963217
 11
168.06694850572399
 21
-95.675223227406434
  0
LINE
  8
_0-7_細線
  6
CONTINUOUS
 62
    4
 10
167.7669485057238
 20
-108.30453085963217
 11
167.7669485057238
 21
-95.675223227406434
  0
LINE
  8
_0-7_細線
  6
CONTINUOUS
 62
    4
 10
167.46694850572362
 20
-108.30453085963217
 11
167.46694850572362
 21
-95.675223227406434
  0
LINE
  8
_0-7_細線
  6
CONTINUOUS
 62
    4
 10
167.16694850572435
 20
-108.30453085963217
 11
167.16694850572435
 21
-95.675223227406434
  0
LINE
  8
_0-7_細線
  6
CONTINUOUS
 62
    4
 10
166.86694850572371
 20
-108.30453085963217
 11
166.86694850572371
 21
-95.675223227406434
  0
LINE
  8
_0-7_細線
  6
CONTINUOUS
 62
    4
 10
166.56694850572308
 20
-108.30453085963217
 11
166.56694850572308
 21
-95.675223227406434
  0
LINE
  8
_0-7_細線
  6
CONTINUOUS
 62
    4
 10
166.2669485057238
 20
-108.30453085963217
 11
166.2669485057238
 21
-95.675223227406434
  0
LINE
  8
_0-7_細線
  6
CONTINUOUS
 62
    4
 10
173.16619114817672
 20
-86.443823078583534
 11
156.09571597775152
 21
-108.67027850456549
  0
LINE
  8
_0-7_細線
  6
CONTINUOUS
 62
    4
 10
156.09571597775152
 20
-108.67027850456549
 11
154.42350616513863
 21
-109.36703259315465
  0
LINE
  8
_0-7_細線
  6
CONTINUOUS
 62
    4
 10
154.42350616513863
 20
-109.36703259315465
 11
152.89064717024326
 21
-109.92443586402538
  0
LINE
  8
_0-7_細線
  6
CONTINUOUS
 62
    4
 10
152.89064717024326
 20
-109.92443586402538
 11
152.05454226393681
 21
-109.15800636657804
  0
LINE
  8
_0-7_細線
  6
CONTINUOUS
 62
    4
 10
152.05454226393681
 20
-109.15800636657804
 11
151.35778817534833
 21
-108.18255064255362
  0
LINE
  8
_0-7_細線
  6
CONTINUOUS
 62
    4
 10
151.35778817534833
 20
-108.18255064255362
 11
150.80038490447691
 21
-106.30131460336401
  0
LINE
  8
_0-7_細線
  6
CONTINUOUS
 62
    4
 10
150.80038490447691
 20
-106.30131460336401
 11
151.35778817534833
 21
-104.55942938189179
  0
LINE
  8
_0-7_細線
  6
CONTINUOUS
 62
    4
 10
151.35778817534833
 20
-104.55942938189179
 11
153.44805044111467
 21
-101.56338680096002
  0
LINE
  8
_0-7_細線
  6
CONTINUOUS
 62
    4
 10
153.44805044111467
 20
-101.56338680096002
 11
169.19469284322099
 21
-80.242711690143153
  0
LINE
  8
_0-7_細線
  6
CONTINUOUS
 62
    4
 10
169.19469284322099
 20
-80.242711690143153
 11
169.19469284322099
 21
-78.70985269524823
  0
LINE
  8
_0-7_細線
  6
CONTINUOUS
 62
    4
 10
169.19469284322099
 20
-78.70985269524823
 11
169.61274529637444
 21
-77.734396971223816
  0
LINE
  8
_0-7_細線
  6
CONTINUOUS
 62
    4
 10
169.61274529637444
 20
-77.734396971223816
 11
170.72755183811637
 21
-76.480239611763807
  0
LINE
  8
_0-7_細線
  6
CONTINUOUS
 62
    4
 10
170.72755183811637
 20
-76.480239611763807
 11
171.07592888241084
 21
-76.131862567469909
  0
LINE
  8
_0-7_細線
  6
CONTINUOUS
 62
    4
 10
171.07592888241084
 20
-76.131862567469909
 11
171.70300756214124
 21
-75.226082252304138
  0
LINE
  8
_0-7_細線
  6
CONTINUOUS
 62
    4
 10
171.70300756214124
 20
-75.226082252304138
 11
172.74813869502373
 21
-75.086731434586511
  0
LINE
  8
_0-7_細線
  6
CONTINUOUS
 62
    4
 10
172.74813869502373
 20
-75.086731434586511
 11
174.55969932535459
 21
-74.738354390291931
  0
LINE
  8
_0-7_細線
  6
CONTINUOUS
 62
    4
 10
174.55969932535459
 20
-74.738354390291931
 11
175.25645341394352
 21
-74.808029799150916
  0
LINE
  8
_0-7_細線
  6
CONTINUOUS
 62
    4
 10
175.25645341394352
 20
-74.808029799150916
 11
176.71963699997991
 21
-75.295757661163123
  0
LINE
  8
_0-7_細線
  6
CONTINUOUS
 62
    4
 10
176.71963699997991
 20
-75.295757661163123
 11
177.27704027085088
 21
-75.9925117497516
  0
LINE
  8
_0-7_細線
  6
CONTINUOUS
 62
    4
 10
177.27704027085088
 20
-75.9925117497516
 11
178.80989926574671
 21
-78.013098606659412
  0
LINE
  8
_0-7_細線
  6
CONTINUOUS
 62
    4
 10
178.80989926574671
 20
-78.013098606659412
 11
183.5478270681499
 21
-85.886419807712684
  0
LINE
  8
_0-7_細線
  6
CONTINUOUS
 62
    4
 10
186.90441547050682
 20
-91.55684793803465
 11
193.64803051359445
 21
-103.1979110340896
  0
LINE
  8
_0-7_細線
  6
CONTINUOUS
 62
    4
 10
193.64803051359445
 20
-103.1979110340896
 11
194.29469321081956
 21
-104.86075796981248
  0
LINE
  8
_0-7_細線
  6
CONTINUOUS
 62
    4
 10
194.29469321081956
 20
-104.86075796981248
 11
194.0175520548662
 21
-105.69218143767358
  0
LINE
  8
_0-7_細線
  6
CONTINUOUS
 62
    4
 10
194.0175520548662
 20
-105.69218143767358
 11
193.1861285870043
 21
-106.84693625414781
  0
LINE
  8
_0-7_細線
  6
CONTINUOUS
 62
    4
 10
193.1861285870043
 20
-106.84693625414781
 11
189.95281510087739
 21
-107.81693029998615
  0
LINE
  8
_0-7_細線
  6
CONTINUOUS
 62
    4
 10
189.95281510087739
 20
-107.81693029998615
 11
188.01282700920069
 21
-108.50978318987069
  0
LINE
  8
_0-7_細線
  6
CONTINUOUS
 62
    4
 10
188.01282700920069
 20
-108.50978318987069
 11
186.30378988081861
 21
-107.81693029998615
  0
LINE
  8
_0-7_細線
  6
CONTINUOUS
 62
    4
 10
186.30378988081861
 20
-107.81693029998615
 11
183.67094889925806
 21
-104.99932854778928
  0
LINE
  8
_0-7_細線
  6
CONTINUOUS
 62
    4
 10
183.67094889925806
 20
-104.99932854778928
 11
183.57856851393967
 21
-103.47505219004341
  0
LINE
  8
_0-7_細線
  6
CONTINUOUS
 62
    4
 10
183.57856851393967
 20
-103.47505219004341
 11
173.16619114817672
 21
-86.443823078583534
  0
LINE
  8
_0-7_細線
  6
CONTINUOUS
 62
    4
 10
192.86196969438583
 20
-106.94418392193205
 11
193.76961459372319
 21
-106.03653902259435
  0
LINE
  8
_0-7_細線
  6
CONTINUOUS
 62
    4
 10
191.64978664092655
 20
-107.30783883797113
 11
194.23930201433382
 21
-104.71832346456353
  0
LINE
  8
_0-7_細線
  6
CONTINUOUS
 62
    4
 10
190.43760358746181
 20
-107.67149375401056
 11
194.00171413585463
 21
-104.10738320561785
  0
LINE
  8
_0-7_細線
  6
CONTINUOUS
 62
    4
 10
189.16076323916491
 20
-108.09980596488282
 11
193.76412625737544
 21
-103.49644294667195
  0
LINE
  8
_0-7_細線
  6
CONTINUOUS
 62
    4
 10
187.93415281880448
 20
-108.47788824781816
 11
193.48887310060377
 21
-102.92316796601921
  0
LINE
  8
_0-7_細線
  6
CONTINUOUS
 62
    4
 10
187.33039241333222
 20
-108.23312051586998
 11
193.17762766738565
 21
-102.38588526181701
  0
LINE
  8
_0-7_細線
  6
CONTINUOUS
 62
    4
 10
186.72663200785769
 20
-107.98835278392022
 11
192.86638223416617
 21
-101.84860255761151
  0
LINE
  8
_0-7_細線
  6
CONTINUOUS
 62
    4
 10
186.18096766888834
 20
-107.68548898546391
 11
192.55513680094623
 21
-101.31131985340613
  0
LINE
  8
_0-7_細線
  6
CONTINUOUS
 62
    4
 10
185.7710854330137
 20
-107.2468430839138
 11
192.24389136772675
 21
-100.77403714920098
  0
LINE
  8
_0-7_細線
  6
CONTINUOUS
 62
    4
 10
185.36120319713905
 20
-106.80819718236393
 11
191.93264593450726
 21
-100.23675444499537
  0
LINE
  8
_0-7_細線
  6
CONTINUOUS
 62
    4
 10
184.95132096126713
 20
-106.36955128081598
 11
191.62140050128869
 21
-99.69947174079374
  0
LINE
  8
_0-7_細線
  6
CONTINUOUS
 62
    4
 10
184.54143872539203
 20
-105.93090537926588
 11
191.31015506806921
 21
-99.162189036588245
  0
LINE
  8
_0-7_細線
  6
CONTINUOUS
 62
    4
 10
184.13155648951738
 20
-105.49225947771544
 11
190.99890963484972
 21
-98.624906332382977
  0
LINE
  8
_0-7_細線
  6
CONTINUOUS
 62
    4
 10
183.72167425364273
 20
-105.05361357616567
 11
190.68766420162979
 21
-98.087623628177596
  0
LINE
  8
_0-7_細線
  6
CONTINUOUS
 62
    4
 10
183.62846217042102
 20
-104.29829752196719
 11
190.37641876841258
 21
-97.550340923975511
  0
LINE
  8
_0-7_細線
  6
CONTINUOUS
 62
    4
 10
183.57997484828252
 20
-103.49825670668082
 11
190.06517333519309
 21
-97.013058219770244
  0
LINE
  8
_0-7_細線
  6
CONTINUOUS
 62
    4
 10
183.26596609735293
 20
-102.96373732018498
 11
189.7539279019727
 21
-96.475775515564976
  0
LINE
  8
_0-7_細線
  6
CONTINUOUS
 62
    4
 10
182.9440260790218
 20
-102.43714920109068
 11
189.44268246875231
 21
-95.938492811359708
  0
LINE
  8
_0-7_細線
  6
CONTINUOUS
 62
    4
 10
182.62208606069157
 20
-101.91056108199592
 11
189.13143703553283
 21
-95.401210107154441
  0
LINE
  8
_0-7_細線
  6
CONTINUOUS
 62
    4
 10
182.30014604236271
 20
-101.38397296290515
 11
188.82019160231562
 21
-94.863927402952243
  0
LINE
  8
_0-7_細線
  6
CONTINUOUS
 62
    4
 10
181.97820602403249
 20
-100.85738484381062
 11
188.50894616909613
 21
-94.326644698746975
  0
LINE
  8
_0-7_細線
  6
CONTINUOUS
 62
    4
 10
181.65626600570135
 20
-100.33079672471644
 11
188.1977007358762
 21
-93.789361994541594
  0
LINE
  8
_0-7_細線
  6
CONTINUOUS
 62
    4
 10
181.33432598736977
 20
-99.804208605622136
 11
187.88645530265671
 21
-93.252079290336439
  0
LINE
  8
_0-7_細線
  6
CONTINUOUS
 62
    4
 10
181.01238596904182
 20
-99.277620486531021
 11
187.57520986943814
 21
-92.714796586134469
  0
LINE
  8
_0-7_細線
  6
CONTINUOUS
 62
    4
 10
180.69044595071159
 20
-98.751032367436153
 11
187.26396443621866
 21
-92.177513881928519
  0
LINE
  8
_0-7_細線
  6
CONTINUOUS
 62
    4
 10
180.36850593238046
 20
-98.224444248342081
 11
186.95271900299917
 21
-91.640231177723592
  0
LINE
  8
_0-7_細線
  6
CONTINUOUS
 62
    4
 10
180.04656591404978
 20
-97.697856129247896
 11
186.18757410526246
 21
-91.556847938034878
  0
LINE
  8
_0-7_細線
  6
CONTINUOUS
 62
    4
 10
179.72462589572092
 20
-97.171268010157121
 11
185.33904596784464
 21
-91.556847938033968
  0
LINE
  8
_0-7_細線
  6
CONTINUOUS
 62
    4
 10
179.4026858773907
 20
-96.644679891062253
 11
184.49051783041773
 21
-91.55684793803465
  0
LINE
  8
_0-7_細線
  6
CONTINUOUS
 62
    4
 10
179.08074585905956
 20
-96.118091771968068
 11
183.64198969299446
 21
-91.556847938033968
  0
LINE
  8
_0-7_細線
  6
CONTINUOUS
 62
    4
 10
178.75880584072979
 20
-95.591503652873882
 11
182.79346155556937
 21
-91.556847938033286
  0
LINE
  8
_0-7_細線
  6
CONTINUOUS
 62
    4
 10
178.43686582239866
 20
-95.064915533779242
 11
181.94493341814336
 21
-91.556847938034309
  0
LINE
  8
_0-7_細線
  6
CONTINUOUS
 62
    4
 10
178.1149258040698
 20
-94.53832741468824
 11
181.09640528072464
 21
-91.556847938033286
  0
LINE
  8
_0-7_細線
  6
CONTINUOUS
 62
    4
 10
177.79298578573867
 20
-94.011739295593713
 11
180.30969362035853
 21
-91.495031460974417
  0
LINE
  8
_0-7_細線
  6
CONTINUOUS
 62
    4
 10
177.4710457674089
 20
-93.485151176499528
 11
181.46880461190426
 21
-89.487392332003935
  0
LINE
  8
_0-7_細線
  6
CONTINUOUS
 62
    4
 10
177.14910574907776
 20
-92.95856305740557
 11
182.62791560345454
 21
-87.479753203028451
  0
LINE
  8
_0-7_細線
  6
CONTINUOUS
 62
    4
 10
176.8271657307489
 20
-92.431974938314227
 11
183.48204131089983
 21
-85.777099358163639
  0
LINE
  8
_0-7_細線
  6
CONTINUOUS
 62
    4
 10
176.50522571241868
 20
-91.905386819219586
 11
183.16325725927095
 21
-85.24735527236777
  0
LINE
  8
_0-7_細線
  6
CONTINUOUS
 62
    4
 10
176.183285694088
 20
-91.378798700125515
 11
182.84447320764116
 21
-84.717611186572015
  0
LINE
  8
_0-7_細線
  6
CONTINUOUS
 62
    4
 10
175.86134567575687
 20
-90.852210581031215
 11
182.52568915601137
 21
-84.187867100776714
  0
LINE
  8
_0-7_細線
  6
CONTINUOUS
 62
    4
 10
175.53940565742573
 20
-90.325622461936689
 11
182.20690510438249
 21
-83.658123014981072
  0
LINE
  8
_0-7_細線
  6
CONTINUOUS
 62
    4
 10
175.21746563909778
 20
-89.799034342845573
 11
181.88812105275497
 21
-83.1283789291885
  0
LINE
  8
_0-7_細線
  6
CONTINUOUS
 62
    4
 10
155.07053431295094
 20
-109.09743753156653
 11
158.07565579209563
 21
-106.09231605242218
  0
LINE
  8
_0-7_細線
  6
CONTINUOUS
 62
    4
 10
174.8955256207671
 20
-89.272446223751501
 11
181.56933700112609
 21
-82.598634843392517
  0
LINE
  8
_0-7_細線
  6
CONTINUOUS
 62
    4
 10
153.68321394182408
 20
-109.63622976526921
 11
160.88497192275622
 21
-102.43447178433695
  0
LINE
  8
_0-7_細線
  6
CONTINUOUS
 62
    4
 10
174.57358560243597
 20
-88.745858104657202
 11
181.2505529494963
 21
-82.068890757596876
  0
LINE
  8
_0-7_細線
  6
CONTINUOUS
 62
    4
 10
152.71108153653836
 20
-109.75983403312961
 11
163.69428805342318
 21
-98.776627516245242
  0
LINE
  8
_0-7_細線
  6
CONTINUOUS
 62
    4
 10
174.25164558410484
 20
-88.219269985562676
 11
180.93176889786696
 21
-81.539146671801234
  0
LINE
  8
_0-7_細線
  6
CONTINUOUS
 62
    4
 10
152.26837120397136
 20
-109.35401622827629
 11
166.50360418406649
 21
-95.118783248181501
  0
LINE
  8
_0-7_細線
  6
CONTINUOUS
 62
    4
 10
173.92970556577689
 20
-87.69268186647156
 11
180.61298484624035
 21
-81.009402586008662
  0
LINE
  8
_0-7_細線
  6
CONTINUOUS
 62
    4
 10
151.87175504073161
 20
-108.90210425409128
 11
169.31292031473572
 21
-91.460938980087292
  0
LINE
  8
_0-7_細線
  6
CONTINUOUS
 62
    4
 10
173.60776554744666
 20
-87.166093747377033
 11
180.29420079461011
 21
-80.47965850021302
  0
LINE
  8
_0-7_細線
  6
CONTINUOUS
 62
    4
 10
151.51820165013828
 20
-108.40712950726021
 11
172.12223644539858
 21
-87.803094711999677
  0
LINE
  8
_0-7_細線
  6
CONTINUOUS
 62
    4
 10
173.28582552911553
 20
-86.639505628282961
 11
179.97541674298122
 21
-79.949914414417151
  0
LINE
  8
_0-7_細線
  6
CONTINUOUS
 62
    4
 10
151.25183713582078
 20
-107.82496588415239
 11
179.65663269135234
 21
-79.420170328621396
  0
LINE
  8
_0-7_細線
  6
CONTINUOUS
 62
    4
 10
151.05788784726724
 20
-107.17038703528061
 11
179.3378486397221
 21
-78.890426242826095
  0
LINE
  8
_0-7_細線
  6
CONTINUOUS
 62
    4
 10
150.8639385587137
 20
-106.51580818641429
 11
179.01906458809549
 21
-78.360682157033182
  0
LINE
  8
_0-7_細線
  6
CONTINUOUS
 62
    4
 10
151.06884650454208
 20
-105.46237210316116
 11
178.68403370058081
 21
-77.847184907122539
  0
LINE
  8
_0-7_細線
  6
CONTINUOUS
 62
    4
 10
151.89900452986944
 20
-103.7836859404087
 11
178.31800195502478
 21
-77.364688515253818
  0
LINE
  8
_0-7_細線
  6
CONTINUOUS
 62
    4
 10
153.94885205967262
 20
-100.88531027318055
 11
177.95197020946875
 21
-76.882192123384755
  0
LINE
  8
_0-7_細線
  6
CONTINUOUS
 62
    4
 10
156.34594404787435
 20
-97.639690147558838
 11
177.585938463915
 21
-76.39969573151842
  0
LINE
  8
_0-7_細線
  6
CONTINUOUS
 62
    4
 10
158.74303603610201
 20
-94.394070021906771
 11
177.21817539858671
 21
-75.918930659421619
  0
LINE
  8
_0-7_細線
  6
CONTINUOUS
 62
    4
 10
161.14012802432558
 20
-91.148449896258114
 11
176.84105178195364
 21
-75.44752613863028
  0
LINE
  8
_0-7_細線
  6
CONTINUOUS
 62
    4
 10
163.53722001255596
 20
-87.902829770602068
 11
176.28812834149153
 21
-75.151921441667071
  0
LINE
  8
_0-7_細線
  6
CONTINUOUS
 62
    4
 10
165.9343120007768
 20
-84.657209644956708
 11
175.65173223842316
 21
-74.939789407310116
  0
LINE
  8
_0-7_細線
  6
CONTINUOUS
 62
    4
 10
168.331403988989
 20
-81.411589519325446
 11
174.96419004596169
 21
-74.778803462352414
  0
LINE
  8
_0-7_細線
  6
CONTINUOUS
 62
    4
 10
169.19469284322145
 20
-79.699772527666426
 11
174.06001851755786
 21
-74.834446853330576
  0
LINE
  8
_0-7_細線
  6
CONTINUOUS
 62
    4
 10
169.19469284322145
 20
-78.851244390242016
 11
173.00945987122327
 21
-75.036477362240078
  0
LINE
  8
_0-7_細線
  6
CONTINUOUS
 62
    4
 10
171.09928917855154
 20
-76.098119917487281
 11
172.01260673321099
 21
-75.184802362827043
  0
LINE
  8
_0-7_細線
  6
CONTINUOUS
 62
    4
 10
151.33376651941921
 20
-108.10147755379779
 11
153.08577078713938
 21
-109.85348182151819
  0
LINE
  8
_0-7_細線
  6
CONTINUOUS
 62
    4
 10
150.97649151418932
 20
-106.89567441114269
 11
153.70802475458345
 21
-109.62720765153807
  0
LINE
  8
_0-7_細線
  6
CONTINUOUS
 62
    4
 10
150.90469398068558
 20
-105.97534874021397
 11
154.33027872202888
 21
-109.40093348155762
  0
LINE
  8
_0-7_細線
  6
CONTINUOUS
 62
    4
 10
151.11039777157634
 20
-105.33252439367999
 11
154.93272955754651
 21
-109.15485617965072
  0
LINE
  8
_0-7_細線
  6
CONTINUOUS
 62
    4
 10
151.31610156246529
 20
-104.68970004714942
 11
155.53169059572497
 21
-108.90528908040977
  0
LINE
  8
_0-7_細線
  6
CONTINUOUS
 62
    4
 10
151.63583099423181
 20
-104.16090134149096
 11
156.11721524014661
 21
-108.64228558740609
  0
LINE
  8
_0-7_細線
  6
CONTINUOUS
 62
    4
 10
151.98454118769473
 20
-103.66108339752822
 11
156.4858134558724
 21
-108.16235566570634
  0
LINE
  8
_0-7_細線
  6
CONTINUOUS
 62
    4
 10
152.33325138115629
 20
-103.1612654535657
 11
156.8544116715982
 21
-107.68242574400659
  0
LINE
  8
_0-7_細線
  6
CONTINUOUS
 62
    4
 10
152.68196157461693
 20
-102.66144750960615
 11
157.22300988732127
 21
-107.20249582231048
  0
LINE
  8
_0-7_細線
  6
CONTINUOUS
 62
    4
 10
153.0306717680794
 20
-102.16162956564341
 11
157.59160810304616
 21
-106.7225659006105
  0
LINE
  8
_0-7_細線
  6
CONTINUOUS
 62
    4
 10
153.37938196154096
 20
-101.66181162168033
 11
157.96020631877195
 21
-106.24263597891076
  0
LINE
  8
_0-7_細線
  6
CONTINUOUS
 62
    4
 10
153.73753215763986
 20
-101.17143368035369
 11
158.32880453449729
 21
-105.76270605721089
  0
LINE
  8
_0-7_細線
  6
CONTINUOUS
 62
    4
 10
154.09799711827304
 20
-100.68337050356769
 11
158.69740275022082
 21
-105.28277613551467
  0
LINE
  8
_0-7_細線
  6
CONTINUOUS
 62
    4
 10
154.45846207890895
 20
-100.19530732677816
 11
159.0660009659457
 21
-104.80284621381492
  0
LINE
  8
_0-7_細線
  6
CONTINUOUS
 62
    4
 10
154.81892703954486
 20
-99.707244149988185
 11
159.4345991816715
 21
-104.32291629211551
  0
LINE
  8
_0-7_細線
  6
CONTINUOUS
 62
    4
 10
155.17939200017986
 20
-99.219180973198775
 11
159.80319739739639
 21
-103.84298637041576
  0
LINE
  8
_0-7_細線
  6
CONTINUOUS
 62
    4
 10
155.53985696081531
 20
-98.731117796409023
 11
160.17179561312219
 21
-103.36305644871601
  0
LINE
  8
_0-7_細線
  6
CONTINUOUS
 62
    4
 10
155.90032192144804
 20
-98.243054619622683
 11
160.54039382884525
 21
-102.88312652701921
  0
LINE
  8
_0-7_細線
  6
CONTINUOUS
 62
    4
 10
156.26078688208395
 20
-97.754991442832932
 11
160.9089920445706
 21
-102.40319660531947
  0
LINE
  8
_0-7_細線
  6
CONTINUOUS
 62
    4
 10
156.62125184271895
 20
-97.26692826604318
 11
161.27759026029594
 21
-101.92326668362017
  0
LINE
  8
_0-7_細線
  6
CONTINUOUS
 62
    4
 10
156.98171680335486
 20
-96.77886508925377
 11
161.64618847602128
 21
-101.44333676192042
  0
LINE
  8
_0-7_細線
  6
CONTINUOUS
 62
    4
 10
157.34218176398804
 20
-96.29080191246743
 11
162.0147866917448
 21
-100.96340684022408
  0
LINE
  8
_0-7_細線
  6
CONTINUOUS
 62
    4
 10
157.70264672462304
 20
-95.802738735677679
 11
162.38338490746969
 21
-100.48347691852433
  0
LINE
  8
_0-7_細線
  6
CONTINUOUS
 62
    4
 10
158.06311168525895
 20
-95.314675558887927
 11
162.75198312319549
 21
-100.00354699682458
  0
LINE
  8
_0-7_細線
  6
CONTINUOUS
 62
    4
 10
158.42357664589485
 20
-94.826612382098176
 11
163.12058133892037
 21
-99.523617075124832
  0
LINE
  8
_0-7_細線
  6
CONTINUOUS
 62
    4
 10
158.78404160652985
 20
-94.338549205308766
 11
163.48917955464617
 21
-99.043687153425083
  0
LINE
  8
_0-7_細線
  6
CONTINUOUS
 62
    4
 10
159.14450656716303
 20
-93.850486028522425
 11
163.85777777036924
 21
-98.563757231728744
  0
LINE
  8
_0-7_細線
  6
CONTINUOUS
 62
    4
 10
159.50497152779803
 20
-93.362422851732674
 11
164.22637598609458
 21
-98.083827310028994
  0
LINE
  8
_0-7_細線
  6
CONTINUOUS
 62
    4
 10
159.86543648843394
 20
-92.874359674942923
 11
164.59497420182083
 21
-97.603897388329244
  0
LINE
  8
_0-7_細線
  6
CONTINUOUS
 62
    4
 10
160.22590144906985
 20
-92.386296498153854
 11
164.96357241754572
 21
-97.123967466629836
  0
LINE
  8
_0-7_細線
  6
CONTINUOUS
 62
    4
 10
160.58636640970258
 20
-91.898233321366718
 11
165.33217063326879
 21
-96.644037544933155
  0
LINE
  8
_0-7_細線
  6
CONTINUOUS
 62
    4
 10
160.94683137033803
 20
-91.410170144577762
 11
165.70076884899368
 21
-96.164107623233406
  0
LINE
  8
_0-7_細線
  6
CONTINUOUS
 62
    4
 10
161.30729633097303
 20
-90.92210696778767
 11
166.06936706471947
 21
-95.684177701533656
  0
LINE
  8
_0-7_細線
  6
CONTINUOUS
 62
    4
 10
161.66776129160894
 20
-90.434043790997919
 11
166.43796528044527
 21
-95.204247779834247
  0
LINE
  8
_0-7_細線
  6
CONTINUOUS
 62
    4
 10
162.02822625224485
 20
-89.945980614209077
 11
166.80656349617061
 21
-94.724317858134725
  0
LINE
  8
_0-7_細線
  6
CONTINUOUS
 62
    4
 10
162.38869121287757
 20
-89.457917437422395
 11
167.17516171189413
 21
-94.244387936437818
  0
LINE
  8
_0-7_細線
  6
CONTINUOUS
 62
    4
 10
162.74915617351303
 20
-88.969854260632758
 11
167.54375992761902
 21
-93.764458014738409
  0
LINE
  8
_0-7_細線
  6
CONTINUOUS
 62
    4
 10
163.10962113414803
 20
-88.481791083843234
 11
167.91235814334482
 21
-93.284528093038659
  0
LINE
  8
_0-7_細線
  6
CONTINUOUS
 62
    4
 10
163.47008609478394
 20
-87.993727907053483
 11
168.28095635906971
 21
-92.804598171339251
  0
LINE
  8
_0-7_細線
  6
CONTINUOUS
 62
    4
 10
163.83055105541757
 20
-87.505664730266915
 11
168.64955457479277
 21
-92.32466824964223
  0
LINE
  8
_0-7_細線
  6
CONTINUOUS
 62
    4
 10
164.19101601605257
 20
-87.017601553477391
 11
169.01815279051766
 21
-91.84473832794248
  0
LINE
  8
_0-7_細線
  6
CONTINUOUS
 62
    4
 10
164.55148097668803
 20
-86.52953837668764
 11
169.38675100624391
 21
-91.364808406243299
  0
LINE
  8
_0-7_細線
  6
CONTINUOUS
 62
    4
 10
164.91194593732303
 20
-86.04147519989823
 11
169.75534922196925
 21
-90.884878484544004
  0
LINE
  8
_0-7_細線
  6
CONTINUOUS
 62
    4
 10
183.65811984210063
 20
-104.78764910467504
 11
186.94895409872402
 21
-108.07848336129854
  0
LINE
  8
_0-7_細線
  6
CONTINUOUS
 62
    4
 10
165.27241089795984
 20
-85.553412023108478
 11
170.1239474376946
 21
-90.404948562844481
  0
LINE
  8
_0-7_細線
  6
CONTINUOUS
 62
    4
 10
183.6033760912967
 20
-103.88437721644624
 11
188.17195178695215
 21
-108.45295291210192
  0
LINE
  8
_0-7_細線
  6
CONTINUOUS
 62
    4
 10
165.63287585859257
 20
-85.065348846321797
 11
170.49254565341812
 21
-89.92501864114746
  0
LINE
  8
_0-7_細線
  6
CONTINUOUS
 62
    4
 10
182.84861495481414
 20
-102.28108794254371
 11
188.79718304610401
 21
-108.22965603383335
  0
LINE
  8
_0-7_細線
  6
CONTINUOUS
 62
    4
 10
165.99334081922802
 20
-84.577285669532728
 11
170.86114386914301
 21
-89.445088719447824
  0
LINE
  8
_0-7_細線
  6
CONTINUOUS
 62
    4
 10
181.51376179420799
 20
-100.09770664451281
 11
189.42241430525951
 21
-108.00635915556364
  0
LINE
  8
_0-7_細線
  6
CONTINUOUS
 62
    4
 10
166.35380577986302
 20
-84.089222492742977
 11
171.2297420848688
 21
-88.965158797748302
  0
LINE
  8
_0-7_細線
  6
CONTINUOUS
 62
    4
 10
180.17890863360276
 20
-97.914325346482144
 11
190.05181393643829
 21
-107.78723064931756
  0
LINE
  8
_0-7_細線
  6
CONTINUOUS
 62
    4
 10
166.71427074049893
 20
-83.601159315953339
 11
171.59834030059369
 21
-88.485228876048552
  0
LINE
  8
_0-7_細線
  6
CONTINUOUS
 62
    4
 10
178.84405547298661
 20
-95.730944048441245
 11
190.70452788830312
 21
-107.59141646375775
  0
LINE
  8
_0-7_細線
  6
CONTINUOUS
 62
    4
 10
167.07473570113211
 20
-83.113096139166885
 11
171.96693851631721
 21
-88.005298954351872
  0
LINE
  8
_0-7_細線
  6
CONTINUOUS
 62
    4
 10
177.50920231238865
 20
-93.547562750423197
 11
191.35724184016522
 21
-107.39560227820022
  0
LINE
  8
_0-7_細線
  6
CONTINUOUS
 62
    4
 10
167.43520066176757
 20
-82.625032962377134
 11
172.33553673204256
 21
-87.525369032652122
  0
LINE
  8
_0-7_細線
  6
CONTINUOUS
 62
    4
 10
176.17434915178342
 20
-91.36418145239287
 11
192.00995579203004
 21
-107.19978809264029
  0
LINE
  8
_0-7_細線
  6
CONTINUOUS
 62
    4
 10
167.79566562240302
 20
-82.136969785587723
 11
172.7041349477679
 21
-87.045439110952714
  0
LINE
  8
_0-7_細線
  6
CONTINUOUS
 62
    4
 10
174.83949599117727
 20
-89.180800154361748
 11
192.66266974389578
 21
-107.00397390708025
  0
LINE
  8
_0-7_細線
  6
CONTINUOUS
 62
    4
 10
168.15613058303802
 20
-81.648906608797972
 11
173.07273316349324
 21
-86.565509189252964
  0
LINE
  8
_0-7_細線
  6
CONTINUOUS
 62
    4
 10
173.50464283057113
 20
-86.99741885633108
 11
193.25646741363084
 21
-106.74924343939011
  0
LINE
  8
_0-7_細線
  6
CONTINUOUS
 62
    4
 10
168.51659554367393
 20
-81.160843432008562
 11
193.61166523859924
 21
-106.25591312693354
  0
LINE
  8
_0-7_細線
  6
CONTINUOUS
 62
    4
 10
168.87706050430711
 20
-80.67278025522188
 11
193.96686306356492
 21
-105.76258281447991
  0
LINE
  8
_0-7_細線
  6
CONTINUOUS
 62
    4
 10
169.19469284322236
 20
-80.141884456712603
 11
180.39686118930217
 21
-91.344052802791623
  0
LINE
  8
_0-7_細線
  6
CONTINUOUS
 62
    4
 10
180.60965632454622
 20
-91.556847938035673
 11
194.19941149719511
 21
-105.14660311068479
  0
LINE
  8
_0-7_細線
  6
CONTINUOUS
 62
    4
 10
169.19469284322145
 20
-79.293356319286488
 11
180.70744404342554
 21
-90.806107519490126
  0
LINE
  8
_0-7_細線
  6
CONTINUOUS
 62
    4
 10
181.45818446197131
 20
-91.556847938035332
 11
193.99725603077491
 21
-104.09591950683949
  0
LINE
  8
_0-7_細線
  6
CONTINUOUS
 62
    4
 10
169.27420019723718
 20
-78.524335535877242
 11
181.01802689754891
 21
-90.268162236188857
  0
LINE
  8
_0-7_細線
  6
CONTINUOUS
 62
    4
 10
182.30671259939459
 20
-91.55684793803465
 11
193.23529185958228
 21
-102.485427198222
  0
LINE
  8
_0-7_細線
  6
CONTINUOUS
 62
    4
 10
169.5287586384627
 20
-77.930365839682338
 11
181.32860975167091
 21
-89.730216952890771
  0
LINE
  8
_0-7_細線
  6
CONTINUOUS
 62
    4
 10
183.15524073681513
 20
-91.556847938035332
 11
192.06689822884096
 21
-100.46850543006082
  0
LINE
  8
_0-7_細線
  6
CONTINUOUS
 62
    4
 10
169.88030887804666
 20
-77.433387941841886
 11
181.63919260579428
 21
-89.192271669588933
  0
LINE
  8
_0-7_細線
  6
CONTINUOUS
 62
    4
 10
184.00376887424159
 20
-91.556847938036015
 11
190.89850459809145
 21
-98.451583661885309
  0
LINE
  8
_0-7_細線
  6
CONTINUOUS
 62
    4
 10
170.27961623683564
 20
-76.984167163204972
 11
181.94977545991765
 21
-88.654326386287437
  0
LINE
  8
_0-7_細線
  6
CONTINUOUS
 62
    4
 10
184.85229701166622
 20
-91.55684793803556
 11
189.73011096734058
 21
-96.434661893710484
  0
LINE
  8
_0-7_細線
  6
CONTINUOUS
 62
    4
 10
170.67892359562325
 20
-76.534946384568059
 11
182.26035831404056
 21
-88.11638110298594
  0
LINE
  8
_0-7_細線
  6
CONTINUOUS
 62
    4
 10
185.70082514909041
 20
-91.556847938034878
 11
188.5617173365888
 21
-94.417740125533612
  0
LINE
  8
_0-7_細線
  6
CONTINUOUS
 62
    4
 10
171.09574485067401
 20
-76.103239502199756
 11
182.57094116816302
 21
-87.578435819687854
  0
LINE
  8
_0-7_細線
  6
CONTINUOUS
 62
    4
 10
186.54935328651095
 20
-91.556847938035332
 11
187.39332370583793
 21
-92.400818357362766
  0
LINE
  8
_0-7_細線
  6
CONTINUOUS
 62
    4
 10
171.44286999780275
 20
-75.601836511903173
 11
182.88152402228593
 21
-87.040490536386017
  0
LINE
  8
_0-7_細線
  6
CONTINUOUS
 62
    4
 10
171.89062783874829
 20
-75.201066215422941
 11
183.1921068764093
 21
-86.50254525308452
  0
LINE
  8
_0-7_細線
  6
CONTINUOUS
 62
    4
 10
172.63932913647545
 20
-75.10123937572547
 11
183.50268973053312
 21
-85.964599969783364
  0
LINE
  8
_0-7_細線
  6
CONTINUOUS
 62
    4
 10
173.3563798750622
 20
-74.969761976886673
 11
182.45195321557253
 21
-84.065335317397569
  0
LINE
  8
_0-7_細線
  6
CONTINUOUS
 62
    4
 10
174.06804863547836
 20
-74.832902599883539
 11
181.16973291901809
 21
-81.93458688342281
  0
LINE
  8
_0-7_細線
  6
CONTINUOUS
 62
    4
 10
174.85117625641828
 20
-74.767502083398256
 11
179.88751262246547
 21
-79.803838449445095
  0
LINE
  8
_0-7_細線
  6
CONTINUOUS
 62
    4
 10
175.98212145742195
 20
-75.049919146976833
 11
178.38435121861744
 21
-77.452148908172774
  0
LINE
  8
_0-7_細線
  6
CONTINUOUS
 62
    4
 10
196.2669485057238
 20
-82.383845763254897
 11
196.2669485057238
 21
-73.611774827145666
  0
LINE
  8
_0-7_細線
  6
CONTINUOUS
 62
    4
 10
195.66694850572344
 20
-82.258194156363345
 11
195.66694850572344
 21
-73.737426434037218
  0
LINE
  8
_0-7_細線
  6
CONTINUOUS
 62
    4
 10
195.06694850572308
 20
-82.040635317623412
 11
195.06694850572308
 21
-73.954985272777151
  0
LINE
  8
_0-7_細線
  6
CONTINUOUS
 62
    4
 10
194.46694850572362
 20
-81.715067036314679
 11
194.46694850572362
 21
-74.280553554085884
  0
LINE
  8
_0-7_細線
  6
CONTINUOUS
 62
    4
 10
193.86694850572371
 20
-81.249204026629116
 11
193.86694850572371
 21
-74.746416563771447
  0
LINE
  8
_0-7_細線
  6
CONTINUOUS
 62
    4
 10
193.2669485057238
 20
-80.567854013547787
 11
193.2669485057238
 21
-75.427766576852548
  0
LINE
  8
_0-7_細線
  6
CONTINUOUS
 62
    4
 10
192.66694850572435
 20
-79.382977516742301
 11
192.66694850572435
 21
-76.612643073657921
  0
LINE
  8
_0-7_細線
  6
CONTINUOUS
 62
    4
 10
180.33982517514755
 20
-91.44284207717061
 11
193.10818254622905
 21
-91.44284207717061
  0
LINE
  8
_0-7_細線
  6
CONTINUOUS
 62
    4
 10
180.68623533666027
 20
-90.842842077170701
 11
192.76177238471496
 21
-90.842842077170701
  0
LINE
  8
_0-7_細線
  6
CONTINUOUS
 62
    4
 10
181.03264549817436
 20
-90.242842077170678
 11
192.41536222320133
 21
-90.242842077170678
  0
LINE
  8
_0-7_細線
  6
CONTINUOUS
 62
    4
 10
181.37905565968845
 20
-89.642842077170542
 11
192.0689520616877
 21
-89.642842077170542
  0
LINE
  8
_0-7_細線
  6
CONTINUOUS
 62
    4
 10
181.72546582120208
 20
-89.042842077170633
 11
191.72254190017361
 21
-89.042842077170633
  0
LINE
  8
_0-7_細線
  6
CONTINUOUS
 62
    4
 10
182.07187598271571
 20
-88.44284207717061
 11
191.37613173865952
 21
-88.44284207717061
  0
LINE
  8
_0-7_細線
  6
CONTINUOUS
 62
    4
 10
182.4182861442298
 20
-87.842842077170701
 11
191.02972157714589
 21
-87.842842077170701
  0
LINE
  8
_0-7_細線
  6
CONTINUOUS
 62
    4
 10
182.76469630574388
 20
-87.242842077170565
 11
190.68331141563226
 21
-87.242842077170565
  0
LINE
  8
_0-7_細線
  6
CONTINUOUS
 62
    4
 10
183.11110646725751
 20
-86.642842077170542
 11
190.33690125411863
 21
-86.642842077170542
  0
LINE
  8
_0-7_細線
  6
CONTINUOUS
 62
    4
 10
183.45751662877115
 20
-86.042842077170633
 11
189.990491092605
 21
-86.042842077170633
  0
LINE
  8
_0-7_細線
  6
CONTINUOUS
 62
    4
 10
183.80392679028478
 20
-85.44284207717061
 11
189.64408093109137
 21
-85.44284207717061
  0
LINE
  8
_0-7_細線
  6
CONTINUOUS
 62
    4
 10
184.15033695179841
 20
-84.842842077170701
 11
189.29767076957728
 21
-84.842842077170701
  0
LINE
  8
_0-7_細線
  6
CONTINUOUS
 62
    4
 10
184.49674711331204
 20
-84.242842077170565
 11
188.95126060806319
 21
-84.242842077170565
  0
LINE
  8
_0-7_細線
  6
CONTINUOUS
 62
    4
 10
184.84315727482613
 20
-83.642842077170542
 11
188.60485044654956
 21
-83.642842077170542
  0
LINE
  8
_0-7_細線
  6
CONTINUOUS
 62
    4
 10
185.18956743634021
 20
-83.042842077170633
 11
188.25844028503593
 21
-83.042842077170633
  0
LINE
  8
_0-7_細線
  6
CONTINUOUS
 62
    4
 10
185.53597759785384
 20
-82.44284207717061
 11
187.9120301235223
 21
-82.44284207717061
  0
LINE
  8
_0-7_細線
  6
CONTINUOUS
 62
    4
 10
185.88238775936748
 20
-81.842842077170701
 11
187.56561996200776
 21
-81.842842077170701
  0
LINE
  8
_0-7_細線
  6
CONTINUOUS
 62
    4
 10
186.22879792088156
 20
-81.242842077170565
 11
187.21920980049413
 21
-81.242842077170565
  0
LINE
  8
_0-7_細線
  6
CONTINUOUS
 62
    4
 10
186.57520808239565
 20
-80.642842077170542
 11
186.87279963898095
 21
-80.642842077170542
  0
LINE
  8
_0-7_細線
  6
CONTINUOUS
 62
    4
 10
192.66694850572344
 20
-91.55684793803465
 11
192.66694850572344
 21
-90.678602300986597
  0
LINE
  8
_0-7_細線
  6
CONTINUOUS
 62
    4
 10
192.06694850572308
 20
-91.55684793803465
 11
192.06694850572308
 21
-89.639371816445362
  0
LINE
  8
_0-7_細線
  6
CONTINUOUS
 62
    4
 10
191.46694850572362
 20
-91.55684793803465
 11
191.46694850572362
 21
-88.600141331904013
  0
LINE
  8
_0-7_細線
  6
CONTINUOUS
 62
    4
 10
190.86694850572371
 20
-91.55684793803465
 11
190.86694850572371
 21
-87.560910847362891
  0
LINE
  8
_0-7_細線
  6
CONTINUOUS
 62
    4
 10
190.2669485057238
 20
-91.55684793803465
 11
190.2669485057238
 21
-86.521680362821542
  0
LINE
  8
_0-7_細線
  6
CONTINUOUS
 62
    4
 10
189.66694850572344
 20
-91.55684793803465
 11
189.66694850572344
 21
-85.482449878280306
  0
LINE
  8
_0-7_細線
  6
CONTINUOUS
 62
    4
 10
189.06694850572308
 20
-91.55684793803465
 11
189.06694850572308
 21
-84.443219393739071
  0
LINE
  8
_0-7_細線
  6
CONTINUOUS
 62
    4
 10
188.46694850572362
 20
-91.55684793803465
 11
188.46694850572362
 21
-83.403988909197608
  0
LINE
  8
_0-7_細線
  6
CONTINUOUS
 62
    4
 10
187.86694850572371
 20
-91.55684793803465
 11
187.86694850572371
 21
-82.364758424656372
  0
LINE
  8
_0-7_細線
  6
CONTINUOUS
 62
    4
 10
187.2669485057238
 20
-91.55684793803465
 11
187.2669485057238
 21
-81.325527940115137
  0
LINE
  8
_0-7_細線
  6
CONTINUOUS
 62
    4
 10
186.66694850572344
 20
-91.55684793803465
 11
186.66694850572344
 21
-80.483943002857643
  0
LINE
  8
_0-7_細線
  6
CONTINUOUS
 62
    4
 10
186.06694850572308
 20
-91.55684793803465
 11
186.06694850572308
 21
-81.523173487398878
  0
LINE
  8
_0-7_細線
  6
CONTINUOUS
 62
    4
 10
185.46694850572362
 20
-91.55684793803465
 11
185.46694850572362
 21
-82.562403971940341
  0
LINE
  8
_0-7_細線
  6
CONTINUOUS
 62
    4
 10
184.86694850572371
 20
-91.55684793803465
 11
184.86694850572371
 21
-83.601634456481577
  0
LINE
  8
_0-7_細線
  6
CONTINUOUS
 62
    4
 10
184.2669485057238
 20
-91.55684793803465
 11
184.2669485057238
 21
-84.640864941022926
  0
LINE
  8
_0-7_細線
  6
CONTINUOUS
 62
    4
 10
183.66694850572344
 20
-91.55684793803465
 11
183.66694850572344
 21
-85.680095425564161
  0
LINE
  8
_0-7_細線
  6
CONTINUOUS
 62
    4
 10
183.06694850572308
 20
-91.55684793803465
 11
183.06694850572308
 21
-86.719325910105624
  0
LINE
  8
_0-7_細線
  6
CONTINUOUS
 62
    4
 10
182.46694850572362
 20
-91.55684793803465
 11
182.46694850572362
 21
-87.75855639464686
  0
LINE
  8
_0-7_細線
  6
CONTINUOUS
 62
    4
 10
181.86694850572371
 20
-91.55684793803465
 11
181.86694850572371
 21
-88.797786879188095
  0
LINE
  8
_0-7_細線
  6
CONTINUOUS
 62
    4
 10
181.2669485057238
 20
-91.55684793803465
 11
181.2669485057238
 21
-89.837017363729444
  0
LINE
  8
_0-7_細線
  6
CONTINUOUS
 62
    4
 10
180.66694850572344
 20
-91.55684793803465
 11
180.66694850572344
 21
-90.87624784827068
  0
LINE
  8
_0-6_図面枠
  6
CONTINUOUS
 62
    3
 10
573.66983542641242
 20
-84.997317329457758
 11
573.66983542641242
 21
-118.74731732608262
  0
LINE
  8
_0-6_図面枠
  6
CONTINUOUS
 62
    3
 10
618.66983542641242
 20
-84.997317329457758
 11
618.66983542641242
 21
-118.74731732608262
  0
LINE
  8
_0-6_図面枠
  6
CONTINUOUS
 62
    3
 10
708.66983542641151
 20
-93.997317329457758
 11
513.66983542641231
 21
-93.997317329457758
  0
LINE
  8
_0-6_図面枠
  6
CONTINUOUS
 62
    3
 10
648.66983542641151
 20
-64.747317331482975
 11
648.66983542641151
 21
-118.74731732608262
  0
LINE
  8
_0-6_図面枠
  6
CONTINUOUS
 62
    3
 10
678.66983542641151
 20
-64.747317331482975
 11
678.66983542641151
 21
-118.74731732608262
  0
LINE
  8
_0-6_図面枠
  6
CONTINUOUS
 62
    3
 10
708.66983542641151
 20
-74.872317330470366
 11
678.66983542641151
 21
-74.872317330470366
  0
LINE
  8
_0-6_図面枠
  6
CONTINUOUS
 62
    3
 10
708.66983542641151
 20
-84.997317329457758
 11
513.66983542641231
 21
-84.997317329457758
  0
CIRCLE
  8
_0-8__0-0_
  6
CONTINUOUS
 62
    2
 10
656.1698354264114
 20
-74.872317330470366
 40
6
  0
CIRCLE
  8
_0-8__0-0_
  6
CONTINUOUS
 62
    2
 10
656.1698354264114
 20
-74.872317330470366
 40
3
  0
LINE
  8
_0-4_中心線
  6
CENTER
 62
    1
 10
656.1698354264114
 20
-67.372317330470366
 11
656.1698354264114
 21
-82.372317330470366
  0
LINE
  8
_0-8__0-0_
  6
CONTINUOUS
 62
    2
 10
665.1698354264114
 20
-71.872317330470366
 11
675.66983542641151
 21
-68.872317330470366
  0
LINE
  8
_0-8__0-0_
  6
CONTINUOUS
 62
    2
 10
675.66983542641151
 20
-68.872317330470366
 11
675.66983542641151
 21
-80.872317330470366
  0
LINE
  8
_0-8__0-0_
  6
CONTINUOUS
 62
    2
 10
665.1698354264114
 20
-77.872317330470366
 11
675.66983542641151
 21
-80.872317330470366
  0
LINE
  8
_0-8__0-0_
  6
CONTINUOUS
 62
    2
 10
665.1698354264114
 20
-71.872317330470366
 11
665.1698354264114
 21
-77.872317330470366
  0
LINE
  8
_0-4_中心線
  6
CENTER
 62
    1
 10
648.66983542641151
 20
-74.872317330470366
 11
677.1698354264114
 21
-74.872317330470366
  0
LINE
  8
_0-6_図面枠
  6
CONTINUOUS
 62
    3
 10
513.66983542641231
 20
-91.747317328782572
 11
311.33016457358804
 21
-91.747317328782572
  0
LINE
  8
_0-6_図面枠
  6
CONTINUOUS
 62
    3
 10
311.33016457358804
 20
-118.74731732608262
 11
311.33016457358804
 21
-64.747317331482975
  0
TEXT
  8
_0-9_文字
 62
    7
 10
314.33016457358804
 20
-71.98887821559407
 40
6
 41
1
 50
0
  1
品番
  0
TEXT
  8
_0-9_文字
 62
    7
 10
314.33016457358804
 20
-98.977301118663888
 40
6
 41
1
 50
0
  1
名称
  0
TEXT
  8
_0-9_文字
 62
    7
 10
657.19204762489039
 20
-92.654088354071689
 40
6
 41
1
 50
0
  1
検図
  0
LINE
  8
_0-6_図面枠
  6
CONTINUOUS
 62
    3
 10
131.33016457358804
 20
-64.747317331482975
 11
131.33016457358804
 21
-118.74731732608262
  0
TEXT
  8
_0-9_文字
 62
    7
 10
687.26983542641153
 20
-72.8098173309765
 40
6
 41
1
 50
0
  1
単位
  0
TEXT
  8
_0-9_文字
 62
    7
 10
685.09840685498295
 20
-81.934817329964005
 40
6
 41
1
 50
0
  1
mm
  0
TEXT
  8
_0-9_文字
 62
    7
 10
580.28412114069806
 20
-109.37231732777019
 40
6
 41
1
 50
0
  1
S=1：3
  0
TEXT
  8
_0-9_文字
 62
    7
 10
523.24126399784097
 20
-109.37231732777019
 40
6
 41
1
 50
0
  1
10.07.23
  0
TEXT
  8
_0-9_文字
 62
    7
 10
627.46983542641135
 20
-109.37231732777019
 40
6
 41
1
 50
0
  1
竹内
  0
TEXT
  8
_0-9_文字
 62
    7
 10
536.86983542641246
 20
-92.497317329457758
 40
6
 41
1
 50
0
  1
日付
  0
TEXT
  8
_0-9_文字
 62
    7
 10
582.45554971212664
 20
-92.497317329457758
 40
6
 41
1
 50
0
  1
SCALE
  0
TEXT
  8
_0-9_文字
 62
    7
 10
627.46983542641135
 20
-92.497317329457758
 40
6
 41
1
 50
0
  1
製図
  0
TEXT
  8
_0-9_文字
 62
    7
 10
371.642857142857
 20
-84.247317330132717
 40
12
 41
1
 50
0
  1
GS-TREY
  0
TEXT
  8
_0-9_文字
 62
    7
 10
371.29999999999978
 20
-111.24731732743254
 40
12
 41
1
 50
0
  1
水受けトレー
  0
LINE
  8
_0-6_図面枠
  6
CONTINUOUS
 62
    3
 10
131.33016457358804
 20
712.74731732608245
 11
131.33016457358804
 21
-118.74731732608262
  0
LINE
  8
_0-1_1
  6
CONTINUOUS
 62
    7
 10
614.38587668520813
 20
223.22919717612018
 11
613.88587668520813
 21
222.72919717612029
  0
LINE
  8
_0-1_1
  6
CONTINUOUS
 62
    7
 10
614.88587668520813
 20
223.22919717612018
 11
614.38587668520813
 21
223.22919717612018
  0
LINE
  8
_0-1_1
  6
CONTINUOUS
 62
    7
 10
613.88587668520813
 20
222.72919717612029
 11
613.88587668520813
 21
212.72919717612018
  0
LINE
  8
_0-1_1
  6
CONTINUOUS
 62
    7
 10
613.88587668520813
 20
212.72919717612018
 11
614.38587668520813
 21
212.22919717612029
  0
LINE
  8
_0-1_1
  6
CONTINUOUS
 62
    7
 10
614.38587668520813
 20
212.22919717612029
 11
614.88587668520813
 21
212.22919717612029
  0
LINE
  8
_0-1_1
  6
CONTINUOUS
 62
    7
 10
614.88587668520813
 20
212.22919717612029
 11
614.88587668520813
 21
223.22919717612018
  0
LINE
  8
_0-1_1
  6
CONTINUOUS
 62
    7
 10
357.52141167934951
 20
504.58067971629771
 11
352.02141167934951
 21
504.58067971629771
  0
LINE
  8
_0-1_1
  6
CONTINUOUS
 62
    7
 10
352.02141167934951
 20
504.08067971629771
 11
352.52141167934951
 21
503.5806797162976
  0
LINE
  8
_0-1_1
  6
CONTINUOUS
 62
    7
 10
352.02141167934951
 20
504.58067971629771
 11
352.02141167934951
 21
504.08067971629771
  0
LINE
  8
_0-1_1
  6
CONTINUOUS
 62
    7
 10
362.52141167934951
 20
503.5806797162976
 11
363.02141167934951
 21
504.08067971629771
  0
LINE
  8
_0-1_1
  6
CONTINUOUS
 62
    7
 10
363.02141167934951
 20
504.08067971629771
 11
363.02141167934951
 21
504.58067971629771
  0
LINE
  8
_0-1_1
  6
CONTINUOUS
 62
    7
 10
363.02141167934951
 20
504.58067971629771
 11
357.52141167934951
 21
504.58067971629771
  0
LINE
  8
_0-1_1
  6
CONTINUOUS
 62
    2
 10
363.02141167934951
 20
504.08067971629771
 11
352.02141167934951
 21
504.08067971629771
  0
LINE
  8
_0-2_0
  6
CONTINUOUS
 62
    7
 10
614.38587668520813
 20
223.22919717612018
 11
614.38587668520813
 21
212.22919717612029
  0
LINE
  8
_0-1_1
  6
CONTINUOUS
 62
    7
 10
358.8214116793493
 20
504.58067971629771
 11
358.8214116793493
 21
505.10966065842285
  0
LINE
  8
_0-1_1
  6
CONTINUOUS
 62
    7
 10
357.07143331559564
 20
517.17407826149304
 11
357.93078837634357
 21
517.32560574471142
  0
LINE
  8
_0-1_1
  6
CONTINUOUS
 62
    7
 10
357.31638228987367
 20
517.31549961773021
 11
357.07143331559564
 21
517.17407826149304
  0
LINE
  8
_0-1_1
  6
CONTINUOUS
 62
    7
 10
357.68583940206554
 20
517.4670271009486
 11
357.31638228987367
 21
517.31549961773021
  0
LINE
  8
_0-1_1
  6
CONTINUOUS
 62
    7
 10
357.68583940206554
 20
517.4670271009486
 11
357.52141167934951
 21
518.08067971629771
  0
LINE
  8
_0-1_1
  6
CONTINUOUS
 62
    7
 10
357.93078837634357
 20
517.32560574471142
 11
357.68583940206554
 21
517.4670271009486
  0
LINE
  8
_0-1_1
  6
CONTINUOUS
 62
    7
 10
357.75147328190997
 20
517.22207812667034
 11
357.93078837634357
 21
517.32560574471142
  0
LINE
  8
_0-1_1
  6
CONTINUOUS
 62
    7
 10
357.25074841002919
 20
517.07055064345207
 11
357.75147328190997
 21
517.22207812667034
  0
LINE
  8
_0-1_1
  6
CONTINUOUS
 62
    7
 10
357.25074841002919
 20
517.07055064345207
 11
356.80245261050277
 21
515.3974879427999
  0
LINE
  8
_0-1_1
  6
CONTINUOUS
 62
    7
 10
357.07143331559564
 20
517.17407826149304
 11
357.25074841002919
 21
517.07055064345207
  0
LINE
  8
_0-1_1
  6
CONTINUOUS
 62
    7
 10
356.55750363622428
 20
515.25606658656261
 11
358.39834604483508
 21
515.58065677043305
  0
LINE
  8
_0-1_1
  6
CONTINUOUS
 62
    7
 10
356.80245261050277
 20
515.3974879427999
 11
356.55750363622428
 21
515.25606658656261
  0
LINE
  8
_0-1_1
  6
CONTINUOUS
 62
    7
 10
358.15339707055659
 20
515.72207812667034
 11
356.80245261050277
 21
515.3974879427999
  0
LINE
  8
_0-1_1
  6
CONTINUOUS
 62
    7
 10
358.15339707055659
 20
515.72207812667034
 11
357.75147328190997
 21
517.22207812667034
  0
LINE
  8
_0-1_1
  6
CONTINUOUS
 62
    7
 10
358.39834604483508
 20
515.58065677043305
 11
358.15339707055659
 21
515.72207812667034
  0
LINE
  8
_0-1_1
  6
CONTINUOUS
 62
    7
 10
358.2190309504017
 20
515.47712915239208
 11
358.39834604483508
 21
515.58065677043305
  0
LINE
  8
_0-1_1
  6
CONTINUOUS
 62
    7
 10
356.73681873065789
 20
515.15253896852153
 11
358.2190309504017
 21
515.47712915239208
  0
LINE
  8
_0-1_1
  6
CONTINUOUS
 62
    7
 10
356.73681873065789
 20
515.15253896852153
 11
356.28852293113187
 21
513.47947626786947
  0
LINE
  8
_0-1_1
  6
CONTINUOUS
 62
    7
 10
356.55750363622428
 20
515.25606658656261
 11
356.73681873065789
 21
515.15253896852153
  0
LINE
  8
_0-1_1
  6
CONTINUOUS
 62
    7
 10
356.22141167934933
 20
506.54255993164929
 11
356.22141167934933
 21
508.04255993164952
  0
LINE
  8
_0-1_1
  6
CONTINUOUS
 62
    7
 10
358.8214116793493
 20
507.07154087377467
 11
358.8214116793493
 21
508.57154087377467
  0
LINE
  8
_0-1_1
  6
CONTINUOUS
 62
    7
 10
358.8214116793493
 20
508.8024809814508
 11
358.8214116793493
 21
510.30248098145069
  0
LINE
  8
_0-1_1
  6
CONTINUOUS
 62
    7
 10
356.22141167934933
 20
508.2735000393252
 11
356.22141167934933
 21
509.77350003932554
  0
LINE
  8
_0-1_1
  6
CONTINUOUS
 62
    7
 10
358.8214116793493
 20
510.53342108912636
 11
358.8214116793493
 21
512.03342108912636
  0
LINE
  8
_0-1_1
  6
CONTINUOUS
 62
    7
 10
356.22141167934933
 20
510.00444014700099
 11
356.22141167934933
 21
511.50444014700133
  0
LINE
  8
_0-1_1
  6
CONTINUOUS
 62
    7
 10
358.8214116793493
 20
512.2643611968025
 11
358.8214116793493
 21
513.22901366645794
  0
LINE
  8
_0-1_1
  6
CONTINUOUS
 62
    7
 10
356.22141167934933
 20
511.73538025467701
 11
356.22141167934933
 21
513.22901366645794
  0
LINE
  8
_0-1_1
  6
CONTINUOUS
 62
    7
 10
356.22288905128698
 20
513.23452729359144
 11
358.68658861889298
 21
513.73218017811382
  0
LINE
  8
_0-1_1
  6
CONTINUOUS
 62
    7
 10
356.22288905128698
 20
513.23452729359144
 11
356.22141167934933
 21
513.22901366645794
  0
LINE
  8
_0-1_1
  6
CONTINUOUS
 62
    7
 10
356.28852293113187
 20
513.47947626786947
 11
358.6209547390481
 21
513.97712915239197
  0
LINE
  8
_0-1_1
  6
CONTINUOUS
 62
    7
 10
358.86590371332659
 20
513.83570779615491
 11
356.04357395685338
 21
513.3380549116323
  0
LINE
  8
_0-1_1
  6
CONTINUOUS
 62
    7
 10
358.6209547390481
 20
513.97712915239197
 11
358.2190309504017
 21
515.47712915239208
  0
LINE
  8
_0-1_1
  6
CONTINUOUS
 62
    7
 10
358.86590371332659
 20
513.83570779615491
 11
358.6209547390481
 21
513.97712915239197
  0
LINE
  8
_0-1_1
  6
CONTINUOUS
 62
    7
 10
358.68658861889298
 20
513.73218017811382
 11
358.86590371332659
 21
513.83570779615491
  0
LINE
  8
_0-1_1
  6
CONTINUOUS
 62
    7
 10
356.04357395685338
 20
513.3380549116323
 11
356.22288905128698
 21
513.23452729359144
  0
LINE
  8
_0-1_1
  6
CONTINUOUS
 62
    7
 10
356.04357395685338
 20
513.3380549116323
 11
356.28852293113187
 21
513.47947626786947
  0
LINE
  8
_0-1_1
  6
CONTINUOUS
 62
    7
 10
356.02141167934951
 20
511.61991020083894
 11
359.02141167934951
 21
512.14889114296454
  0
LINE
  8
_0-1_1
  6
CONTINUOUS
 62
    7
 10
356.22141167934933
 20
511.73538025467701
 11
356.02141167934951
 21
511.61991020083894
  0
LINE
  8
_0-1_1
  6
CONTINUOUS
 62
    7
 10
358.8214116793493
 20
512.2643611968025
 11
356.22141167934933
 21
511.73538025467701
  0
LINE
  8
_0-1_1
  6
CONTINUOUS
 62
    7
 10
359.02141167934951
 20
512.14889114296454
 11
358.8214116793493
 21
512.2643611968025
  0
LINE
  8
_0-1_1
  6
CONTINUOUS
 62
    7
 10
358.8214116793493
 20
512.03342108912636
 11
359.02141167934951
 21
512.14889114296454
  0
LINE
  8
_0-1_1
  6
CONTINUOUS
 62
    7
 10
356.22141167934933
 20
511.50444014700133
 11
358.8214116793493
 21
512.03342108912636
  0
LINE
  8
_0-1_1
  6
CONTINUOUS
 62
    7
 10
356.02141167934951
 20
511.61991020083894
 11
356.22141167934933
 21
511.50444014700133
  0
LINE
  8
_0-1_1
  6
CONTINUOUS
 62
    7
 10
356.02141167934951
 20
509.88897009316315
 11
359.02141167934951
 21
510.41795103528864
  0
LINE
  8
_0-1_1
  6
CONTINUOUS
 62
    7
 10
356.22141167934933
 20
510.00444014700099
 11
356.02141167934951
 21
509.88897009316315
  0
LINE
  8
_0-1_1
  6
CONTINUOUS
 62
    7
 10
358.8214116793493
 20
510.53342108912636
 11
356.22141167934933
 21
510.00444014700099
  0
LINE
  8
_0-1_1
  6
CONTINUOUS
 62
    7
 10
359.02141167934951
 20
510.41795103528864
 11
358.8214116793493
 21
510.53342108912636
  0
LINE
  8
_0-1_1
  6
CONTINUOUS
 62
    7
 10
358.8214116793493
 20
510.30248098145069
 11
359.02141167934951
 21
510.41795103528864
  0
LINE
  8
_0-1_1
  6
CONTINUOUS
 62
    7
 10
356.22141167934933
 20
509.77350003932554
 11
358.8214116793493
 21
510.30248098145069
  0
LINE
  8
_0-1_1
  6
CONTINUOUS
 62
    7
 10
356.02141167934951
 20
509.88897009316315
 11
356.22141167934933
 21
509.77350003932554
  0
LINE
  8
_0-1_1
  6
CONTINUOUS
 62
    7
 10
356.02141167934951
 20
508.15802998548725
 11
359.02141167934951
 21
508.68701092761273
  0
LINE
  8
_0-1_1
  6
CONTINUOUS
 62
    7
 10
356.22141167934933
 20
508.2735000393252
 11
356.02141167934951
 21
508.15802998548725
  0
LINE
  8
_0-1_1
  6
CONTINUOUS
 62
    7
 10
358.8214116793493
 20
508.8024809814508
 11
356.22141167934933
 21
508.2735000393252
  0
LINE
  8
_0-1_1
  6
CONTINUOUS
 62
    7
 10
359.02141167934951
 20
508.68701092761273
 11
358.8214116793493
 21
508.8024809814508
  0
LINE
  8
_0-1_1
  6
CONTINUOUS
 62
    7
 10
358.8214116793493
 20
508.57154087377467
 11
359.02141167934951
 21
508.68701092761273
  0
LINE
  8
_0-1_1
  6
CONTINUOUS
 62
    7
 10
356.22141167934933
 20
508.04255993164952
 11
358.8214116793493
 21
508.57154087377467
  0
LINE
  8
_0-1_1
  6
CONTINUOUS
 62
    7
 10
356.02141167934951
 20
508.15802998548725
 11
356.22141167934933
 21
508.04255993164952
  0
LINE
  8
_0-1_1
  6
CONTINUOUS
 62
    7
 10
356.02141167934951
 20
506.42708987781145
 11
359.02141167934951
 21
506.95607081993671
  0
LINE
  8
_0-1_1
  6
CONTINUOUS
 62
    7
 10
356.22141167934933
 20
506.54255993164929
 11
356.02141167934951
 21
506.42708987781145
  0
LINE
  8
_0-1_1
  6
CONTINUOUS
 62
    7
 10
358.8214116793493
 20
507.07154087377467
 11
356.22141167934933
 21
506.54255993164929
  0
LINE
  8
_0-1_1
  6
CONTINUOUS
 62
    7
 10
359.02141167934951
 20
506.95607081993671
 11
358.8214116793493
 21
507.07154087377467
  0
LINE
  8
_0-1_1
  6
CONTINUOUS
 62
    7
 10
358.8214116793493
 20
506.84060076609887
 11
359.02141167934951
 21
506.95607081993671
  0
LINE
  8
_0-1_1
  6
CONTINUOUS
 62
    7
 10
356.22141167934933
 20
506.31161982397361
 11
358.8214116793493
 21
506.84060076609887
  0
LINE
  8
_0-1_1
  6
CONTINUOUS
 62
    7
 10
356.02141167934951
 20
506.42708987781145
 11
356.22141167934933
 21
506.31161982397361
  0
LINE
  8
_0-1_1
  6
CONTINUOUS
 62
    7
 10
356.02141167934951
 20
504.69614977013555
 11
359.02141167934951
 21
505.22513071226103
  0
LINE
  8
_0-1_1
  6
CONTINUOUS
 62
    7
 10
356.22141167934933
 20
504.8116198239735
 11
356.02141167934951
 21
504.69614977013555
  0
LINE
  8
_0-1_1
  6
CONTINUOUS
 62
    7
 10
356.22141167934933
 20
504.8116198239735
 11
356.22141167934933
 21
506.31161982397361
  0
LINE
  8
_0-1_1
  6
CONTINUOUS
 62
    7
 10
358.8214116793493
 20
505.34060076609876
 11
356.22141167934933
 21
504.8116198239735
  0
LINE
  8
_0-1_1
  6
CONTINUOUS
 62
    7
 10
358.8214116793493
 20
505.34060076609876
 11
358.8214116793493
 21
506.84060076609887
  0
LINE
  8
_0-1_1
  6
CONTINUOUS
 62
    7
 10
359.02141167934951
 20
505.22513071226103
 11
358.8214116793493
 21
505.34060076609876
  0
LINE
  8
_0-1_1
  6
CONTINUOUS
 62
    7
 10
358.8214116793493
 20
505.10966065842285
 11
359.02141167934951
 21
505.22513071226103
  0
LINE
  8
_0-1_1
  6
CONTINUOUS
 62
    7
 10
356.22141167934933
 20
504.58067971629771
 11
358.8214116793493
 21
505.10966065842285
  0
LINE
  8
_0-1_1
  6
CONTINUOUS
 62
    7
 10
356.02141167934951
 20
504.69614977013555
 11
356.22141167934933
 21
504.58067971629771
  0
LINE
  8
_0-1_1
  6
CONTINUOUS
 62
    7
 10
358.8214116793493
 20
513.22901366645794
 11
358.68658861889298
 21
513.73218017811382
  0
LINE
  8
_0-1_1
  6
CONTINUOUS
 62
    7
 10
357.52141167934951
 20
518.08067971629771
 11
357.31638228987367
 21
517.31549961773021
  0
LINE
  8
_0-1_1
  6
CONTINUOUS
 62
    7
 10
627.4792752304038
 20
218.17917553987388
 11
627.63080271362185
 21
217.31982047912589
  0
LINE
  8
_0-1_1
  6
CONTINUOUS
 62
    7
 10
627.62069658664075
 20
217.93422656559562
 11
627.4792752304038
 21
218.17917553987388
  0
LINE
  8
_0-1_1
  6
CONTINUOUS
 62
    7
 10
627.77222406985891
 20
217.5647694534041
 11
627.62069658664075
 21
217.93422656559562
  0
LINE
  8
_0-1_1
  6
CONTINUOUS
 62
    7
 10
627.77222406985891
 20
217.5647694534041
 11
628.38587668520813
 21
217.72919717612012
  0
LINE
  8
_0-1_1
  6
CONTINUOUS
 62
    7
 10
627.63080271362185
 20
217.31982047912589
 11
627.77222406985891
 21
217.5647694534041
  0
LINE
  8
_0-1_1
  6
CONTINUOUS
 62
    7
 10
627.52727509558076
 20
217.49913557355939
 11
627.63080271362185
 21
217.31982047912589
  0
LINE
  8
_0-1_1
  6
CONTINUOUS
 62
    7
 10
627.37574761236283
 20
217.99986044544039
 11
627.52727509558076
 21
217.49913557355939
  0
LINE
  8
_0-1_1
  6
CONTINUOUS
 62
    7
 10
627.37574761236283
 20
217.99986044544039
 11
625.70268491171055
 21
218.4481562449667
  0
LINE
  8
_0-1_1
  6
CONTINUOUS
 62
    7
 10
627.4792752304038
 20
218.17917553987388
 11
627.37574761236283
 21
217.99986044544039
  0
LINE
  8
_0-1_1
  6
CONTINUOUS
 62
    7
 10
625.56126355547303
 20
218.69310521924513
 11
625.88585373934336
 21
216.85226281063439
  0
LINE
  8
_0-1_1
  6
CONTINUOUS
 62
    7
 10
625.70268491171055
 20
218.4481562449667
 11
625.56126355547303
 21
218.69310521924513
  0
LINE
  8
_0-1_1
  6
CONTINUOUS
 62
    7
 10
626.02727509558065
 20
217.0972117849127
 11
625.70268491171055
 21
218.4481562449667
  0
LINE
  8
_0-1_1
  6
CONTINUOUS
 62
    7
 10
626.02727509558065
 20
217.0972117849127
 11
627.52727509558076
 21
217.49913557355939
  0
LINE
  8
_0-1_1
  6
CONTINUOUS
 62
    7
 10
625.88585373934336
 20
216.85226281063439
 11
626.02727509558065
 21
217.0972117849127
  0
LINE
  8
_0-1_1
  6
CONTINUOUS
 62
    7
 10
625.78232612130273
 20
217.0315779050681
 11
625.88585373934336
 21
216.85226281063439
  0
LINE
  8
_0-1_1
  6
CONTINUOUS
 62
    7
 10
625.45773593743195
 20
218.51379012481141
 11
625.78232612130273
 21
217.0315779050681
  0
LINE
  8
_0-1_1
  6
CONTINUOUS
 62
    7
 10
625.45773593743195
 20
218.51379012481141
 11
623.78467323678024
 21
218.96208592433783
  0
LINE
  8
_0-1_1
  6
CONTINUOUS
 62
    7
 10
625.56126355547303
 20
218.69310521924513
 11
625.45773593743195
 21
218.51379012481141
  0
LINE
  8
_0-1_1
  6
CONTINUOUS
 62
    7
 10
616.84775690055994
 20
219.02919717612042
 11
618.34775690055994
 21
219.02919717612042
  0
LINE
  8
_0-1_1
  6
CONTINUOUS
 62
    7
 10
617.37673784268554
 20
216.42919717612023
 11
618.87673784268554
 21
216.42919717612023
  0
LINE
  8
_0-1_1
  6
CONTINUOUS
 62
    7
 10
619.10767795036145
 20
216.42919717612023
 11
620.60767795036145
 21
216.42919717612023
  0
LINE
  8
_0-1_1
  6
CONTINUOUS
 62
    7
 10
618.57869700823585
 20
219.02919717612042
 11
620.07869700823585
 21
219.02919717612042
  0
LINE
  8
_0-1_1
  6
CONTINUOUS
 62
    7
 10
620.83861805803735
 20
216.42919717612023
 11
622.33861805803735
 21
216.42919717612023
  0
LINE
  8
_0-1_1
  6
CONTINUOUS
 62
    7
 10
620.30963711591176
 20
219.02919717612042
 11
621.80963711591176
 21
219.02919717612042
  0
LINE
  8
_0-1_1
  6
CONTINUOUS
 62
    7
 10
622.56955816571315
 20
216.42919717612023
 11
623.53421063536871
 21
216.42919717612023
  0
LINE
  8
_0-1_1
  6
CONTINUOUS
 62
    7
 10
622.04057722358755
 20
219.02919717612042
 11
623.53421063536871
 21
219.02919717612042
  0
LINE
  8
_0-1_1
  6
CONTINUOUS
 62
    7
 10
623.53972426250175
 20
219.0277198041826
 11
624.03737714702447
 21
216.5640202365766
  0
LINE
  8
_0-1_1
  6
CONTINUOUS
 62
    7
 10
623.53972426250175
 20
219.0277198041826
 11
623.53421063536871
 21
219.02919717612042
  0
LINE
  8
_0-1_1
  6
CONTINUOUS
 62
    7
 10
623.78467323678024
 20
218.96208592433783
 11
624.28232612130273
 21
216.62965411642142
  0
LINE
  8
_0-1_1
  6
CONTINUOUS
 62
    7
 10
624.14090476506544
 20
216.38470514214299
 11
623.64325188054261
 21
219.20703489861609
  0
LINE
  8
_0-1_1
  6
CONTINUOUS
 62
    7
 10
624.28232612130273
 20
216.62965411642142
 11
625.78232612130273
 21
217.0315779050681
  0
LINE
  8
_0-1_1
  6
CONTINUOUS
 62
    7
 10
624.14090476506544
 20
216.38470514214299
 11
624.28232612130273
 21
216.62965411642142
  0
LINE
  8
_0-1_1
  6
CONTINUOUS
 62
    7
 10
624.03737714702447
 20
216.5640202365766
 11
624.14090476506544
 21
216.38470514214299
  0
LINE
  8
_0-1_1
  6
CONTINUOUS
 62
    7
 10
623.64325188054261
 20
219.20703489861609
 11
623.53972426250175
 21
219.0277198041826
  0
LINE
  8
_0-1_1
  6
CONTINUOUS
 62
    7
 10
623.64325188054261
 20
219.20703489861609
 11
623.78467323678024
 21
218.96208592433783
  0
LINE
  8
_0-1_1
  6
CONTINUOUS
 62
    7
 10
621.92510716974994
 20
219.22919717612012
 11
622.45408811187497
 21
216.22919717612012
  0
LINE
  8
_0-1_1
  6
CONTINUOUS
 62
    7
 10
622.04057722358755
 20
219.02919717612042
 11
621.92510716974994
 21
219.22919717612012
  0
LINE
  8
_0-1_1
  6
CONTINUOUS
 62
    7
 10
622.56955816571315
 20
216.42919717612023
 11
622.04057722358755
 21
219.02919717612042
  0
LINE
  8
_0-1_1
  6
CONTINUOUS
 62
    7
 10
622.45408811187497
 20
216.22919717612012
 11
622.56955816571315
 21
216.42919717612023
  0
LINE
  8
_0-1_1
  6
CONTINUOUS
 62
    7
 10
622.33861805803735
 20
216.42919717612023
 11
622.45408811187497
 21
216.22919717612012
  0
LINE
  8
_0-1_1
  6
CONTINUOUS
 62
    7
 10
621.80963711591176
 20
219.02919717612042
 11
622.33861805803735
 21
216.42919717612023
  0
LINE
  8
_0-1_1
  6
CONTINUOUS
 62
    7
 10
621.92510716974994
 20
219.22919717612012
 11
621.80963711591176
 21
219.02919717612042
  0
LINE
  8
_0-1_1
  6
CONTINUOUS
 62
    7
 10
620.19416706207403
 20
219.22919717612012
 11
620.72314800419917
 21
216.22919717612012
  0
LINE
  8
_0-1_1
  6
CONTINUOUS
 62
    7
 10
620.30963711591176
 20
219.02919717612042
 11
620.19416706207403
 21
219.22919717612012
  0
LINE
  8
_0-1_1
  6
CONTINUOUS
 62
    7
 10
620.83861805803735
 20
216.42919717612023
 11
620.30963711591176
 21
219.02919717612042
  0
LINE
  8
_0-1_1
  6
CONTINUOUS
 62
    7
 10
620.72314800419917
 20
216.22919717612012
 11
620.83861805803735
 21
216.42919717612023
  0
LINE
  8
_0-1_1
  6
CONTINUOUS
 62
    7
 10
620.60767795036145
 20
216.42919717612023
 11
620.72314800419917
 21
216.22919717612012
  0
LINE
  8
_0-1_1
  6
CONTINUOUS
 62
    7
 10
620.07869700823585
 20
219.02919717612042
 11
620.60767795036145
 21
216.42919717612023
  0
LINE
  8
_0-1_1
  6
CONTINUOUS
 62
    7
 10
620.19416706207403
 20
219.22919717612012
 11
620.07869700823585
 21
219.02919717612042
  0
LINE
  8
_0-1_1
  6
CONTINUOUS
 62
    7
 10
618.46322695439778
 20
219.22919717612012
 11
618.99220789652315
 21
216.22919717612012
  0
LINE
  8
_0-1_1
  6
CONTINUOUS
 62
    7
 10
618.57869700823585
 20
219.02919717612042
 11
618.46322695439778
 21
219.22919717612012
  0
LINE
  8
_0-1_1
  6
CONTINUOUS
 62
    7
 10
619.10767795036145
 20
216.42919717612023
 11
618.57869700823585
 21
219.02919717612042
  0
LINE
  8
_0-1_1
  6
CONTINUOUS
 62
    7
 10
618.99220789652315
 20
216.22919717612012
 11
619.10767795036145
 21
216.42919717612023
  0
LINE
  8
_0-1_1
  6
CONTINUOUS
 62
    7
 10
618.87673784268554
 20
216.42919717612023
 11
618.99220789652315
 21
216.22919717612012
  0
LINE
  8
_0-1_1
  6
CONTINUOUS
 62
    7
 10
618.34775690055994
 20
219.02919717612042
 11
618.87673784268554
 21
216.42919717612023
  0
LINE
  8
_0-1_1
  6
CONTINUOUS
 62
    7
 10
618.46322695439778
 20
219.22919717612012
 11
618.34775690055994
 21
219.02919717612042
  0
LINE
  8
_0-1_1
  6
CONTINUOUS
 62
    7
 10
616.73228684672222
 20
219.22919717612012
 11
617.26126778884759
 21
216.22919717612012
  0
LINE
  8
_0-1_1
  6
CONTINUOUS
 62
    7
 10
616.84775690055994
 20
219.02919717612042
 11
616.73228684672222
 21
219.22919717612012
  0
LINE
  8
_0-1_1
  6
CONTINUOUS
 62
    7
 10
617.37673784268554
 20
216.42919717612023
 11
616.84775690055994
 21
219.02919717612042
  0
LINE
  8
_0-1_1
  6
CONTINUOUS
 62
    7
 10
617.26126778884759
 20
216.22919717612012
 11
617.37673784268554
 21
216.42919717612023
  0
LINE
  8
_0-1_1
  6
CONTINUOUS
 62
    7
 10
617.14579773500964
 20
216.42919717612023
 11
617.26126778884759
 21
216.22919717612012
  0
LINE
  8
_0-1_1
  6
CONTINUOUS
 62
    7
 10
616.61681679288404
 20
219.02919717612042
 11
617.14579773500964
 21
216.42919717612023
  0
LINE
  8
_0-1_1
  6
CONTINUOUS
 62
    7
 10
616.73228684672222
 20
219.22919717612012
 11
616.61681679288404
 21
219.02919717612042
  0
LINE
  8
_0-1_1
  6
CONTINUOUS
 62
    7
 10
615.0013467390462
 20
219.22919717612012
 11
615.53032768117146
 21
216.22919717612012
  0
LINE
  8
_0-1_1
  6
CONTINUOUS
 62
    7
 10
615.11681679288404
 20
219.02919717612042
 11
615.0013467390462
 21
219.22919717612012
  0
LINE
  8
_0-1_1
  6
CONTINUOUS
 62
    7
 10
615.11681679288404
 20
219.02919717612042
 11
616.61681679288404
 21
219.02919717612042
  0
LINE
  8
_0-1_1
  6
CONTINUOUS
 62
    7
 10
615.64579773500964
 20
216.42919717612023
 11
615.11681679288404
 21
219.02919717612042
  0
LINE
  8
_0-1_1
  6
CONTINUOUS
 62
    7
 10
615.64579773500964
 20
216.42919717612023
 11
617.14579773500964
 21
216.42919717612023
  0
LINE
  8
_0-1_1
  6
CONTINUOUS
 62
    7
 10
615.53032768117146
 20
216.22919717612012
 11
615.64579773500964
 21
216.42919717612023
  0
LINE
  8
_0-1_1
  6
CONTINUOUS
 62
    7
 10
615.41485762733373
 20
216.42919717612023
 11
615.53032768117146
 21
216.22919717612012
  0
LINE
  8
_0-1_1
  6
CONTINUOUS
 62
    7
 10
614.88587668520813
 20
219.02919717612042
 11
615.41485762733373
 21
216.42919717612023
  0
LINE
  8
_0-1_1
  6
CONTINUOUS
 62
    7
 10
615.0013467390462
 20
219.22919717612012
 11
614.88587668520813
 21
219.02919717612042
  0
LINE
  8
_0-1_1
  6
CONTINUOUS
 62
    7
 10
623.53421063536871
 20
216.42919717612023
 11
624.03737714702447
 21
216.5640202365766
  0
LINE
  8
_0-1_1
  6
CONTINUOUS
 62
    7
 10
628.38587668520813
 20
217.72919717612012
 11
627.62069658664075
 21
217.93422656559562
  0
LINE
  8
_0-1_1
  6
CONTINUOUS
 62
    7
 10
614.88587668520847
 20
216.42919717612023
 11
615.41485762733373
 21
216.42919717612023
  0
LINE
  8
_0-1_1
  6
CONTINUOUS
 62
    7
 10
613.88587668520813
 20
167.72994029644411
 11
613.88587668520813
 21
238.72919717612012
  0
LINE
  8
_0-1_1
  6
CONTINUOUS
 62
    7
 10
613.88587668520813
 20
49.72919717612001
 11
613.88587668520813
 21
167.72994029644411
  0
LINE
  8
_0-1_1
  6
CONTINUOUS
 62
    7
 10
397.02141167934951
 20
238.72919717612012
 11
400.52141167934951
 21
238.72919717612012
  0
LINE
  8
_0-1_1
  6
CONTINUOUS
 62
    7
 10
611.88587668520813
 20
238.72919717612012
 11
499.88587668520807
 21
238.72919717612012
  0
LINE
  8
_0-1_1
  6
CONTINUOUS
 62
    7
 10
534.54937300940446
 20
34.729197176120124
 11
598.88587668520813
 21
34.72919717612001
  0
LINE
  8
_0-1_1
  6
CONTINUOUS
 62
    7
 10
499.97497693026207
 20
238.72919717612012
 11
497.88587668520807
 21
238.72919717612012
  0
LINE
  8
_0-1_1
  6
CONTINUOUS
 62
    7
 10
495.88587668520807
 20
240.72919717612012
 11
495.88587668520807
 21
242.72919717612012
  0
LINE
  8
_0-1_1
  6
CONTINUOUS
 62
    7
 10
378.35474501268249
 20
500.58067971629771
 11
375.49643526030741
 21
498.86569386487258
  0
LINE
  8
_0-1_1
  6
CONTINUOUS
 62
    7
 10
374.46744374945229
 20
498.58067971629771
 11
320.02141167934951
 21
498.58067971629782
  0
LINE
  8
_0-1_1
  6
CONTINUOUS
 62
    7
 10
320.02141167934951
 20
392.58067971629771
 11
352.52141167934951
 21
392.58067971629771
  0
LINE
  8
_0-1_1
  6
CONTINUOUS
 62
    7
 10
395.52141167934951
 20
435.58067971629771
 11
395.52141167934951
 21
490.5806797162976
  0
LINE
  8
_0-1_1
  6
CONTINUOUS
 62
    7
 10
320.02141167934951
 20
388.58067971629782
 11
352.52141167934951
 21
388.58067971629771
  0
LINE
  8
_0-1_1
  6
CONTINUOUS
 62
    7
 10
399.52141167934951
 20
435.58067971629771
 11
399.52141167934951
 21
485.58067971629771
  0
LINE
  8
_0-1_1
  6
CONTINUOUS
 62
    7
 10
384.52141167934951
 20
503.5806797162976
 11
320.02141167934951
 21
503.58067971629782
  0
LINE
  8
_0-1_1
  6
CONTINUOUS
 62
    7
 10
402.52141167934951
 20
435.58067971629771
 11
402.52141167934951
 21
485.58067971629771
  0
LINE
  8
_0-1_1
  6
CONTINUOUS
 62
    7
 10
320.02141167934951
 20
385.58067971629782
 11
352.52141167934951
 21
385.58067971629771
  0
LINE
  8
_0-1_1
  6
CONTINUOUS
 62
    7
 10
264.54638809839111
 20
498.86569386487258
 11
261.68807834601603
 21
500.58067971629771
  0
LINE
  8
_0-1_1
  6
CONTINUOUS
 62
    7
 10
320.02141167934951
 20
498.58067971629782
 11
265.57537960924628
 21
498.58067971629771
  0
LINE
  8
_0-1_1
  6
CONTINUOUS
 62
    7
 10
394.18501354585061
 20
107.30941699067449
 11
397.02141167934951
 21
238.72919717612012
  0
LINE
  8
_0-1_1
  6
CONTINUOUS
 62
    7
 10
402.52141167934951
 20
242.72919717612012
 11
402.52141167934951
 21
240.72919717612012
  0
LINE
  8
_0-1_1
  6
CONTINUOUS
 62
    7
 10
239.52141167934951
 20
238.72919717612012
 11
397.02141167934951
 21
238.72919717612012
  0
LINE
  8
_0-1_1
  6
CONTINUOUS
 62
    7
 10
237.52141167934951
 20
242.72919717612012
 11
237.52141167934951
 21
240.72919717612012
  0
LINE
  8
_0-1_1
  6
CONTINUOUS
 62
    7
 10
243.02141167934951
 20
238.72919717612012
 11
245.85780981284819
 21
107.30941699067449
  0
LINE
  8
_0-1_1
  6
CONTINUOUS
 62
    7
 10
287.52141167934951
 20
392.58067971629771
 11
320.02141167934951
 21
392.58067971629771
  0
LINE
  8
_0-1_1
  6
CONTINUOUS
 62
    7
 10
244.52141167934951
 20
490.5806797162976
 11
244.52141167934951
 21
435.58067971629771
  0
LINE
  8
_0-1_1
  6
CONTINUOUS
 62
    7
 10
287.52141167934951
 20
388.58067971629771
 11
320.02141167934951
 21
388.58067971629782
  0
LINE
  8
_0-1_1
  6
CONTINUOUS
 62
    7
 10
240.52141167934951
 20
485.58067971629771
 11
240.52141167934951
 21
435.58067971629771
  0
LINE
  8
_0-1_1
  6
CONTINUOUS
 62
    7
 10
320.02141167934951
 20
500.58067971629782
 11
255.52141167934951
 21
500.58067971629771
  0
LINE
  8
_0-1_1
  6
CONTINUOUS
 62
    7
 10
320.02141167934951
 20
503.58067971629782
 11
255.52141167934951
 21
503.5806797162976
  0
LINE
  8
_0-1_1
  6
CONTINUOUS
 62
    7
 10
237.52141167934951
 20
485.58067971629771
 11
237.52141167934951
 21
435.58067971629771
  0
LINE
  8
_0-1_1
  6
CONTINUOUS
 62
    7
 10
287.52141167934951
 20
385.58067971629771
 11
320.02141167934951
 21
385.58067971629782
  0
LINE
  8
_0-1_1
  6
CONTINUOUS
 62
    7
 10
519.61445488526215
 20
48.333410435546
 11
500.97063813853811
 21
237.82224962549179
  0
LINE
  8
_0-1_1
  6
CONTINUOUS
 62
    7
 10
239.52141167934951
 20
244.72919717612018
 11
400.52141167934951
 21
244.72919717612018
  0
LINE
  8
_0-1_1
  6
CONTINUOUS
 62
    7
 10
497.88587668520807
 20
244.72919717612018
 11
611.88587668520813
 21
244.72919717612018
  0
LINE
  8
_0-1_1
  6
CONTINUOUS
 62
    7
 10
613.88587668520813
 20
242.72919717612012
 11
613.88587668520813
 21
238.72919717612012
  0
LINE
  8
_0-1_1
  6
CONTINUOUS
 62
    7
 10
384.52141167934951
 20
500.58067971629771
 11
320.02141167934951
 21
500.58067971629782
  0
ARC
  8
_0-1_1
  6
CONTINUOUS
 62
    7
 10
384.52141167934951
 20
490.5806797162976
 40
11
 50
0
 51
45.904571286282867
  0
ARC
  8
_0-1_1
  6
CONTINUOUS
 62
    7
 10
320.02141167934951
 20
108.91007026836871
 40
74.180873092248561
 50
181.23640760285539
 51
358.76359239714458
  0
ARC
  8
_0-1_1
  6
CONTINUOUS
 62
    7
 10
255.52141167934951
 20
490.5806797162976
 40
10.999999999999931
 50
134.0954287137171
 51
180
  0
ARC
  8
_0-1_1
  6
CONTINUOUS
 62
    7
 10
400.52141167934951
 20
242.72919717612012
 40
2
 50
0
 51
90
  0
ARC
  8
_0-1_1
  6
CONTINUOUS
 62
    7
 10
611.88587668520813
 20
242.72919717612012
 40
2
 50
0
 51
90
  0
ARC
  8
_0-1_1
  6
CONTINUOUS
 62
    7
 10
497.88587668520807
 20
240.72919717612012
 40
2
 50
180
 51
270
  0
ARC
  8
_0-1_1
  6
CONTINUOUS
 62
    7
 10
497.88587668520807
 20
242.72919717612012
 40
2
 50
90
 51
180
  0
ARC
  8
_0-1_1
  6
CONTINUOUS
 62
    7
 10
499.97497693026207
 20
237.72919717612012
 40
0.9999999999998731
 50
5.3392368037380527
 51
90.000000000000014
  0
ARC
  8
_0-1_1
  6
CONTINUOUS
 62
    7
 10
534.54937300940446
 20
49.72919717612001
 40
14.99999999999989
 50
185.33923680373812
 51
270
  0
ARC
  8
_0-1_1
  6
CONTINUOUS
 62
    7
 10
598.88587668520813
 20
49.72919717612001
 40
15
 50
270
 51
0
  0
ARC
  8
_0-1_1
  6
CONTINUOUS
 62
    7
 10
374.46744374945229
 20
500.58067971629771
 40
2
 50
270
 51
300.96375653207627
  0
ARC
  8
_0-1_1
  6
CONTINUOUS
 62
    7
 10
352.52141167934951
 20
435.58067971629771
 40
43
 50
270
 51
0
  0
ARC
  8
_0-1_1
  6
CONTINUOUS
 62
    7
 10
352.52141167934951
 20
435.58067971629771
 40
47
 50
270
 51
0
  0
ARC
  8
_0-1_1
  6
CONTINUOUS
 62
    7
 10
384.52141167934951
 20
485.58067971629771
 40
15
 50
0
 51
90
  0
ARC
  8
_0-1_1
  6
CONTINUOUS
 62
    7
 10
384.52141167934951
 20
485.58067971629771
 40
18
 50
0
 51
90
  0
ARC
  8
_0-1_1
  6
CONTINUOUS
 62
    7
 10
352.52141167934951
 20
435.58067971629771
 40
50
 50
270
 51
0
  0
ARC
  8
_0-1_1
  6
CONTINUOUS
 62
    7
 10
265.57537960924628
 20
500.58067971629771
 40
1.9999999999999409
 50
239.03624346792429
 51
270
  0
ARC
  8
_0-1_1
  6
CONTINUOUS
 62
    7
 10
400.52141167934951
 20
240.72919717612012
 40
2
 50
270
 51
0
  0
ARC
  8
_0-1_1
  6
CONTINUOUS
 62
    7
 10
239.52141167934951
 20
240.72919717612012
 40
2
 50
180
 51
270
  0
ARC
  8
_0-1_1
  6
CONTINUOUS
 62
    7
 10
239.52141167934951
 20
242.72919717612012
 40
2
 50
90
 51
180
  0
ARC
  8
_0-1_1
  6
CONTINUOUS
 62
    7
 10
287.52141167934951
 20
435.58067971629771
 40
43.000000000000057
 50
180
 51
270
  0
ARC
  8
_0-1_1
  6
CONTINUOUS
 62
    7
 10
287.52141167934951
 20
435.58067971629771
 40
47.000000000000057
 50
180
 51
270
  0
ARC
  8
_0-1_1
  6
CONTINUOUS
 62
    7
 10
255.52141167934951
 20
485.58067971629771
 40
15
 50
90
 51
180
  0
ARC
  8
_0-1_1
  6
CONTINUOUS
 62
    7
 10
255.52141167934951
 20
485.58067971629771
 40
18
 50
90
 51
180
  0
ARC
  8
_0-1_1
  6
CONTINUOUS
 62
    7
 10
287.52141167934951
 20
435.58067971629771
 40
50.000000000000071
 50
180
 51
270
  0
LINE
  8
_0-1_1
  6
CONTINUOUS
 62
    7
 10
283.82141167934969
 20
504.58067971629771
 11
283.82141167934969
 21
505.10966065842285
  0
LINE
  8
_0-1_1
  6
CONTINUOUS
 62
    7
 10
282.07143331559564
 20
517.17407826149304
 11
282.93078837634403
 21
517.32560574471142
  0
LINE
  8
_0-1_1
  6
CONTINUOUS
 62
    7
 10
282.31638228987413
 20
517.31549961773021
 11
282.07143331559564
 21
517.17407826149304
  0
LINE
  8
_0-1_1
  6
CONTINUOUS
 62
    7
 10
282.68583940206554
 20
517.4670271009486
 11
282.31638228987413
 21
517.31549961773021
  0
LINE
  8
_0-1_1
  6
CONTINUOUS
 62
    7
 10
282.68583940206554
 20
517.4670271009486
 11
282.52141167934951
 21
518.08067971629771
  0
LINE
  8
_0-1_1
  6
CONTINUOUS
 62
    7
 10
282.93078837634403
 20
517.32560574471142
 11
282.68583940206554
 21
517.4670271009486
  0
LINE
  8
_0-1_1
  6
CONTINUOUS
 62
    7
 10
282.75147328191042
 20
517.22207812667034
 11
282.93078837634403
 21
517.32560574471142
  0
LINE
  8
_0-1_1
  6
CONTINUOUS
 62
    7
 10
282.25074841002919
 20
517.07055064345207
 11
282.75147328191042
 21
517.22207812667034
  0
LINE
  8
_0-1_1
  6
CONTINUOUS
 62
    7
 10
282.25074841002919
 20
517.07055064345207
 11
281.80245261050277
 21
515.3974879427999
  0
LINE
  8
_0-1_1
  6
CONTINUOUS
 62
    7
 10
282.07143331559564
 20
517.17407826149304
 11
282.25074841002919
 21
517.07055064345207
  0
LINE
  8
_0-1_1
  6
CONTINUOUS
 62
    7
 10
281.55750363622474
 20
515.25606658656261
 11
283.39834604483531
 21
515.58065677043305
  0
LINE
  8
_0-1_1
  6
CONTINUOUS
 62
    7
 10
281.80245261050277
 20
515.3974879427999
 11
281.55750363622474
 21
515.25606658656261
  0
LINE
  8
_0-1_1
  6
CONTINUOUS
 62
    7
 10
283.15339707055682
 20
515.72207812667034
 11
281.80245261050277
 21
515.3974879427999
  0
LINE
  8
_0-1_1
  6
CONTINUOUS
 62
    7
 10
283.15339707055682
 20
515.72207812667034
 11
282.75147328191042
 21
517.22207812667034
  0
LINE
  8
_0-1_1
  6
CONTINUOUS
 62
    7
 10
283.39834604483531
 20
515.58065677043305
 11
283.15339707055682
 21
515.72207812667034
  0
LINE
  8
_0-1_1
  6
CONTINUOUS
 62
    7
 10
283.2190309504017
 20
515.47712915239208
 11
283.39834604483531
 21
515.58065677043305
  0
LINE
  8
_0-1_1
  6
CONTINUOUS
 62
    7
 10
281.73681873065834
 20
515.15253896852153
 11
283.2190309504017
 21
515.47712915239208
  0
LINE
  8
_0-1_1
  6
CONTINUOUS
 62
    7
 10
281.73681873065834
 20
515.15253896852153
 11
281.28852293113181
 21
513.47947626786947
  0
LINE
  8
_0-1_1
  6
CONTINUOUS
 62
    7
 10
281.55750363622474
 20
515.25606658656261
 11
281.73681873065834
 21
515.15253896852153
  0
LINE
  8
_0-1_1
  6
CONTINUOUS
 62
    7
 10
281.22141167934933
 20
506.54255993164929
 11
281.22141167934933
 21
508.04255993164952
  0
LINE
  8
_0-1_1
  6
CONTINUOUS
 62
    7
 10
283.82141167934969
 20
507.07154087377467
 11
283.82141167934969
 21
508.57154087377467
  0
LINE
  8
_0-1_1
  6
CONTINUOUS
 62
    7
 10
283.82141167934969
 20
508.8024809814508
 11
283.82141167934969
 21
510.30248098145069
  0
LINE
  8
_0-1_1
  6
CONTINUOUS
 62
    7
 10
281.22141167934933
 20
508.2735000393252
 11
281.22141167934933
 21
509.77350003932554
  0
LINE
  8
_0-1_1
  6
CONTINUOUS
 62
    7
 10
283.82141167934969
 20
510.53342108912636
 11
283.82141167934969
 21
512.03342108912636
  0
LINE
  8
_0-1_1
  6
CONTINUOUS
 62
    7
 10
281.22141167934933
 20
510.00444014700099
 11
281.22141167934933
 21
511.50444014700133
  0
LINE
  8
_0-1_1
  6
CONTINUOUS
 62
    7
 10
283.82141167934969
 20
512.2643611968025
 11
283.82141167934969
 21
513.22901366645794
  0
LINE
  8
_0-1_1
  6
CONTINUOUS
 62
    7
 10
281.22141167934933
 20
511.73538025467701
 11
281.22141167934933
 21
513.22901366645794
  0
LINE
  8
_0-1_1
  6
CONTINUOUS
 62
    7
 10
281.22288905128698
 20
513.23452729359144
 11
283.68658861889298
 21
513.73218017811382
  0
LINE
  8
_0-1_1
  6
CONTINUOUS
 62
    7
 10
281.22288905128698
 20
513.23452729359144
 11
281.22141167934933
 21
513.22901366645794
  0
LINE
  8
_0-1_1
  6
CONTINUOUS
 62
    7
 10
281.28852293113181
 20
513.47947626786947
 11
283.6209547390485
 21
513.97712915239197
  0
LINE
  8
_0-1_1
  6
CONTINUOUS
 62
    7
 10
283.86590371332659
 20
513.83570779615491
 11
281.04357395685361
 21
513.3380549116323
  0
LINE
  8
_0-1_1
  6
CONTINUOUS
 62
    7
 10
283.6209547390485
 20
513.97712915239197
 11
283.2190309504017
 21
515.47712915239208
  0
LINE
  8
_0-1_1
  6
CONTINUOUS
 62
    7
 10
283.86590371332659
 20
513.83570779615491
 11
283.6209547390485
 21
513.97712915239197
  0
LINE
  8
_0-1_1
  6
CONTINUOUS
 62
    7
 10
283.68658861889298
 20
513.73218017811382
 11
283.86590371332659
 21
513.83570779615491
  0
LINE
  8
_0-1_1
  6
CONTINUOUS
 62
    7
 10
281.04357395685361
 20
513.3380549116323
 11
281.22288905128698
 21
513.23452729359144
  0
LINE
  8
_0-1_1
  6
CONTINUOUS
 62
    7
 10
281.04357395685361
 20
513.3380549116323
 11
281.28852293113181
 21
513.47947626786947
  0
LINE
  8
_0-1_1
  6
CONTINUOUS
 62
    7
 10
281.02141167934951
 20
511.61991020083894
 11
284.02141167934951
 21
512.14889114296454
  0
LINE
  8
_0-1_1
  6
CONTINUOUS
 62
    7
 10
281.22141167934933
 20
511.73538025467701
 11
281.02141167934951
 21
511.61991020083894
  0
LINE
  8
_0-1_1
  6
CONTINUOUS
 62
    7
 10
283.82141167934969
 20
512.2643611968025
 11
281.22141167934933
 21
511.73538025467701
  0
LINE
  8
_0-1_1
  6
CONTINUOUS
 62
    7
 10
284.02141167934951
 20
512.14889114296454
 11
283.82141167934969
 21
512.2643611968025
  0
LINE
  8
_0-1_1
  6
CONTINUOUS
 62
    7
 10
283.82141167934969
 20
512.03342108912636
 11
284.02141167934951
 21
512.14889114296454
  0
LINE
  8
_0-1_1
  6
CONTINUOUS
 62
    7
 10
281.22141167934933
 20
511.50444014700133
 11
283.82141167934969
 21
512.03342108912636
  0
LINE
  8
_0-1_1
  6
CONTINUOUS
 62
    7
 10
281.02141167934951
 20
511.61991020083894
 11
281.22141167934933
 21
511.50444014700133
  0
LINE
  8
_0-1_1
  6
CONTINUOUS
 62
    7
 10
281.02141167934951
 20
509.88897009316315
 11
284.02141167934951
 21
510.41795103528864
  0
LINE
  8
_0-1_1
  6
CONTINUOUS
 62
    7
 10
281.22141167934933
 20
510.00444014700099
 11
281.02141167934951
 21
509.88897009316315
  0
LINE
  8
_0-1_1
  6
CONTINUOUS
 62
    7
 10
283.82141167934969
 20
510.53342108912636
 11
281.22141167934933
 21
510.00444014700099
  0
LINE
  8
_0-1_1
  6
CONTINUOUS
 62
    7
 10
284.02141167934951
 20
510.41795103528864
 11
283.82141167934969
 21
510.53342108912636
  0
LINE
  8
_0-1_1
  6
CONTINUOUS
 62
    7
 10
283.82141167934969
 20
510.30248098145069
 11
284.02141167934951
 21
510.41795103528864
  0
LINE
  8
_0-1_1
  6
CONTINUOUS
 62
    7
 10
281.22141167934933
 20
509.77350003932554
 11
283.82141167934969
 21
510.30248098145069
  0
LINE
  8
_0-1_1
  6
CONTINUOUS
 62
    7
 10
281.02141167934951
 20
509.88897009316315
 11
281.22141167934933
 21
509.77350003932554
  0
LINE
  8
_0-1_1
  6
CONTINUOUS
 62
    7
 10
281.02141167934951
 20
508.15802998548725
 11
284.02141167934951
 21
508.68701092761273
  0
LINE
  8
_0-1_1
  6
CONTINUOUS
 62
    7
 10
281.22141167934933
 20
508.2735000393252
 11
281.02141167934951
 21
508.15802998548725
  0
LINE
  8
_0-1_1
  6
CONTINUOUS
 62
    7
 10
283.82141167934969
 20
508.8024809814508
 11
281.22141167934933
 21
508.2735000393252
  0
LINE
  8
_0-1_1
  6
CONTINUOUS
 62
    7
 10
284.02141167934951
 20
508.68701092761273
 11
283.82141167934969
 21
508.8024809814508
  0
LINE
  8
_0-1_1
  6
CONTINUOUS
 62
    7
 10
283.82141167934969
 20
508.57154087377467
 11
284.02141167934951
 21
508.68701092761273
  0
LINE
  8
_0-1_1
  6
CONTINUOUS
 62
    7
 10
281.22141167934933
 20
508.04255993164952
 11
283.82141167934969
 21
508.57154087377467
  0
LINE
  8
_0-1_1
  6
CONTINUOUS
 62
    7
 10
281.02141167934951
 20
508.15802998548725
 11
281.22141167934933
 21
508.04255993164952
  0
LINE
  8
_0-1_1
  6
CONTINUOUS
 62
    7
 10
281.02141167934951
 20
506.42708987781145
 11
284.02141167934951
 21
506.95607081993671
  0
LINE
  8
_0-1_1
  6
CONTINUOUS
 62
    7
 10
281.22141167934933
 20
506.54255993164929
 11
281.02141167934951
 21
506.42708987781145
  0
LINE
  8
_0-1_1
  6
CONTINUOUS
 62
    7
 10
283.82141167934969
 20
507.07154087377467
 11
281.22141167934933
 21
506.54255993164929
  0
LINE
  8
_0-1_1
  6
CONTINUOUS
 62
    7
 10
284.02141167934951
 20
506.95607081993671
 11
283.82141167934969
 21
507.07154087377467
  0
LINE
  8
_0-1_1
  6
CONTINUOUS
 62
    7
 10
283.82141167934969
 20
506.84060076609887
 11
284.02141167934951
 21
506.95607081993671
  0
LINE
  8
_0-1_1
  6
CONTINUOUS
 62
    7
 10
281.22141167934933
 20
506.31161982397361
 11
283.82141167934969
 21
506.84060076609887
  0
LINE
  8
_0-1_1
  6
CONTINUOUS
 62
    7
 10
281.02141167934951
 20
506.42708987781145
 11
281.22141167934933
 21
506.31161982397361
  0
LINE
  8
_0-1_1
  6
CONTINUOUS
 62
    7
 10
281.02141167934951
 20
504.69614977013555
 11
284.02141167934951
 21
505.22513071226103
  0
LINE
  8
_0-1_1
  6
CONTINUOUS
 62
    7
 10
281.22141167934933
 20
504.8116198239735
 11
281.02141167934951
 21
504.69614977013555
  0
LINE
  8
_0-1_1
  6
CONTINUOUS
 62
    7
 10
281.22141167934933
 20
504.8116198239735
 11
281.22141167934933
 21
506.31161982397361
  0
LINE
  8
_0-1_1
  6
CONTINUOUS
 62
    7
 10
283.82141167934969
 20
505.34060076609876
 11
281.22141167934933
 21
504.8116198239735
  0
LINE
  8
_0-1_1
  6
CONTINUOUS
 62
    7
 10
283.82141167934969
 20
505.34060076609876
 11
283.82141167934969
 21
506.84060076609887
  0
LINE
  8
_0-1_1
  6
CONTINUOUS
 62
    7
 10
284.02141167934951
 20
505.22513071226103
 11
283.82141167934969
 21
505.34060076609876
  0
LINE
  8
_0-1_1
  6
CONTINUOUS
 62
    7
 10
283.82141167934969
 20
505.10966065842285
 11
284.02141167934951
 21
505.22513071226103
  0
LINE
  8
_0-1_1
  6
CONTINUOUS
 62
    7
 10
281.22141167934933
 20
504.58067971629771
 11
283.82141167934969
 21
505.10966065842285
  0
LINE
  8
_0-1_1
  6
CONTINUOUS
 62
    7
 10
281.02141167934951
 20
504.69614977013555
 11
281.22141167934933
 21
504.58067971629771
  0
LINE
  8
_0-1_1
  6
CONTINUOUS
 62
    7
 10
283.82141167934969
 20
513.22901366645794
 11
283.68658861889298
 21
513.73218017811382
  0
LINE
  8
_0-1_1
  6
CONTINUOUS
 62
    7
 10
282.52141167934951
 20
518.08067971629771
 11
282.31638228987413
 21
517.31549961773021
  0
LINE
  8
_0-1_1
  6
CONTINUOUS
 62
    2
 10
288.02141167934951
 20
504.08067971629771
 11
277.02141167934951
 21
504.08067971629771
  0
LINE
  8
_0-1_1
  6
CONTINUOUS
 62
    7
 10
282.52141167934951
 20
504.58067971629771
 11
277.02141167934951
 21
504.58067971629771
  0
LINE
  8
_0-1_1
  6
CONTINUOUS
 62
    7
 10
277.02141167934951
 20
504.58067971629771
 11
277.02141167934951
 21
504.08067971629771
  0
LINE
  8
_0-1_1
  6
CONTINUOUS
 62
    7
 10
277.02141167934951
 20
504.08067971629771
 11
277.52141167934951
 21
503.5806797162976
  0
LINE
  8
_0-1_1
  6
CONTINUOUS
 62
    7
 10
288.02141167934951
 20
504.08067971629771
 11
288.02141167934951
 21
504.58067971629771
  0
LINE
  8
_0-1_1
  6
CONTINUOUS
 62
    7
 10
287.52141167934951
 20
503.5806797162976
 11
288.02141167934951
 21
504.08067971629771
  0
LINE
  8
_0-1_1
  6
CONTINUOUS
 62
    7
 10
288.02141167934951
 20
504.58067971629771
 11
282.52141167934951
 21
504.58067971629771
  0
LINE
  8
_0-1_1
  6
DASH_CENTER
 62
    2
 10
605.79320727114964
 20
217.72919717612012
 11
635.88587668520847
 21
217.72919717612012
  0
LINE
  8
_0-1_1
  6
DASH_CENTER
 62
    2
 10
282.52141167934951
 20
495.48801030223899
 11
282.52141167934951
 21
519.39965744426263
  0
LINE
  8
_0-1_1
  6
DASH_CENTER
 62
    2
 10
357.52141167934951
 20
495.48801030223899
 11
357.52141167934951
 21
519.39965744426263
  0
LINE
  8
_0-1_1
  6
DASH_CENTER
 62
    2
 10
320.02141167934951
 20
382.21616898510683
 11
320.02141167934951
 21
511.08067971629771
  0
LINE
  8
_0-1_1
  6
DASH_CENTER
 62
    2
 10
410.02141167934951
 20
444.58067971629782
 11
230.02141167934951
 21
444.58067971629782
  0
LINE
  8
_0-1_1
  6
DASH_CENTER
 62
    2
 10
320.02141167934951
 20
247.72919717612012
 11
320.02141167934951
 21
27.278114942251023
  0
SOLID
  8
_0-3_寸法線
  6
CONTINUOUS
 62
    7
 10
624.57835979227343
 20
224.0439272162256
 11
620.34318747929865
 21
217.72919717612012
 12
622.30141100559194
 22
225.07615985610369
 13
622.30141100559194
 23
225.07615985610369
  0
LINE
  8
_0-3_寸法線
  6
CONTINUOUS
 62
    7
 10
623.43988539893269
 20
224.5600435361647
 11
643.46632498142571
 21
268.73533459680812
  0
LINE
  8
_0-3_寸法線
  6
CONTINUOUS
 62
    7
 10
643.46632498142571
 20
268.73533459680812
 11
598.83532892131916
 21
268.73533459680812
  0
LINE
  8
_0-3_寸法線
  6
CONTINUOUS
 62
    7
 10
237.5214116793494
 20
429.58067971629771
 11
237.5214116793494
 21
337.83580416862418
  0
LINE
  8
_0-3_寸法線
  6
CONTINUOUS
 62
    7
 10
402.52141167934951
 20
429.58067971629771
 11
402.52141167934951
 21
337.83580416862418
  0
LINE
  8
_0-3_寸法線
  6
CONTINUOUS
 62
    7
 10
245.0214116793494
 20
337.83580416862418
 11
395.02141167934951
 21
337.83580416862418
  0
LINE
  8
_0-3_寸法線
  6
CONTINUOUS
 62
    7
 10
491.53869527263038
 20
244.69883294619552
 11
442.3842442876803
 21
244.69883294619558
  0
LINE
  8
_0-3_寸法線
  6
CONTINUOUS
 62
    7
 10
528.54937300940446
 20
34.729197176120124
 11
442.3842442876803
 21
34.729197176120124
  0
LINE
  8
_0-3_寸法線
  6
CONTINUOUS
 62
    7
 10
442.3842442876803
 20
237.19883294619558
 11
442.3842442876803
 21
42.229197176120095
  0
LINE
  8
_0-3_寸法線
  6
CONTINUOUS
 62
    7
 10
390.52141167934951
 20
503.5806797162976
 11
450.4139221193127
 21
503.5806797162976
  0
LINE
  8
_0-3_寸法線
  6
CONTINUOUS
 62
    7
 10
358.52141167934951
 20
385.58067971629771
 11
450.4139221193127
 21
385.5806797162976
  0
LINE
  8
_0-3_寸法線
  6
CONTINUOUS
 62
    7
 10
450.4139221193127
 20
496.08067971629771
 11
450.4139221193127
 21
393.0806797162976
  0
LINE
  8
_0-3_寸法線
  6
CONTINUOUS
 62
    7
 10
282.52141167934951
 20
525.39965744426263
 11
282.52141167934951
 21
573.16752856788753
  0
LINE
  8
_0-3_寸法線
  6
CONTINUOUS
 62
    7
 10
357.52141167934951
 20
525.39965744426263
 11
357.52141167934951
 21
573.16752856788753
  0
LINE
  8
_0-3_寸法線
  6
CONTINUOUS
 62
    7
 10
290.02141167934951
 20
573.16752856788753
 11
350.02141167934951
 21
573.16752856788753
  0
LINE
  8
_0-3_寸法線
  6
CONTINUOUS
 62
    7
 10
617.88587668520813
 20
244.72919717612018
 11
680.43113372855896
 21
244.72919717612018
  0
LINE
  8
_0-3_寸法線
  6
CONTINUOUS
 62
    7
 10
641.88587668520859
 20
217.72919717612012
 11
680.43113372855896
 21
217.72919717612012
  0
LINE
  8
_0-3_寸法線
  6
CONTINUOUS
 62
    7
 10
680.43113372855896
 20
237.22919717612012
 11
680.43113372855896
 21
225.22919717612012
  0
TEXT
  8
_0-3_寸法線
 62
    7
 10
439.38424428768019
 20
128.99972934687219
 40
7.5
 41
1
 50
90
  1
210
  0
LINE
  8
_0-2_0
  6
CONTINUOUS
 62
    7
 10
444.39386321268029
 20
42.229197176120095
 11
442.3842442876803
 21
34.729197176120124
  0
LINE
  8
_0-2_0
  6
CONTINUOUS
 62
    7
 10
442.3842442876803
 20
34.729197176120124
 11
440.37462536268032
 21
42.229197176120095
  0
LINE
  8
_0-2_0
  6
CONTINUOUS
 62
    7
 10
442.3842442876803
 20
34.729197176120124
 11
442.3842442876803
 21
42.229197176120095
  0
LINE
  8
_0-2_0
  6
CONTINUOUS
 62
    7
 10
440.37462536268038
 20
237.19883294619558
 11
442.3842442876803
 21
244.69883294619558
  0
LINE
  8
_0-2_0
  6
CONTINUOUS
 62
    7
 10
442.3842442876803
 20
244.69883294619558
 11
444.3938632126804
 21
237.19883294619558
  0
LINE
  8
_0-2_0
  6
CONTINUOUS
 62
    7
 10
442.3842442876803
 20
244.69883294619558
 11
442.3842442876803
 21
237.19883294619558
  0
TEXT
  8
_0-3_寸法線
 62
    7
 10
677.43113372855885
 20
224.08634003326313
 40
7.5
 41
1
 50
90
  1
27
  0
LINE
  8
_0-2_0
  6
CONTINUOUS
 62
    7
 10
682.440752653559
 20
225.22919717612012
 11
680.43113372855896
 21
217.72919717612012
  0
LINE
  8
_0-2_0
  6
CONTINUOUS
 62
    7
 10
680.43113372855896
 20
217.72919717612012
 11
678.42151480355881
 21
225.22919717612012
  0
LINE
  8
_0-2_0
  6
CONTINUOUS
 62
    7
 10
680.43113372855896
 20
217.72919717612012
 11
680.43113372855896
 21
225.22919717612012
  0
LINE
  8
_0-2_0
  6
CONTINUOUS
 62
    7
 10
678.42151480355881
 20
237.22919717612012
 11
680.43113372855896
 21
244.72919717612018
  0
LINE
  8
_0-2_0
  6
CONTINUOUS
 62
    7
 10
680.43113372855896
 20
244.72919717612018
 11
682.440752653559
 21
237.22919717612012
  0
LINE
  8
_0-2_0
  6
CONTINUOUS
 62
    7
 10
680.43113372855896
 20
244.72919717612018
 11
680.43113372855896
 21
237.22919717612012
  0
TEXT
  8
_0-3_寸法線
 62
    7
 10
308.77141167934951
 20
340.83580416862418
 40
7.5
 41
1
 50
0
  1
165
  0
LINE
  8
_0-2_0
  6
CONTINUOUS
 62
    7
 10
395.02141167934951
 20
339.84542309362422
 11
402.52141167934951
 21
337.83580416862418
  0
LINE
  8
_0-2_0
  6
CONTINUOUS
 62
    7
 10
402.52141167934951
 20
337.83580416862418
 11
395.02141167934951
 21
335.8261852436242
  0
LINE
  8
_0-2_0
  6
CONTINUOUS
 62
    7
 10
402.52141167934951
 20
337.83580416862418
 11
395.02141167934951
 21
337.83580416862418
  0
LINE
  8
_0-2_0
  6
CONTINUOUS
 62
    7
 10
245.0214116793494
 20
335.8261852436242
 11
237.5214116793494
 21
337.83580416862418
  0
LINE
  8
_0-2_0
  6
CONTINUOUS
 62
    7
 10
237.5214116793494
 20
337.83580416862418
 11
245.0214116793494
 21
339.84542309362422
  0
LINE
  8
_0-2_0
  6
CONTINUOUS
 62
    7
 10
237.5214116793494
 20
337.83580416862418
 11
245.0214116793494
 21
337.83580416862418
  0
TEXT
  8
_0-3_寸法線
 62
    7
 10
447.41392211931259
 20
433.33067971629771
 40
7.5
 41
1
 50
90
  1
118
  0
LINE
  8
_0-2_0
  6
CONTINUOUS
 62
    7
 10
452.42354104431269
 20
393.0806797162976
 11
450.4139221193127
 21
385.5806797162976
  0
LINE
  8
_0-2_0
  6
CONTINUOUS
 62
    7
 10
450.4139221193127
 20
385.5806797162976
 11
448.40430319431272
 21
393.0806797162976
  0
LINE
  8
_0-2_0
  6
CONTINUOUS
 62
    7
 10
450.4139221193127
 20
385.5806797162976
 11
450.4139221193127
 21
393.0806797162976
  0
LINE
  8
_0-2_0
  6
CONTINUOUS
 62
    7
 10
448.40430319431277
 20
496.08067971629771
 11
450.4139221193127
 21
503.5806797162976
  0
LINE
  8
_0-2_0
  6
CONTINUOUS
 62
    7
 10
450.4139221193127
 20
503.5806797162976
 11
452.4235410443128
 21
496.08067971629771
  0
LINE
  8
_0-2_0
  6
CONTINUOUS
 62
    7
 10
450.4139221193127
 20
503.5806797162976
 11
450.4139221193127
 21
496.08067971629771
  0
TEXT
  8
_0-3_寸法線
 62
    7
 10
312.87855453649229
 20
576.16752856788753
 40
7.5
 41
1
 50
0
  1
75
  0
LINE
  8
_0-2_0
  6
CONTINUOUS
 62
    7
 10
350.02141167934951
 20
575.17714749288746
 11
357.52141167934951
 21
573.16752856788753
  0
LINE
  8
_0-2_0
  6
CONTINUOUS
 62
    7
 10
357.52141167934951
 20
573.16752856788753
 11
350.02141167934951
 21
571.15790964288749
  0
LINE
  8
_0-2_0
  6
CONTINUOUS
 62
    7
 10
357.52141167934951
 20
573.16752856788753
 11
350.02141167934951
 21
573.16752856788753
  0
LINE
  8
_0-2_0
  6
CONTINUOUS
 62
    7
 10
290.02141167934951
 20
571.15790964288749
 11
282.52141167934951
 21
573.16752856788753
  0
LINE
  8
_0-2_0
  6
CONTINUOUS
 62
    7
 10
282.52141167934951
 20
573.16752856788753
 11
290.02141167934951
 21
575.17714749288746
  0
LINE
  8
_0-2_0
  6
CONTINUOUS
 62
    7
 10
282.52141167934951
 20
573.16752856788753
 11
290.02141167934951
 21
573.16752856788753
  0
TEXT
  8
_0-3_寸法線
 62
    7
 10
599.31521034508648
 20
270.98160735946931
 40
7.5
 41
1
 50
0
  1
φ3×18
  0
ENDSEC
  0
EOF
