  0
SECTION
  2
HEADER
  9
$ACADVER
  1
AC1009
  9
$INSBASE
 10
0
 20
0
 30
0
  9
$EXTMIN
 10
0
 20
0
  9
$EXTMAX
 10
420
 20
297
  9
$LIMMIN
 10
0
 20
0
  9
$LIMMAX
 10
420
 20
297
  9
$LTSCALE
 40
1
  0
ENDSEC
  0
SECTION
  2
TABLES
  0
TABLE
  2
LTYPE
 70
     9
  0
LTYPE
  2
CONTINUOUS
 70
    64
  3
実線
 72
    65
 73
     0
 40
0.0
  0
LTYPE
  2
DASHED1
 70
    64
  3
--  --  --  --  --  --  --  --  
 72
    65
 73
     2
 40
2.5
 49
1.25
 49
-1.25
  0
LTYPE
  2
DASHED2
 70
    64
  3
----    ----    ----    ----    
 72
    65
 73
     2
 40
5.0
 49
2.5
 49
-2.5
  0
LTYPE
  2
DASHED3
 70
    64
  3
------  ------  ------  ------  
 72
    65
 73
     2
 40
5.0
 49
3.75
 49
-1.25
  0
LTYPE
  2
CENTER1
 70
    64
  3
----- - ----- - ----- - ----- - 
 72
    65
 73
     4
 40
10.0
 49
6.25
 49
-1.25
 49
1.25
 49
-1.25
  0
LTYPE
  2
CENTER2
 70
    64
  3
----------  --  ----------  --  
 72
    65
 73
     4
 40
20.0
 49
12.5
 49
-2.5
 49
2.5
 49
-2.5
  0
LTYPE
  2
PHANTOM1
 70
    64
  3
--- - - --- - - --- - - --- - - 
 72
    65
 73
     6
 40
10.0
 49
3.25
 49
-1.25
 49
1.25
 49
-1.25
 49
1.25
 49
-1.25
  0
LTYPE
  2
PHANTOM2
 70
    64
  3
--------  -  -  --------  -  -  
 72
    65
 73
     6
 40
20.0
 49
10.0
 49
-2.5
 49
1.25
 49
-2.5
 49
1.25
 49
-2.5
  0
LTYPE
  2
DOT
 70
    64
  3
-   -   -   -   -   -   -   -   
 72
    65
 73
     2
 40
2.5
 49
0.625
 49
-1.875
  0
LTYPE
  2
DUMMY
 70
    64
  3
ダミー
 72
    65
 73
     0
 40
0.0
  0
LTYPE
  2
RAND1
 70
    64
  3
----- - ----- - ----- - ----- - 
 72
    65
 73
     4
 40
10.0
 49
6.25
 49
-1.25
 49
1.25
 49
-1.25
  0
LTYPE
  2
RAND2
 70
    64
  3
----------  --  ----------  --  
 72
    65
 73
     4
 40
20.0
 49
12.5
 49
-2.5
 49
2.5
 49
-2.5
  0
LTYPE
  2
RAND3
 70
    64
  3
--- - - --- - - --- - - --- - - 
 72
    65
 73
     6
 40
10.0
 49
3.25
 49
-1.25
 49
1.25
 49
-1.25
 49
1.25
 49
-1.25
  0
LTYPE
  2
RAND4
 70
    64
  3
--------  -  -  --------  -  -  
 72
    65
 73
     6
 40
20.0
 49
10.0
 49
-2.5
 49
1.25
 49
-2.5
 49
1.25
 49
-2.5
  0
LTYPE
  2
RAND5
 70
    64
  3
----- - ----- - ----- - ----- - 
 72
    65
 73
     4
 40
10.0
 49
6.25
 49
-1.25
 49
1.25
 49
-1.25
  0
LTYPE
  2
LONG1
 70
    64
  3
----------  --  ----------  --  
 72
    65
 73
     4
 40
20.0
 49
12.5
 49
-2.5
 49
2.5
 49
-2.5
  0
LTYPE
  2
LONG2
 70
    64
  3
--- - - --- - - --- - - --- - - 
 72
    65
 73
     6
 40
10.0
 49
3.25
 49
-1.25
 49
1.25
 49
-1.25
 49
1.25
 49
-1.25
  0
LTYPE
  2
LONG3
 70
    64
  3
--------  -  -  --------  -  -  
 72
    65
 73
     6
 40
20.0
 49
10.0
 49
-2.5
 49
1.25
 49
-2.5
 49
1.25
 49
-2.5
  0
LTYPE
  2
LONG4
 70
    64
  3
----- - ----- - ----- - ----- - 
 72
    65
 73
     4
 40
10.0
 49
6.25
 49
-1.25
 49
1.25
 49
-1.25
  0
LTYPE
  2
LONG5
 70
    64
  3
----------  --  ----------  --  
 72
    65
 73
     4
 40
20.0
 49
12.5
 49
-2.5
 49
2.5
 49
-2.5
  0
ENDTAB
  0
TABLE
  2
STYLE
  5
3
100
AcDbSymbolTable
 70
     1
  0
STYLE
  5
10
100
AcDbSymbolTableRecord
100
AcDbTextStyleTableRecord
  2
STANDARD
 70
     0
 40
0.0
 41
1.0
 50
0.0
 71
     0
 42
0.2
  3
txt
  4
bigfont.shx
  0
STYLE
  5
26
100
AcDbSymbolTableRecord
100
AcDbTextStyleTableRecord
  2
TATEGAKI
 70
    68
 40
0.0
 41
1.0
 50
0.0
 71
     0
 42
1.0
  3
txt
  4
bigfont.shx
  0
ENDTAB
  0
TABLE
  2
LAYER
 70
    3
  0
LAYER
  2
_0-0_
 70
   64
 62
    7
  6
CONTINUOUS
  0
LAYER
  2
_0-1_
 70
   64
 62
    7
  6
CONTINUOUS
  0
LAYER
  2
ADD_LINE
 70
   64
 62
    7
  6
CONTINUOUS
  0
ENDTAB
  0
ENDSEC
  0
SECTION
  2
BLOCKS
  0
ENDSEC
  0
SECTION
  2
ENTITIES
  0
LINE
  8
_0-0_
  6
CONTINUOUS
 62
    7
 10
238.86719
 20
184.84627
 11
238.5499
 21
185.14272
  0
LINE
  8
_0-1_
  6
CONTINUOUS
 62
    1
 10
241.75121
 20
28.338966
 11
241.75121
 21
10.338966
  0
LINE
  8
_0-1_
  6
CONTINUOUS
 62
    1
 10
306.75121
 20
287.50384
 11
306.75121
 21
10.338966
  0
LINE
  8
ADD_LINE
  6
DOT
 62
    7
 10
310
 20
291.49999
 11
110
 21
291.49999
  0
LINE
  8
ADD_LINE
  6
DOT
 62
    7
 10
110
 20
291.49999
 11
110
 21
5.5
  0
LINE
  8
ADD_LINE
  6
DOT
 62
    7
 10
110
 20
5.5
 11
310
 21
5.5
  0
LINE
  8
ADD_LINE
  6
DOT
 62
    7
 10
310
 20
5.5
 11
310
 21
291.49999
  0
LINE
  8
_0-1_
  6
CONTINUOUS
 62
    1
 10
114.30465
 20
10.338966
 11
114.30465
 21
287.50384
  0
LINE
  8
_0-1_
  6
CONTINUOUS
 62
    1
 10
114.30465
 20
287.50384
 11
306.75121
 21
287.50384
  0
LINE
  8
_0-1_
  6
CONTINUOUS
 62
    1
 10
306.75121
 20
28.338966
 11
114.30465
 21
28.338966
  0
LINE
  8
_0-1_
  6
CONTINUOUS
 62
    1
 10
306.75121
 20
10.338966
 11
114.30465
 21
10.338966
  0
LINE
  8
_0-1_
  6
CONTINUOUS
 62
    7
 10
126.17665
 20
13.819895
 11
130.3805
 21
13.819895
  0
LINE
  8
_0-1_
  6
CONTINUOUS
 62
    7
 10
130.3805
 20
13.819895
 11
130.3805
 21
18.029664
  0
LINE
  8
_0-1_
  6
CONTINUOUS
 62
    7
 10
126.17665
 20
18.029664
 11
126.17665
 21
13.819895
  0
LINE
  8
_0-1_
  6
CONTINUOUS
 62
    7
 10
130.3805
 20
18.029664
 11
126.17665
 21
18.029664
  0
LINE
  8
_0-1_
  6
CONTINUOUS
 62
    7
 10
130.85683
 20
19.402456
 11
133.00683
 21
23.126365
  0
LINE
  8
_0-1_
  6
CONTINUOUS
 62
    7
 10
130.85683
 20
19.402456
 11
135.15683
 21
19.402456
  0
LINE
  8
_0-1_
  6
CONTINUOUS
 62
    7
 10
133.00683
 20
23.126365
 11
135.15683
 21
19.402456
  0
CIRCLE
  8
_0-1_
  6
CONTINUOUS
 62
    7
 10
136.3896
 20
23.922135
 40
1.4758715
  0
LINE
  8
_0-1_
  6
CONTINUOUS
 62
    2
 10
139.35639
 20
16.016395
 11
141.16866
 21
16.016395
  0
LINE
  8
_0-1_
  6
CONTINUOUS
 62
    2
 10
141.63496
 20
15.016395
 11
142.24116
 21
13.716395
  0
LINE
  8
_0-1_
  6
CONTINUOUS
 62
    2
 10
138.89008
 20
15.016395
 11
138.28388
 21
13.716395
  0
LINE
  8
_0-1_
  6
CONTINUOUS
 62
    2
 10
140.26252
 20
17.959602
 11
141.16866
 21
16.016395
  0
LINE
  8
_0-1_
  6
CONTINUOUS
 62
    2
 10
140.26252
 20
17.959602
 11
139.35639
 21
16.016395
  0
LINE
  8
_0-1_
  6
CONTINUOUS
 62
    2
 10
139.66754
 20
19.471523
 11
136.98388
 21
13.716395
  0
LINE
  8
_0-1_
  6
CONTINUOUS
 62
    2
 10
147.51042
 20
18.471523
 11
147.58523
 21
18.430466
  0
LINE
  8
_0-1_
  6
CONTINUOUS
 62
    2
 10
147.58523
 20
18.430466
 11
147.71283
 21
18.358737
  0
LINE
  8
_0-1_
  6
CONTINUOUS
 62
    2
 10
147.71283
 20
18.358737
 11
147.83655
 21
18.284391
  0
LINE
  8
_0-1_
  6
CONTINUOUS
 62
    2
 10
147.83655
 20
18.284391
 11
147.95396
 21
18.205771
  0
LINE
  8
_0-1_
  6
CONTINUOUS
 62
    2
 10
147.95396
 20
18.205771
 11
148.0626
 21
18.121223
  0
LINE
  8
_0-1_
  6
CONTINUOUS
 62
    2
 10
148.0626
 20
18.121223
 11
148.16002
 21
18.029089
  0
LINE
  8
_0-1_
  6
CONTINUOUS
 62
    2
 10
148.16002
 20
18.029089
 11
148.21042
 21
17.971523
  0
LINE
  8
_0-1_
  6
CONTINUOUS
 62
    2
 10
148.21042
 20
17.971523
 11
148.28237
 21
17.869989
  0
LINE
  8
_0-1_
  6
CONTINUOUS
 62
    2
 10
148.28237
 20
17.869989
 11
148.37782
 21
17.675811
  0
LINE
  8
_0-1_
  6
CONTINUOUS
 62
    2
 10
148.37782
 20
17.675811
 11
148.44226
 21
17.461258
  0
LINE
  8
_0-1_
  6
CONTINUOUS
 62
    2
 10
148.44226
 20
17.461258
 11
148.48169
 21
17.230779
  0
LINE
  8
_0-1_
  6
CONTINUOUS
 62
    2
 10
148.48169
 20
17.230779
 11
148.50215
 21
16.988823
  0
LINE
  8
_0-1_
  6
CONTINUOUS
 62
    2
 10
148.50215
 20
16.988823
 11
148.50964
 21
16.739838
  0
LINE
  8
_0-1_
  6
CONTINUOUS
 62
    2
 10
148.50964
 20
16.739838
 11
148.51042
 21
16.593959
  0
LINE
  8
_0-1_
  6
CONTINUOUS
 62
    2
 10
148.51042
 20
16.593959
 11
148.50964
 21
16.44808
  0
LINE
  8
_0-1_
  6
CONTINUOUS
 62
    2
 10
148.50964
 20
16.44808
 11
148.50215
 21
16.199095
  0
LINE
  8
_0-1_
  6
CONTINUOUS
 62
    2
 10
148.50215
 20
16.199095
 11
148.48169
 21
15.957139
  0
LINE
  8
_0-1_
  6
CONTINUOUS
 62
    2
 10
148.48169
 20
15.957139
 11
148.44226
 21
15.72666
  0
LINE
  8
_0-1_
  6
CONTINUOUS
 62
    2
 10
148.44226
 20
15.72666
 11
148.37782
 21
15.512108
  0
LINE
  8
_0-1_
  6
CONTINUOUS
 62
    2
 10
148.37782
 20
15.512108
 11
148.28237
 21
15.31793
  0
LINE
  8
_0-1_
  6
CONTINUOUS
 62
    2
 10
148.28237
 20
15.31793
 11
148.21042
 21
15.216395
  0
LINE
  8
_0-1_
  6
CONTINUOUS
 62
    2
 10
148.21042
 20
15.216395
 11
148.16002
 21
15.158829
  0
LINE
  8
_0-1_
  6
CONTINUOUS
 62
    2
 10
148.16002
 20
15.158829
 11
148.0626
 21
15.066695
  0
LINE
  8
_0-1_
  6
CONTINUOUS
 62
    2
 10
148.0626
 20
15.066695
 11
147.95396
 21
14.982147
  0
LINE
  8
_0-1_
  6
CONTINUOUS
 62
    2
 10
147.95396
 20
14.982147
 11
147.83655
 21
14.903528
  0
LINE
  8
_0-1_
  6
CONTINUOUS
 62
    2
 10
147.83655
 20
14.903528
 11
147.71283
 21
14.829181
  0
LINE
  8
_0-1_
  6
CONTINUOUS
 62
    2
 10
147.71283
 20
14.829181
 11
147.58523
 21
14.757452
  0
LINE
  8
_0-1_
  6
CONTINUOUS
 62
    2
 10
147.58523
 20
14.757452
 11
147.51042
 21
14.716395
  0
LINE
  8
_0-1_
  6
CONTINUOUS
 62
    2
 10
147.51042
 20
13.716395
 11
147.57591
 21
13.733349
  0
LINE
  8
_0-1_
  6
CONTINUOUS
 62
    2
 10
147.57591
 20
13.733349
 11
147.68888
 21
13.762873
  0
LINE
  8
_0-1_
  6
CONTINUOUS
 62
    2
 10
147.68888
 20
13.762873
 11
147.80204
 21
13.793214
  0
LINE
  8
_0-1_
  6
CONTINUOUS
 62
    2
 10
147.80204
 20
13.793214
 11
147.9155
 21
13.824886
  0
LINE
  8
_0-1_
  6
CONTINUOUS
 62
    2
 10
147.9155
 20
13.824886
 11
148.02937
 21
13.858408
  0
LINE
  8
_0-1_
  6
CONTINUOUS
 62
    2
 10
148.02937
 20
13.858408
 11
148.14378
 21
13.894294
  0
LINE
  8
_0-1_
  6
CONTINUOUS
 62
    2
 10
148.14378
 20
13.894294
 11
148.21042
 21
13.916395
  0
LINE
  8
_0-1_
  6
CONTINUOUS
 62
    2
 10
148.21042
 20
13.916395
 11
148.34292
 21
13.963378
  0
LINE
  8
_0-1_
  6
CONTINUOUS
 62
    2
 10
148.34292
 20
13.963378
 11
148.56982
 21
14.055518
  0
LINE
  8
_0-1_
  6
CONTINUOUS
 62
    2
 10
148.56982
 20
14.055518
 11
148.78907
 21
14.163681
  0
LINE
  8
_0-1_
  6
CONTINUOUS
 62
    2
 10
148.78907
 20
14.163681
 11
148.99406
 21
14.290104
  0
LINE
  8
_0-1_
  6
CONTINUOUS
 62
    2
 10
148.99406
 20
14.290104
 11
149.17817
 21
14.437027
  0
LINE
  8
_0-1_
  6
CONTINUOUS
 62
    2
 10
149.17817
 20
14.437027
 11
149.33478
 21
14.606689
  0
LINE
  8
_0-1_
  6
CONTINUOUS
 62
    2
 10
149.33478
 20
14.606689
 11
149.41042
 21
14.716395
  0
LINE
  8
_0-1_
  6
CONTINUOUS
 62
    2
 10
149.41042
 20
14.716395
 11
149.43549
 21
14.75958
  0
LINE
  8
_0-1_
  6
CONTINUOUS
 62
    2
 10
149.43549
 20
14.75958
 11
149.4749
 21
14.836612
  0
LINE
  8
_0-1_
  6
CONTINUOUS
 62
    2
 10
149.4749
 20
14.836612
 11
149.51003
 21
14.916423
  0
LINE
  8
_0-1_
  6
CONTINUOUS
 62
    2
 10
149.51003
 20
14.916423
 11
149.54151
 21
14.998454
  0
LINE
  8
_0-1_
  6
CONTINUOUS
 62
    2
 10
149.54151
 20
14.998454
 11
149.56999
 21
15.082144
  0
LINE
  8
_0-1_
  6
CONTINUOUS
 62
    2
 10
149.56999
 20
15.082144
 11
149.5961
 21
15.166934
  0
LINE
  8
_0-1_
  6
CONTINUOUS
 62
    2
 10
149.5961
 20
15.166934
 11
149.61042
 21
15.216395
  0
LINE
  8
_0-1_
  6
CONTINUOUS
 62
    2
 10
149.61042
 20
15.216395
 11
149.64523
 21
15.344622
  0
LINE
  8
_0-1_
  6
CONTINUOUS
 62
    2
 10
149.64523
 20
15.344622
 11
149.69789
 21
15.566707
  0
LINE
  8
_0-1_
  6
CONTINUOUS
 62
    2
 10
149.69789
 20
15.566707
 11
149.7409
 21
15.789861
  0
LINE
  8
_0-1_
  6
CONTINUOUS
 62
    2
 10
149.7409
 20
15.789861
 11
149.77392
 21
16.013851
  0
LINE
  8
_0-1_
  6
CONTINUOUS
 62
    2
 10
149.77392
 20
16.013851
 11
149.79658
 21
16.238444
  0
LINE
  8
_0-1_
  6
CONTINUOUS
 62
    2
 10
149.79658
 20
16.238444
 11
149.80853
 21
16.463405
  0
LINE
  8
_0-1_
  6
CONTINUOUS
 62
    2
 10
149.80853
 20
16.463405
 11
149.81042
 21
16.593959
  0
LINE
  8
_0-1_
  6
CONTINUOUS
 62
    2
 10
149.81042
 20
16.593959
 11
149.80853
 21
16.724514
  0
LINE
  8
_0-1_
  6
CONTINUOUS
 62
    2
 10
149.80853
 20
16.724514
 11
149.79658
 21
16.949475
  0
LINE
  8
_0-1_
  6
CONTINUOUS
 62
    2
 10
149.79658
 20
16.949475
 11
149.77392
 21
17.174067
  0
LINE
  8
_0-1_
  6
CONTINUOUS
 62
    2
 10
149.77392
 20
17.174067
 11
149.7409
 21
17.398057
  0
LINE
  8
_0-1_
  6
CONTINUOUS
 62
    2
 10
149.7409
 20
17.398057
 11
149.69789
 21
17.621211
  0
LINE
  8
_0-1_
  6
CONTINUOUS
 62
    2
 10
149.69789
 20
17.621211
 11
149.64523
 21
17.843296
  0
LINE
  8
_0-1_
  6
CONTINUOUS
 62
    2
 10
149.64523
 20
17.843296
 11
149.61042
 21
17.971523
  0
LINE
  8
_0-1_
  6
CONTINUOUS
 62
    2
 10
149.61042
 20
17.971523
 11
149.5961
 21
18.020985
  0
LINE
  8
_0-1_
  6
CONTINUOUS
 62
    2
 10
149.5961
 20
18.020985
 11
149.56999
 21
18.105774
  0
LINE
  8
_0-1_
  6
CONTINUOUS
 62
    2
 10
149.56999
 20
18.105774
 11
149.54151
 21
18.189465
  0
LINE
  8
_0-1_
  6
CONTINUOUS
 62
    2
 10
149.54151
 20
18.189465
 11
149.51003
 21
18.271495
  0
LINE
  8
_0-1_
  6
CONTINUOUS
 62
    2
 10
149.51003
 20
18.271495
 11
149.4749
 21
18.351306
  0
LINE
  8
_0-1_
  6
CONTINUOUS
 62
    2
 10
149.4749
 20
18.351306
 11
149.43549
 21
18.428339
  0
LINE
  8
_0-1_
  6
CONTINUOUS
 62
    2
 10
149.43549
 20
18.428339
 11
149.41042
 21
18.471523
  0
LINE
  8
_0-1_
  6
CONTINUOUS
 62
    2
 10
149.41042
 20
18.471523
 11
149.33478
 21
18.581229
  0
LINE
  8
_0-1_
  6
CONTINUOUS
 62
    2
 10
149.33478
 20
18.581229
 11
149.17817
 21
18.750891
  0
LINE
  8
_0-1_
  6
CONTINUOUS
 62
    2
 10
149.17817
 20
18.750891
 11
148.99406
 21
18.897815
  0
LINE
  8
_0-1_
  6
CONTINUOUS
 62
    2
 10
148.99406
 20
18.897815
 11
148.78907
 21
19.024238
  0
LINE
  8
_0-1_
  6
CONTINUOUS
 62
    2
 10
148.78907
 20
19.024238
 11
148.56982
 21
19.1324
  0
LINE
  8
_0-1_
  6
CONTINUOUS
 62
    2
 10
148.56982
 20
19.1324
 11
148.34292
 21
19.22454
  0
LINE
  8
_0-1_
  6
CONTINUOUS
 62
    2
 10
148.34292
 20
19.22454
 11
148.21042
 21
19.271523
  0
LINE
  8
_0-1_
  6
CONTINUOUS
 62
    2
 10
148.21042
 20
19.271523
 11
148.14378
 21
19.293624
  0
LINE
  8
_0-1_
  6
CONTINUOUS
 62
    2
 10
148.14378
 20
19.293624
 11
148.02937
 21
19.329511
  0
LINE
  8
_0-1_
  6
CONTINUOUS
 62
    2
 10
148.02937
 20
19.329511
 11
147.9155
 21
19.363032
  0
LINE
  8
_0-1_
  6
CONTINUOUS
 62
    2
 10
147.9155
 20
19.363032
 11
147.80204
 21
19.394705
  0
LINE
  8
_0-1_
  6
CONTINUOUS
 62
    2
 10
147.80204
 20
19.394705
 11
147.68888
 21
19.425045
  0
LINE
  8
_0-1_
  6
CONTINUOUS
 62
    2
 10
147.68888
 20
19.425045
 11
147.57591
 21
19.454569
  0
LINE
  8
_0-1_
  6
CONTINUOUS
 62
    2
 10
147.57591
 20
19.454569
 11
147.51042
 21
19.471523
  0
LINE
  8
_0-1_
  6
CONTINUOUS
 62
    2
 10
151.11042
 20
19.471523
 11
153.14408
 21
15.110325
  0
LINE
  8
_0-1_
  6
CONTINUOUS
 62
    2
 10
155.17774
 20
19.471523
 11
153.14408
 21
15.110325
  0
LINE
  8
_0-1_
  6
CONTINUOUS
 62
    2
 10
149.81042
 20
19.471523
 11
152.49408
 21
13.716395
  0
LINE
  8
_0-1_
  6
CONTINUOUS
 62
    2
 10
153.79408
 20
13.716395
 11
156.47774
 21
19.471523
  0
LINE
  8
_0-1_
  6
CONTINUOUS
 62
    2
 10
157.47774
 20
19.471523
 11
154.79408
 21
13.716395
  0
LINE
  8
_0-1_
  6
CONTINUOUS
 62
    2
 10
158.81317
 20
19.471523
 11
161.49683
 21
13.716395
  0
LINE
  8
_0-1_
  6
CONTINUOUS
 62
    2
 10
138.89008
 20
15.016395
 11
141.63496
 21
15.016395
  0
LINE
  8
_0-1_
  6
CONTINUOUS
 62
    2
 10
156.70028
 20
15.016395
 11
159.59063
 21
15.016395
  0
LINE
  8
_0-1_
  6
CONTINUOUS
 62
    2
 10
157.16659
 20
16.016395
 11
159.12432
 21
16.016395
  0
LINE
  8
_0-1_
  6
CONTINUOUS
 62
    2
 10
163.37338
 20
18.471523
 11
166.34471
 21
13.716395
  0
LINE
  8
_0-1_
  6
CONTINUOUS
 62
    2
 10
166.95214
 20
14.820099
 11
166.95214
 21
19.471523
  0
LINE
  8
_0-1_
  6
CONTINUOUS
 62
    2
 10
168.05214
 20
13.716395
 11
168.05214
 21
19.471523
  0
LINE
  8
_0-1_
  6
CONTINUOUS
 62
    2
 10
164.04561
 20
19.471523
 11
166.95214
 21
14.820099
  0
LINE
  8
_0-1_
  6
CONTINUOUS
 62
    2
 10
162.07338
 20
19.471523
 11
162.07338
 21
13.716395
  0
LINE
  8
_0-1_
  6
CONTINUOUS
 62
    2
 10
147.51042
 20
18.471523
 11
145.51042
 21
18.471523
  0
LINE
  8
_0-1_
  6
CONTINUOUS
 62
    2
 10
145.51042
 20
14.716395
 11
147.51042
 21
14.716395
  0
LINE
  8
_0-1_
  6
CONTINUOUS
 62
    2
 10
159.12432
 20
16.016395
 11
158.14546
 21
18.115588
  0
LINE
  8
_0-1_
  6
CONTINUOUS
 62
    2
 10
157.16659
 20
16.016395
 11
158.14546
 21
18.115588
  0
LINE
  8
_0-1_
  6
CONTINUOUS
 62
    2
 10
156.09408
 20
13.716395
 11
156.70028
 21
15.016395
  0
LINE
  8
_0-1_
  6
CONTINUOUS
 62
    2
 10
160.19683
 20
13.716395
 11
159.59063
 21
15.016395
  0
LINE
  8
_0-1_
  6
CONTINUOUS
 62
    2
 10
163.37338
 20
18.471523
 11
163.37338
 21
13.716395
  0
LINE
  8
_0-1_
  6
CONTINUOUS
 62
    2
 10
136.98388
 20
13.716395
 11
138.28388
 21
13.716395
  0
LINE
  8
_0-1_
  6
CONTINUOUS
 62
    2
 10
142.24116
 20
13.716395
 11
143.54116
 21
13.716395
  0
LINE
  8
_0-1_
  6
CONTINUOUS
 62
    2
 10
140.8575
 20
19.471523
 11
143.54116
 21
13.716395
  0
LINE
  8
_0-1_
  6
CONTINUOUS
 62
    2
 10
140.8575
 20
19.471523
 11
139.66754
 21
19.471523
  0
LINE
  8
_0-1_
  6
CONTINUOUS
 62
    2
 10
144.21042
 20
19.471523
 11
144.21042
 21
13.716395
  0
LINE
  8
_0-1_
  6
CONTINUOUS
 62
    2
 10
145.51042
 20
18.471523
 11
145.51042
 21
14.716395
  0
LINE
  8
_0-1_
  6
CONTINUOUS
 62
    2
 10
144.21042
 20
13.716395
 11
147.51042
 21
13.716395
  0
LINE
  8
_0-1_
  6
CONTINUOUS
 62
    2
 10
147.51042
 20
19.471523
 11
144.21042
 21
19.471523
  0
LINE
  8
_0-1_
  6
CONTINUOUS
 62
    2
 10
151.11042
 20
19.471523
 11
149.81042
 21
19.471523
  0
LINE
  8
_0-1_
  6
CONTINUOUS
 62
    2
 10
152.49408
 20
13.716395
 11
153.79408
 21
13.716395
  0
LINE
  8
_0-1_
  6
CONTINUOUS
 62
    2
 10
156.47774
 20
19.471523
 11
155.17774
 21
19.471523
  0
LINE
  8
_0-1_
  6
CONTINUOUS
 62
    2
 10
154.79408
 20
13.716395
 11
156.09408
 21
13.716395
  0
LINE
  8
_0-1_
  6
CONTINUOUS
 62
    2
 10
160.19683
 20
13.716395
 11
161.49683
 21
13.716395
  0
LINE
  8
_0-1_
  6
CONTINUOUS
 62
    2
 10
162.07338
 20
13.716395
 11
163.37338
 21
13.716395
  0
LINE
  8
_0-1_
  6
CONTINUOUS
 62
    2
 10
166.34471
 20
13.716395
 11
168.05214
 21
13.716395
  0
LINE
  8
_0-1_
  6
CONTINUOUS
 62
    2
 10
168.05214
 20
19.471523
 11
166.95214
 21
19.471523
  0
LINE
  8
_0-1_
  6
CONTINUOUS
 62
    2
 10
164.04561
 20
19.471523
 11
162.07338
 21
19.471523
  0
LINE
  8
_0-1_
  6
CONTINUOUS
 62
    2
 10
158.81317
 20
19.471523
 11
157.47774
 21
19.471523
  0
LINE
  8
_0-1_
  6
CONTINUOUS
 62
    2
 10
137.05622
 20
13.871523
 11
138.35622
 21
13.871523
  0
LINE
  8
_0-1_
  6
CONTINUOUS
 62
    2
 10
142.16883
 20
13.871523
 11
143.46883
 21
13.871523
  0
LINE
  8
_0-1_
  6
CONTINUOUS
 62
    2
 10
144.21042
 20
13.871523
 11
148.07119
 21
13.871523
  0
LINE
  8
_0-1_
  6
CONTINUOUS
 62
    2
 10
152.42174
 20
13.871523
 11
153.86642
 21
13.871523
  0
LINE
  8
_0-1_
  6
CONTINUOUS
 62
    2
 10
154.86642
 20
13.871523
 11
156.16642
 21
13.871523
  0
LINE
  8
_0-1_
  6
CONTINUOUS
 62
    2
 10
160.12449
 20
13.871523
 11
161.42449
 21
13.871523
  0
LINE
  8
_0-1_
  6
CONTINUOUS
 62
    2
 10
162.07338
 20
13.871523
 11
163.37338
 21
13.871523
  0
LINE
  8
_0-1_
  6
CONTINUOUS
 62
    2
 10
166.24778
 20
13.871523
 11
168.05214
 21
13.871523
  0
LINE
  8
_0-1_
  6
CONTINUOUS
 62
    2
 10
137.14948
 20
14.071523
 11
138.44948
 21
14.071523
  0
LINE
  8
_0-1_
  6
CONTINUOUS
 62
    2
 10
142.07557
 20
14.071523
 11
143.37557
 21
14.071523
  0
LINE
  8
_0-1_
  6
CONTINUOUS
 62
    2
 10
144.21042
 20
14.071523
 11
148.60227
 21
14.071523
  0
LINE
  8
_0-1_
  6
CONTINUOUS
 62
    2
 10
152.32848
 20
14.071523
 11
153.95968
 21
14.071523
  0
LINE
  8
_0-1_
  6
CONTINUOUS
 62
    2
 10
154.95968
 20
14.071523
 11
156.25968
 21
14.071523
  0
LINE
  8
_0-1_
  6
CONTINUOUS
 62
    2
 10
160.03123
 20
14.071523
 11
161.33123
 21
14.071523
  0
LINE
  8
_0-1_
  6
CONTINUOUS
 62
    2
 10
162.07338
 20
14.071523
 11
163.37338
 21
14.071523
  0
LINE
  8
_0-1_
  6
CONTINUOUS
 62
    2
 10
166.12281
 20
14.071523
 11
168.05214
 21
14.071523
  0
LINE
  8
_0-1_
  6
CONTINUOUS
 62
    2
 10
137.24274
 20
14.271523
 11
138.54274
 21
14.271523
  0
LINE
  8
_0-1_
  6
CONTINUOUS
 62
    2
 10
141.9823
 20
14.271523
 11
143.2823
 21
14.271523
  0
LINE
  8
_0-1_
  6
CONTINUOUS
 62
    2
 10
144.21042
 20
14.271523
 11
148.96393
 21
14.271523
  0
LINE
  8
_0-1_
  6
CONTINUOUS
 62
    2
 10
152.23522
 20
14.271523
 11
154.05294
 21
14.271523
  0
LINE
  8
_0-1_
  6
CONTINUOUS
 62
    2
 10
155.05294
 20
14.271523
 11
156.35294
 21
14.271523
  0
LINE
  8
_0-1_
  6
CONTINUOUS
 62
    2
 10
159.93797
 20
14.271523
 11
161.23797
 21
14.271523
  0
LINE
  8
_0-1_
  6
CONTINUOUS
 62
    2
 10
162.07338
 20
14.271523
 11
163.37338
 21
14.271523
  0
LINE
  8
_0-1_
  6
CONTINUOUS
 62
    2
 10
165.99783
 20
14.271523
 11
168.05214
 21
14.271523
  0
LINE
  8
_0-1_
  6
CONTINUOUS
 62
    2
 10
137.33601
 20
14.471523
 11
138.63601
 21
14.471523
  0
LINE
  8
_0-1_
  6
CONTINUOUS
 62
    2
 10
141.88904
 20
14.471523
 11
143.18904
 21
14.471523
  0
LINE
  8
_0-1_
  6
CONTINUOUS
 62
    2
 10
144.21042
 20
14.471523
 11
149.21001
 21
14.471523
  0
LINE
  8
_0-1_
  6
CONTINUOUS
 62
    2
 10
152.14196
 20
14.471523
 11
154.1462
 21
14.471523
  0
LINE
  8
_0-1_
  6
CONTINUOUS
 62
    2
 10
155.1462
 20
14.471523
 11
156.4462
 21
14.471523
  0
LINE
  8
_0-1_
  6
CONTINUOUS
 62
    2
 10
159.84471
 20
14.471523
 11
161.14471
 21
14.471523
  0
LINE
  8
_0-1_
  6
CONTINUOUS
 62
    2
 10
162.07338
 20
14.471523
 11
163.37338
 21
14.471523
  0
LINE
  8
_0-1_
  6
CONTINUOUS
 62
    2
 10
165.87286
 20
14.471523
 11
168.05214
 21
14.471523
  0
LINE
  8
_0-1_
  6
CONTINUOUS
 62
    2
 10
137.42927
 20
14.671523
 11
138.72927
 21
14.671523
  0
LINE
  8
_0-1_
  6
CONTINUOUS
 62
    2
 10
141.79578
 20
14.671523
 11
143.09578
 21
14.671523
  0
LINE
  8
_0-1_
  6
CONTINUOUS
 62
    2
 10
144.21042
 20
14.671523
 11
149.37948
 21
14.671523
  0
LINE
  8
_0-1_
  6
CONTINUOUS
 62
    2
 10
152.04869
 20
14.671523
 11
154.23946
 21
14.671523
  0
LINE
  8
_0-1_
  6
CONTINUOUS
 62
    2
 10
155.23946
 20
14.671523
 11
156.53946
 21
14.671523
  0
LINE
  8
_0-1_
  6
CONTINUOUS
 62
    2
 10
159.75145
 20
14.671523
 11
161.05145
 21
14.671523
  0
LINE
  8
_0-1_
  6
CONTINUOUS
 62
    2
 10
162.07338
 20
14.671523
 11
163.37338
 21
14.671523
  0
LINE
  8
_0-1_
  6
CONTINUOUS
 62
    2
 10
165.74788
 20
14.671523
 11
168.05214
 21
14.671523
  0
LINE
  8
_0-1_
  6
CONTINUOUS
 62
    2
 10
137.52253
 20
14.871523
 11
138.82253
 21
14.871523
  0
LINE
  8
_0-1_
  6
CONTINUOUS
 62
    2
 10
141.70252
 20
14.871523
 11
143.00252
 21
14.871523
  0
LINE
  8
_0-1_
  6
CONTINUOUS
 62
    2
 10
144.21042
 20
14.871523
 11
145.51042
 21
14.871523
  0
LINE
  8
_0-1_
  6
CONTINUOUS
 62
    2
 10
147.78329
 20
14.871523
 11
149.49026
 21
14.871523
  0
LINE
  8
_0-1_
  6
CONTINUOUS
 62
    2
 10
151.95543
 20
14.871523
 11
154.33272
 21
14.871523
  0
LINE
  8
_0-1_
  6
CONTINUOUS
 62
    2
 10
155.33272
 20
14.871523
 11
156.63272
 21
14.871523
  0
LINE
  8
_0-1_
  6
CONTINUOUS
 62
    2
 10
159.65819
 20
14.871523
 11
160.95819
 21
14.871523
  0
LINE
  8
_0-1_
  6
CONTINUOUS
 62
    2
 10
162.07338
 20
14.871523
 11
163.37338
 21
14.871523
  0
LINE
  8
_0-1_
  6
CONTINUOUS
 62
    2
 10
165.62291
 20
14.871523
 11
166.92001
 21
14.871523
  0
LINE
  8
_0-1_
  6
CONTINUOUS
 62
    2
 10
166.95214
 20
14.871523
 11
168.05214
 21
14.871523
  0
LINE
  8
_0-1_
  6
CONTINUOUS
 62
    2
 10
137.61579
 20
15.071523
 11
142.90926
 21
15.071523
  0
LINE
  8
_0-1_
  6
CONTINUOUS
 62
    2
 10
144.21042
 20
15.071523
 11
145.51042
 21
15.071523
  0
LINE
  8
_0-1_
  6
CONTINUOUS
 62
    2
 10
148.0677
 20
15.071523
 11
149.56638
 21
15.071523
  0
LINE
  8
_0-1_
  6
CONTINUOUS
 62
    2
 10
151.86217
 20
15.071523
 11
154.42598
 21
15.071523
  0
LINE
  8
_0-1_
  6
CONTINUOUS
 62
    2
 10
155.42598
 20
15.071523
 11
160.86493
 21
15.071523
  0
LINE
  8
_0-1_
  6
CONTINUOUS
 62
    2
 10
162.07338
 20
15.071523
 11
163.37338
 21
15.071523
  0
LINE
  8
_0-1_
  6
CONTINUOUS
 62
    2
 10
165.49794
 20
15.071523
 11
166.79503
 21
15.071523
  0
LINE
  8
_0-1_
  6
CONTINUOUS
 62
    2
 10
166.95214
 20
15.071523
 11
168.05214
 21
15.071523
  0
LINE
  8
_0-1_
  6
CONTINUOUS
 62
    2
 10
137.70905
 20
15.271523
 11
142.816
 21
15.271523
  0
LINE
  8
_0-1_
  6
CONTINUOUS
 62
    2
 10
144.21042
 20
15.271523
 11
145.51042
 21
15.271523
  0
LINE
  8
_0-1_
  6
CONTINUOUS
 62
    2
 10
148.24948
 20
15.271523
 11
149.62539
 21
15.271523
  0
LINE
  8
_0-1_
  6
CONTINUOUS
 62
    2
 10
151.76891
 20
15.271523
 11
153.06891
 21
15.271523
  0
LINE
  8
_0-1_
  6
CONTINUOUS
 62
    2
 10
153.21925
 20
15.271523
 11
154.51925
 21
15.271523
  0
LINE
  8
_0-1_
  6
CONTINUOUS
 62
    2
 10
155.51925
 20
15.271523
 11
160.77166
 21
15.271523
  0
LINE
  8
_0-1_
  6
CONTINUOUS
 62
    2
 10
162.07338
 20
15.271523
 11
163.37338
 21
15.271523
  0
LINE
  8
_0-1_
  6
CONTINUOUS
 62
    2
 10
165.37296
 20
15.271523
 11
166.67006
 21
15.271523
  0
LINE
  8
_0-1_
  6
CONTINUOUS
 62
    2
 10
166.95214
 20
15.271523
 11
168.05214
 21
15.271523
  0
LINE
  8
_0-1_
  6
CONTINUOUS
 62
    2
 10
137.80231
 20
15.471523
 11
142.72273
 21
15.471523
  0
LINE
  8
_0-1_
  6
CONTINUOUS
 62
    2
 10
144.21042
 20
15.471523
 11
145.51042
 21
15.471523
  0
LINE
  8
_0-1_
  6
CONTINUOUS
 62
    2
 10
148.35787
 20
15.471523
 11
149.67532
 21
15.471523
  0
LINE
  8
_0-1_
  6
CONTINUOUS
 62
    2
 10
151.67565
 20
15.471523
 11
152.97565
 21
15.471523
  0
LINE
  8
_0-1_
  6
CONTINUOUS
 62
    2
 10
153.31251
 20
15.471523
 11
154.61251
 21
15.471523
  0
LINE
  8
_0-1_
  6
CONTINUOUS
 62
    2
 10
155.61251
 20
15.471523
 11
160.6784
 21
15.471523
  0
LINE
  8
_0-1_
  6
CONTINUOUS
 62
    2
 10
162.07338
 20
15.471523
 11
163.37338
 21
15.471523
  0
LINE
  8
_0-1_
  6
CONTINUOUS
 62
    2
 10
165.24799
 20
15.471523
 11
166.54509
 21
15.471523
  0
LINE
  8
_0-1_
  6
CONTINUOUS
 62
    2
 10
166.95214
 20
15.471523
 11
168.05214
 21
15.471523
  0
LINE
  8
_0-1_
  6
CONTINUOUS
 62
    2
 10
137.89558
 20
15.671523
 11
142.62947
 21
15.671523
  0
LINE
  8
_0-1_
  6
CONTINUOUS
 62
    2
 10
144.21042
 20
15.671523
 11
145.51042
 21
15.671523
  0
LINE
  8
_0-1_
  6
CONTINUOUS
 62
    2
 10
148.4257
 20
15.671523
 11
149.71809
 21
15.671523
  0
LINE
  8
_0-1_
  6
CONTINUOUS
 62
    2
 10
151.58239
 20
15.671523
 11
152.88239
 21
15.671523
  0
LINE
  8
_0-1_
  6
CONTINUOUS
 62
    2
 10
153.40577
 20
15.671523
 11
154.70577
 21
15.671523
  0
LINE
  8
_0-1_
  6
CONTINUOUS
 62
    2
 10
155.70577
 20
15.671523
 11
160.58514
 21
15.671523
  0
LINE
  8
_0-1_
  6
CONTINUOUS
 62
    2
 10
162.07338
 20
15.671523
 11
163.37338
 21
15.671523
  0
LINE
  8
_0-1_
  6
CONTINUOUS
 62
    2
 10
165.12301
 20
15.671523
 11
166.42011
 21
15.671523
  0
LINE
  8
_0-1_
  6
CONTINUOUS
 62
    2
 10
166.95214
 20
15.671523
 11
168.05214
 21
15.671523
  0
LINE
  8
_0-1_
  6
CONTINUOUS
 62
    2
 10
137.98884
 20
15.871523
 11
142.53621
 21
15.871523
  0
LINE
  8
_0-1_
  6
CONTINUOUS
 62
    2
 10
144.21042
 20
15.871523
 11
145.51042
 21
15.871523
  0
LINE
  8
_0-1_
  6
CONTINUOUS
 62
    2
 10
148.46705
 20
15.871523
 11
149.75294
 21
15.871523
  0
LINE
  8
_0-1_
  6
CONTINUOUS
 62
    2
 10
151.48913
 20
15.871523
 11
152.78913
 21
15.871523
  0
LINE
  8
_0-1_
  6
CONTINUOUS
 62
    2
 10
153.49903
 20
15.871523
 11
154.79903
 21
15.871523
  0
LINE
  8
_0-1_
  6
CONTINUOUS
 62
    2
 10
155.79903
 20
15.871523
 11
160.49188
 21
15.871523
  0
LINE
  8
_0-1_
  6
CONTINUOUS
 62
    2
 10
162.07338
 20
15.871523
 11
163.37338
 21
15.871523
  0
LINE
  8
_0-1_
  6
CONTINUOUS
 62
    2
 10
164.99804
 20
15.871523
 11
166.29514
 21
15.871523
  0
LINE
  8
_0-1_
  6
CONTINUOUS
 62
    2
 10
166.95214
 20
15.871523
 11
168.05214
 21
15.871523
  0
LINE
  8
_0-1_
  6
CONTINUOUS
 62
    2
 10
138.0821
 20
16.071523
 11
139.3821
 21
16.071523
  0
LINE
  8
_0-1_
  6
CONTINUOUS
 62
    2
 10
141.14295
 20
16.071523
 11
142.44295
 21
16.071523
  0
LINE
  8
_0-1_
  6
CONTINUOUS
 62
    2
 10
144.21042
 20
16.071523
 11
145.51042
 21
16.071523
  0
LINE
  8
_0-1_
  6
CONTINUOUS
 62
    2
 10
148.49136
 20
16.071523
 11
149.77974
 21
16.071523
  0
LINE
  8
_0-1_
  6
CONTINUOUS
 62
    2
 10
151.39586
 20
16.071523
 11
152.69586
 21
16.071523
  0
LINE
  8
_0-1_
  6
CONTINUOUS
 62
    2
 10
153.59229
 20
16.071523
 11
154.89229
 21
16.071523
  0
LINE
  8
_0-1_
  6
CONTINUOUS
 62
    2
 10
155.89229
 20
16.071523
 11
157.19229
 21
16.071523
  0
LINE
  8
_0-1_
  6
CONTINUOUS
 62
    2
 10
159.09862
 20
16.071523
 11
160.39862
 21
16.071523
  0
LINE
  8
_0-1_
  6
CONTINUOUS
 62
    2
 10
162.07338
 20
16.071523
 11
163.37338
 21
16.071523
  0
LINE
  8
_0-1_
  6
CONTINUOUS
 62
    2
 10
164.87307
 20
16.071523
 11
166.17016
 21
16.071523
  0
LINE
  8
_0-1_
  6
CONTINUOUS
 62
    2
 10
166.95214
 20
16.071523
 11
168.05214
 21
16.071523
  0
LINE
  8
_0-1_
  6
CONTINUOUS
 62
    2
 10
138.17536
 20
16.271523
 11
139.47536
 21
16.271523
  0
LINE
  8
_0-1_
  6
CONTINUOUS
 62
    2
 10
141.04969
 20
16.271523
 11
142.34969
 21
16.271523
  0
LINE
  8
_0-1_
  6
CONTINUOUS
 62
    2
 10
144.21042
 20
16.271523
 11
145.51042
 21
16.271523
  0
LINE
  8
_0-1_
  6
CONTINUOUS
 62
    2
 10
148.50433
 20
16.271523
 11
149.79834
 21
16.271523
  0
LINE
  8
_0-1_
  6
CONTINUOUS
 62
    2
 10
151.3026
 20
16.271523
 11
152.6026
 21
16.271523
  0
LINE
  8
_0-1_
  6
CONTINUOUS
 62
    2
 10
153.68555
 20
16.271523
 11
154.98555
 21
16.271523
  0
LINE
  8
_0-1_
  6
CONTINUOUS
 62
    2
 10
155.98555
 20
16.271523
 11
157.28555
 21
16.271523
  0
LINE
  8
_0-1_
  6
CONTINUOUS
 62
    2
 10
159.00536
 20
16.271523
 11
160.30536
 21
16.271523
  0
LINE
  8
_0-1_
  6
CONTINUOUS
 62
    2
 10
162.07338
 20
16.271523
 11
163.37338
 21
16.271523
  0
LINE
  8
_0-1_
  6
CONTINUOUS
 62
    2
 10
164.74809
 20
16.271523
 11
166.04519
 21
16.271523
  0
LINE
  8
_0-1_
  6
CONTINUOUS
 62
    2
 10
166.95214
 20
16.271523
 11
168.05214
 21
16.271523
  0
LINE
  8
_0-1_
  6
CONTINUOUS
 62
    2
 10
138.26862
 20
16.471523
 11
139.56862
 21
16.471523
  0
LINE
  8
_0-1_
  6
CONTINUOUS
 62
    2
 10
140.95643
 20
16.471523
 11
142.25643
 21
16.471523
  0
LINE
  8
_0-1_
  6
CONTINUOUS
 62
    2
 10
144.21042
 20
16.471523
 11
145.51042
 21
16.471523
  0
LINE
  8
_0-1_
  6
CONTINUOUS
 62
    2
 10
148.50977
 20
16.471523
 11
149.80865
 21
16.471523
  0
LINE
  8
_0-1_
  6
CONTINUOUS
 62
    2
 10
151.20934
 20
16.471523
 11
152.50934
 21
16.471523
  0
LINE
  8
_0-1_
  6
CONTINUOUS
 62
    2
 10
153.77882
 20
16.471523
 11
155.07882
 21
16.471523
  0
LINE
  8
_0-1_
  6
CONTINUOUS
 62
    2
 10
156.07882
 20
16.471523
 11
157.37882
 21
16.471523
  0
LINE
  8
_0-1_
  6
CONTINUOUS
 62
    2
 10
158.91209
 20
16.471523
 11
160.21209
 21
16.471523
  0
LINE
  8
_0-1_
  6
CONTINUOUS
 62
    2
 10
162.07338
 20
16.471523
 11
163.37338
 21
16.471523
  0
LINE
  8
_0-1_
  6
CONTINUOUS
 62
    2
 10
164.62312
 20
16.471523
 11
165.92022
 21
16.471523
  0
LINE
  8
_0-1_
  6
CONTINUOUS
 62
    2
 10
166.95214
 20
16.471523
 11
168.05214
 21
16.471523
  0
LINE
  8
_0-1_
  6
CONTINUOUS
 62
    2
 10
138.36188
 20
16.671523
 11
139.66188
 21
16.671523
  0
LINE
  8
_0-1_
  6
CONTINUOUS
 62
    2
 10
140.86317
 20
16.671523
 11
142.16317
 21
16.671523
  0
LINE
  8
_0-1_
  6
CONTINUOUS
 62
    2
 10
144.21042
 20
16.671523
 11
145.51042
 21
16.671523
  0
LINE
  8
_0-1_
  6
CONTINUOUS
 62
    2
 10
148.51
 20
16.671523
 11
149.8093
 21
16.671523
  0
LINE
  8
_0-1_
  6
CONTINUOUS
 62
    2
 10
151.11608
 20
16.671523
 11
152.41608
 21
16.671523
  0
LINE
  8
_0-1_
  6
CONTINUOUS
 62
    2
 10
153.87208
 20
16.671523
 11
155.17208
 21
16.671523
  0
LINE
  8
_0-1_
  6
CONTINUOUS
 62
    2
 10
156.17208
 20
16.671523
 11
157.47208
 21
16.671523
  0
LINE
  8
_0-1_
  6
CONTINUOUS
 62
    2
 10
158.81883
 20
16.671523
 11
160.11883
 21
16.671523
  0
LINE
  8
_0-1_
  6
CONTINUOUS
 62
    2
 10
162.07338
 20
16.671523
 11
163.37338
 21
16.671523
  0
LINE
  8
_0-1_
  6
CONTINUOUS
 62
    2
 10
164.49815
 20
16.671523
 11
165.79524
 21
16.671523
  0
LINE
  8
_0-1_
  6
CONTINUOUS
 62
    2
 10
166.95214
 20
16.671523
 11
168.05214
 21
16.671523
  0
LINE
  8
_0-1_
  6
CONTINUOUS
 62
    2
 10
138.45514
 20
16.871523
 11
139.75514
 21
16.871523
  0
LINE
  8
_0-1_
  6
CONTINUOUS
 62
    2
 10
140.7699
 20
16.871523
 11
142.0699
 21
16.871523
  0
LINE
  8
_0-1_
  6
CONTINUOUS
 62
    2
 10
144.21042
 20
16.871523
 11
145.51042
 21
16.871523
  0
LINE
  8
_0-1_
  6
CONTINUOUS
 62
    2
 10
148.50568
 20
16.871523
 11
149.80072
 21
16.871523
  0
LINE
  8
_0-1_
  6
CONTINUOUS
 62
    2
 10
151.02282
 20
16.871523
 11
152.32282
 21
16.871523
  0
LINE
  8
_0-1_
  6
CONTINUOUS
 62
    2
 10
153.96534
 20
16.871523
 11
155.26534
 21
16.871523
  0
LINE
  8
_0-1_
  6
CONTINUOUS
 62
    2
 10
156.26534
 20
16.871523
 11
157.56534
 21
16.871523
  0
LINE
  8
_0-1_
  6
CONTINUOUS
 62
    2
 10
158.72557
 20
16.871523
 11
160.02557
 21
16.871523
  0
LINE
  8
_0-1_
  6
CONTINUOUS
 62
    2
 10
162.07338
 20
16.871523
 11
163.37338
 21
16.871523
  0
LINE
  8
_0-1_
  6
CONTINUOUS
 62
    2
 10
164.37317
 20
16.871523
 11
165.67027
 21
16.871523
  0
LINE
  8
_0-1_
  6
CONTINUOUS
 62
    2
 10
166.95214
 20
16.871523
 11
168.05214
 21
16.871523
  0
LINE
  8
_0-1_
  6
CONTINUOUS
 62
    2
 10
138.54841
 20
17.071523
 11
139.84841
 21
17.071523
  0
LINE
  8
_0-1_
  6
CONTINUOUS
 62
    2
 10
140.67664
 20
17.071523
 11
141.97664
 21
17.071523
  0
LINE
  8
_0-1_
  6
CONTINUOUS
 62
    2
 10
144.21042
 20
17.071523
 11
145.51042
 21
17.071523
  0
LINE
  8
_0-1_
  6
CONTINUOUS
 62
    2
 10
148.49516
 20
17.071523
 11
149.78426
 21
17.071523
  0
LINE
  8
_0-1_
  6
CONTINUOUS
 62
    2
 10
150.92956
 20
17.071523
 11
152.22956
 21
17.071523
  0
LINE
  8
_0-1_
  6
CONTINUOUS
 62
    2
 10
154.0586
 20
17.071523
 11
155.3586
 21
17.071523
  0
LINE
  8
_0-1_
  6
CONTINUOUS
 62
    2
 10
156.3586
 20
17.071523
 11
157.6586
 21
17.071523
  0
LINE
  8
_0-1_
  6
CONTINUOUS
 62
    2
 10
158.63231
 20
17.071523
 11
159.93231
 21
17.071523
  0
LINE
  8
_0-1_
  6
CONTINUOUS
 62
    2
 10
162.07338
 20
17.071523
 11
163.37338
 21
17.071523
  0
LINE
  8
_0-1_
  6
CONTINUOUS
 62
    2
 10
164.2482
 20
17.071523
 11
165.54529
 21
17.071523
  0
LINE
  8
_0-1_
  6
CONTINUOUS
 62
    2
 10
166.95214
 20
17.071523
 11
168.05214
 21
17.071523
  0
LINE
  8
_0-1_
  6
CONTINUOUS
 62
    2
 10
138.64167
 20
17.271523
 11
139.94167
 21
17.271523
  0
LINE
  8
_0-1_
  6
CONTINUOUS
 62
    2
 10
140.58338
 20
17.271523
 11
141.88338
 21
17.271523
  0
LINE
  8
_0-1_
  6
CONTINUOUS
 62
    2
 10
144.21042
 20
17.271523
 11
145.51042
 21
17.271523
  0
LINE
  8
_0-1_
  6
CONTINUOUS
 62
    2
 10
148.47472
 20
17.271523
 11
149.75955
 21
17.271523
  0
LINE
  8
_0-1_
  6
CONTINUOUS
 62
    2
 10
150.83629
 20
17.271523
 11
152.13629
 21
17.271523
  0
LINE
  8
_0-1_
  6
CONTINUOUS
 62
    2
 10
154.15186
 20
17.271523
 11
155.45186
 21
17.271523
  0
LINE
  8
_0-1_
  6
CONTINUOUS
 62
    2
 10
156.45186
 20
17.271523
 11
157.75186
 21
17.271523
  0
LINE
  8
_0-1_
  6
CONTINUOUS
 62
    2
 10
158.53905
 20
17.271523
 11
159.83905
 21
17.271523
  0
LINE
  8
_0-1_
  6
CONTINUOUS
 62
    2
 10
162.07338
 20
17.271523
 11
163.37338
 21
17.271523
  0
LINE
  8
_0-1_
  6
CONTINUOUS
 62
    2
 10
164.12322
 20
17.271523
 11
165.42032
 21
17.271523
  0
LINE
  8
_0-1_
  6
CONTINUOUS
 62
    2
 10
166.95214
 20
17.271523
 11
168.05214
 21
17.271523
  0
LINE
  8
_0-1_
  6
CONTINUOUS
 62
    2
 10
138.73493
 20
17.471523
 11
140.03493
 21
17.471523
  0
LINE
  8
_0-1_
  6
CONTINUOUS
 62
    2
 10
140.49012
 20
17.471523
 11
141.79012
 21
17.471523
  0
LINE
  8
_0-1_
  6
CONTINUOUS
 62
    2
 10
144.21042
 20
17.471523
 11
145.51042
 21
17.471523
  0
LINE
  8
_0-1_
  6
CONTINUOUS
 62
    2
 10
148.43918
 20
17.471523
 11
149.72674
 21
17.471523
  0
LINE
  8
_0-1_
  6
CONTINUOUS
 62
    2
 10
150.74303
 20
17.471523
 11
152.04303
 21
17.471523
  0
LINE
  8
_0-1_
  6
CONTINUOUS
 62
    2
 10
154.24512
 20
17.471523
 11
155.54512
 21
17.471523
  0
LINE
  8
_0-1_
  6
CONTINUOUS
 62
    2
 10
156.54512
 20
17.471523
 11
157.84512
 21
17.471523
  0
LINE
  8
_0-1_
  6
CONTINUOUS
 62
    2
 10
158.44579
 20
17.471523
 11
159.74579
 21
17.471523
  0
LINE
  8
_0-1_
  6
CONTINUOUS
 62
    2
 10
162.07338
 20
17.471523
 11
163.37338
 21
17.471523
  0
LINE
  8
_0-1_
  6
CONTINUOUS
 62
    2
 10
163.99825
 20
17.471523
 11
165.29535
 21
17.471523
  0
LINE
  8
_0-1_
  6
CONTINUOUS
 62
    2
 10
166.95214
 20
17.471523
 11
168.05214
 21
17.471523
  0
LINE
  8
_0-1_
  6
CONTINUOUS
 62
    2
 10
138.82819
 20
17.671523
 11
140.12819
 21
17.671523
  0
LINE
  8
_0-1_
  6
CONTINUOUS
 62
    2
 10
140.39686
 20
17.671523
 11
141.69686
 21
17.671523
  0
LINE
  8
_0-1_
  6
CONTINUOUS
 62
    2
 10
144.21042
 20
17.671523
 11
145.51042
 21
17.671523
  0
LINE
  8
_0-1_
  6
CONTINUOUS
 62
    2
 10
148.37911
 20
17.671523
 11
149.68596
 21
17.671523
  0
LINE
  8
_0-1_
  6
CONTINUOUS
 62
    2
 10
150.64977
 20
17.671523
 11
151.94977
 21
17.671523
  0
LINE
  8
_0-1_
  6
CONTINUOUS
 62
    2
 10
154.33838
 20
17.671523
 11
155.63838
 21
17.671523
  0
LINE
  8
_0-1_
  6
CONTINUOUS
 62
    2
 10
156.63838
 20
17.671523
 11
157.93838
 21
17.671523
  0
LINE
  8
_0-1_
  6
CONTINUOUS
 62
    2
 10
158.35253
 20
17.671523
 11
159.65253
 21
17.671523
  0
LINE
  8
_0-1_
  6
CONTINUOUS
 62
    2
 10
162.07338
 20
17.671523
 11
163.37338
 21
17.671523
  0
LINE
  8
_0-1_
  6
CONTINUOUS
 62
    2
 10
163.87328
 20
17.671523
 11
165.17037
 21
17.671523
  0
LINE
  8
_0-1_
  6
CONTINUOUS
 62
    2
 10
166.95214
 20
17.671523
 11
168.05214
 21
17.671523
  0
LINE
  8
_0-1_
  6
CONTINUOUS
 62
    2
 10
138.92145
 20
17.871523
 11
140.22145
 21
17.871523
  0
LINE
  8
_0-1_
  6
CONTINUOUS
 62
    2
 10
140.3036
 20
17.871523
 11
141.6036
 21
17.871523
  0
LINE
  8
_0-1_
  6
CONTINUOUS
 62
    2
 10
144.21042
 20
17.871523
 11
145.51042
 21
17.871523
  0
LINE
  8
_0-1_
  6
CONTINUOUS
 62
    2
 10
148.28128
 20
17.871523
 11
149.63757
 21
17.871523
  0
LINE
  8
_0-1_
  6
CONTINUOUS
 62
    2
 10
150.55651
 20
17.871523
 11
151.85651
 21
17.871523
  0
LINE
  8
_0-1_
  6
CONTINUOUS
 62
    2
 10
154.43165
 20
17.871523
 11
155.73165
 21
17.871523
  0
LINE
  8
_0-1_
  6
CONTINUOUS
 62
    2
 10
156.73165
 20
17.871523
 11
158.03165
 21
17.871523
  0
LINE
  8
_0-1_
  6
CONTINUOUS
 62
    2
 10
158.25926
 20
17.871523
 11
159.55926
 21
17.871523
  0
LINE
  8
_0-1_
  6
CONTINUOUS
 62
    2
 10
162.07338
 20
17.871523
 11
163.37338
 21
17.871523
  0
LINE
  8
_0-1_
  6
CONTINUOUS
 62
    2
 10
163.7483
 20
17.871523
 11
165.0454
 21
17.871523
  0
LINE
  8
_0-1_
  6
CONTINUOUS
 62
    2
 10
166.95214
 20
17.871523
 11
168.05214
 21
17.871523
  0
LINE
  8
_0-1_
  6
CONTINUOUS
 62
    2
 10
139.01471
 20
18.071523
 11
141.51034
 21
18.071523
  0
LINE
  8
_0-1_
  6
CONTINUOUS
 62
    2
 10
144.21042
 20
18.071523
 11
145.51042
 21
18.071523
  0
LINE
  8
_0-1_
  6
CONTINUOUS
 62
    2
 10
148.11515
 20
18.071523
 11
149.58054
 21
18.071523
  0
LINE
  8
_0-1_
  6
CONTINUOUS
 62
    2
 10
150.46325
 20
18.071523
 11
151.76325
 21
18.071523
  0
LINE
  8
_0-1_
  6
CONTINUOUS
 62
    2
 10
154.52491
 20
18.071523
 11
155.82491
 21
18.071523
  0
LINE
  8
_0-1_
  6
CONTINUOUS
 62
    2
 10
156.82491
 20
18.071523
 11
158.12491
 21
18.071523
  0
LINE
  8
_0-1_
  6
CONTINUOUS
 62
    2
 10
158.166
 20
18.071523
 11
159.466
 21
18.071523
  0
LINE
  8
_0-1_
  6
CONTINUOUS
 62
    2
 10
162.07338
 20
18.071523
 11
163.37338
 21
18.071523
  0
LINE
  8
_0-1_
  6
CONTINUOUS
 62
    2
 10
163.62333
 20
18.071523
 11
164.92042
 21
18.071523
  0
LINE
  8
_0-1_
  6
CONTINUOUS
 62
    2
 10
166.95214
 20
18.071523
 11
168.05214
 21
18.071523
  0
LINE
  8
_0-1_
  6
CONTINUOUS
 62
    2
 10
139.10798
 20
18.271523
 11
141.41707
 21
18.271523
  0
LINE
  8
_0-1_
  6
CONTINUOUS
 62
    2
 10
144.21042
 20
18.271523
 11
145.51042
 21
18.271523
  0
LINE
  8
_0-1_
  6
CONTINUOUS
 62
    2
 10
147.85577
 20
18.271523
 11
149.51001
 21
18.271523
  0
LINE
  8
_0-1_
  6
CONTINUOUS
 62
    2
 10
150.36999
 20
18.271523
 11
151.66999
 21
18.271523
  0
LINE
  8
_0-1_
  6
CONTINUOUS
 62
    2
 10
154.61817
 20
18.271523
 11
155.91817
 21
18.271523
  0
LINE
  8
_0-1_
  6
CONTINUOUS
 62
    2
 10
156.91817
 20
18.271523
 11
159.37274
 21
18.271523
  0
LINE
  8
_0-1_
  6
CONTINUOUS
 62
    2
 10
162.07338
 20
18.271523
 11
163.37338
 21
18.271523
  0
LINE
  8
_0-1_
  6
CONTINUOUS
 62
    2
 10
163.49835
 20
18.271523
 11
164.79545
 21
18.271523
  0
LINE
  8
_0-1_
  6
CONTINUOUS
 62
    2
 10
166.95214
 20
18.271523
 11
168.05214
 21
18.271523
  0
LINE
  8
_0-1_
  6
CONTINUOUS
 62
    2
 10
139.20124
 20
18.471523
 11
141.32381
 21
18.471523
  0
LINE
  8
_0-1_
  6
CONTINUOUS
 62
    2
 10
144.21042
 20
18.471523
 11
145.51042
 21
18.471523
  0
LINE
  8
_0-1_
  6
CONTINUOUS
 62
    2
 10
147.51042
 20
18.471523
 11
149.41042
 21
18.471523
  0
LINE
  8
_0-1_
  6
CONTINUOUS
 62
    2
 10
150.27673
 20
18.471523
 11
151.57673
 21
18.471523
  0
LINE
  8
_0-1_
  6
CONTINUOUS
 62
    2
 10
154.71143
 20
18.471523
 11
156.01143
 21
18.471523
  0
LINE
  8
_0-1_
  6
CONTINUOUS
 62
    2
 10
157.01143
 20
18.471523
 11
159.27948
 21
18.471523
  0
LINE
  8
_0-1_
  6
CONTINUOUS
 62
    2
 10
162.07338
 20
18.471523
 11
163.37338
 21
18.471523
  0
LINE
  8
_0-1_
  6
CONTINUOUS
 62
    2
 10
163.37338
 20
18.471523
 11
164.67048
 21
18.471523
  0
LINE
  8
_0-1_
  6
CONTINUOUS
 62
    2
 10
166.95214
 20
18.471523
 11
168.05214
 21
18.471523
  0
LINE
  8
_0-1_
  6
CONTINUOUS
 62
    2
 10
139.2945
 20
18.671523
 11
141.23055
 21
18.671523
  0
LINE
  8
_0-1_
  6
CONTINUOUS
 62
    2
 10
144.21042
 20
18.671523
 11
149.25143
 21
18.671523
  0
LINE
  8
_0-1_
  6
CONTINUOUS
 62
    2
 10
150.18346
 20
18.671523
 11
151.48346
 21
18.671523
  0
LINE
  8
_0-1_
  6
CONTINUOUS
 62
    2
 10
154.80469
 20
18.671523
 11
156.10469
 21
18.671523
  0
LINE
  8
_0-1_
  6
CONTINUOUS
 62
    2
 10
157.10469
 20
18.671523
 11
159.18622
 21
18.671523
  0
LINE
  8
_0-1_
  6
CONTINUOUS
 62
    2
 10
162.07338
 20
18.671523
 11
164.5455
 21
18.671523
  0
LINE
  8
_0-1_
  6
CONTINUOUS
 62
    2
 10
166.95214
 20
18.671523
 11
168.05214
 21
18.671523
  0
LINE
  8
_0-1_
  6
CONTINUOUS
 62
    2
 10
139.38776
 20
18.871523
 11
141.13729
 21
18.871523
  0
LINE
  8
_0-1_
  6
CONTINUOUS
 62
    2
 10
144.21042
 20
18.871523
 11
149.027
 21
18.871523
  0
LINE
  8
_0-1_
  6
CONTINUOUS
 62
    2
 10
150.0902
 20
18.871523
 11
151.3902
 21
18.871523
  0
LINE
  8
_0-1_
  6
CONTINUOUS
 62
    2
 10
154.89795
 20
18.871523
 11
156.19795
 21
18.871523
  0
LINE
  8
_0-1_
  6
CONTINUOUS
 62
    2
 10
157.19795
 20
18.871523
 11
159.09296
 21
18.871523
  0
LINE
  8
_0-1_
  6
CONTINUOUS
 62
    2
 10
162.07338
 20
18.871523
 11
164.42053
 21
18.871523
  0
LINE
  8
_0-1_
  6
CONTINUOUS
 62
    2
 10
166.95214
 20
18.871523
 11
168.05214
 21
18.871523
  0
LINE
  8
_0-1_
  6
CONTINUOUS
 62
    2
 10
139.48102
 20
19.071523
 11
141.04403
 21
19.071523
  0
LINE
  8
_0-1_
  6
CONTINUOUS
 62
    2
 10
144.21042
 20
19.071523
 11
148.69322
 21
19.071523
  0
LINE
  8
_0-1_
  6
CONTINUOUS
 62
    2
 10
149.99694
 20
19.071523
 11
151.29694
 21
19.071523
  0
LINE
  8
_0-1_
  6
CONTINUOUS
 62
    2
 10
154.99121
 20
19.071523
 11
156.29121
 21
19.071523
  0
LINE
  8
_0-1_
  6
CONTINUOUS
 62
    2
 10
157.29121
 20
19.071523
 11
158.9997
 21
19.071523
  0
LINE
  8
_0-1_
  6
CONTINUOUS
 62
    2
 10
162.07338
 20
19.071523
 11
164.29556
 21
19.071523
  0
LINE
  8
_0-1_
  6
CONTINUOUS
 62
    2
 10
166.95214
 20
19.071523
 11
168.05214
 21
19.071523
  0
LINE
  8
_0-1_
  6
CONTINUOUS
 62
    2
 10
139.57428
 20
19.271523
 11
140.95077
 21
19.271523
  0
LINE
  8
_0-1_
  6
CONTINUOUS
 62
    2
 10
144.21042
 20
19.271523
 11
148.21042
 21
19.271523
  0
LINE
  8
_0-1_
  6
CONTINUOUS
 62
    2
 10
149.90368
 20
19.271523
 11
151.20368
 21
19.271523
  0
LINE
  8
_0-1_
  6
CONTINUOUS
 62
    2
 10
155.08448
 20
19.271523
 11
156.38448
 21
19.271523
  0
LINE
  8
_0-1_
  6
CONTINUOUS
 62
    2
 10
157.38448
 20
19.271523
 11
158.90643
 21
19.271523
  0
LINE
  8
_0-1_
  6
CONTINUOUS
 62
    2
 10
162.07338
 20
19.271523
 11
164.17058
 21
19.271523
  0
LINE
  8
_0-1_
  6
CONTINUOUS
 62
    2
 10
166.95214
 20
19.271523
 11
168.05214
 21
19.271523
  0
LINE
  8
_0-1_
  6
CONTINUOUS
 62
    2
 10
139.66754
 20
19.471523
 11
140.8575
 21
19.471523
  0
LINE
  8
_0-1_
  6
CONTINUOUS
 62
    2
 10
144.21042
 20
19.471523
 11
147.51042
 21
19.471523
  0
LINE
  8
_0-1_
  6
CONTINUOUS
 62
    2
 10
149.81042
 20
19.471523
 11
151.11042
 21
19.471523
  0
LINE
  8
_0-1_
  6
CONTINUOUS
 62
    2
 10
155.17774
 20
19.471523
 11
156.47774
 21
19.471523
  0
LINE
  8
_0-1_
  6
CONTINUOUS
 62
    2
 10
157.47774
 20
19.471523
 11
158.81317
 21
19.471523
  0
LINE
  8
_0-1_
  6
CONTINUOUS
 62
    2
 10
162.07338
 20
19.471523
 11
164.04561
 21
19.471523
  0
LINE
  8
_0-1_
  6
CONTINUOUS
 62
    2
 10
166.95214
 20
19.471523
 11
168.05214
 21
19.471523
  0
LINE
  8
_0-1_
  6
CONTINUOUS
 62
    2
 10
137.00959
 20
13.771523
 11
138.30959
 21
13.771523
  0
LINE
  8
_0-1_
  6
CONTINUOUS
 62
    2
 10
142.21546
 20
13.771523
 11
143.51546
 21
13.771523
  0
LINE
  8
_0-1_
  6
CONTINUOUS
 62
    2
 10
144.21042
 20
13.771523
 11
147.72114
 21
13.771523
  0
LINE
  8
_0-1_
  6
CONTINUOUS
 62
    2
 10
152.46837
 20
13.771523
 11
153.81978
 21
13.771523
  0
LINE
  8
_0-1_
  6
CONTINUOUS
 62
    2
 10
154.81978
 20
13.771523
 11
156.11978
 21
13.771523
  0
LINE
  8
_0-1_
  6
CONTINUOUS
 62
    2
 10
160.17113
 20
13.771523
 11
161.47113
 21
13.771523
  0
LINE
  8
_0-1_
  6
CONTINUOUS
 62
    2
 10
162.07338
 20
13.771523
 11
163.37338
 21
13.771523
  0
LINE
  8
_0-1_
  6
CONTINUOUS
 62
    2
 10
166.31027
 20
13.771523
 11
168.05214
 21
13.771523
  0
LINE
  8
_0-1_
  6
CONTINUOUS
 62
    2
 10
137.10285
 20
13.971523
 11
138.40285
 21
13.971523
  0
LINE
  8
_0-1_
  6
CONTINUOUS
 62
    2
 10
142.1222
 20
13.971523
 11
143.4222
 21
13.971523
  0
LINE
  8
_0-1_
  6
CONTINUOUS
 62
    2
 10
144.21042
 20
13.971523
 11
148.36298
 21
13.971523
  0
LINE
  8
_0-1_
  6
CONTINUOUS
 62
    2
 10
152.37511
 20
13.971523
 11
153.91305
 21
13.971523
  0
LINE
  8
_0-1_
  6
CONTINUOUS
 62
    2
 10
154.91305
 20
13.971523
 11
156.21305
 21
13.971523
  0
LINE
  8
_0-1_
  6
CONTINUOUS
 62
    2
 10
160.07786
 20
13.971523
 11
161.37786
 21
13.971523
  0
LINE
  8
_0-1_
  6
CONTINUOUS
 62
    2
 10
162.07338
 20
13.971523
 11
163.37338
 21
13.971523
  0
LINE
  8
_0-1_
  6
CONTINUOUS
 62
    2
 10
166.18529
 20
13.971523
 11
168.05214
 21
13.971523
  0
LINE
  8
_0-1_
  6
CONTINUOUS
 62
    2
 10
137.19611
 20
14.171523
 11
138.49611
 21
14.171523
  0
LINE
  8
_0-1_
  6
CONTINUOUS
 62
    2
 10
142.02893
 20
14.171523
 11
143.32893
 21
14.171523
  0
LINE
  8
_0-1_
  6
CONTINUOUS
 62
    2
 10
144.21042
 20
14.171523
 11
148.80179
 21
14.171523
  0
LINE
  8
_0-1_
  6
CONTINUOUS
 62
    2
 10
152.28185
 20
14.171523
 11
154.00631
 21
14.171523
  0
LINE
  8
_0-1_
  6
CONTINUOUS
 62
    2
 10
155.00631
 20
14.171523
 11
156.30631
 21
14.171523
  0
LINE
  8
_0-1_
  6
CONTINUOUS
 62
    2
 10
159.9846
 20
14.171523
 11
161.2846
 21
14.171523
  0
LINE
  8
_0-1_
  6
CONTINUOUS
 62
    2
 10
162.07338
 20
14.171523
 11
163.37338
 21
14.171523
  0
LINE
  8
_0-1_
  6
CONTINUOUS
 62
    2
 10
166.06032
 20
14.171523
 11
168.05214
 21
14.171523
  0
LINE
  8
_0-1_
  6
CONTINUOUS
 62
    2
 10
137.28938
 20
14.371523
 11
138.58938
 21
14.371523
  0
LINE
  8
_0-1_
  6
CONTINUOUS
 62
    2
 10
141.93567
 20
14.371523
 11
143.23567
 21
14.371523
  0
LINE
  8
_0-1_
  6
CONTINUOUS
 62
    2
 10
144.21042
 20
14.371523
 11
149.09608
 21
14.371523
  0
LINE
  8
_0-1_
  6
CONTINUOUS
 62
    2
 10
152.18859
 20
14.371523
 11
154.09957
 21
14.371523
  0
LINE
  8
_0-1_
  6
CONTINUOUS
 62
    2
 10
155.09957
 20
14.371523
 11
156.39957
 21
14.371523
  0
LINE
  8
_0-1_
  6
CONTINUOUS
 62
    2
 10
159.89134
 20
14.371523
 11
161.19134
 21
14.371523
  0
LINE
  8
_0-1_
  6
CONTINUOUS
 62
    2
 10
162.07338
 20
14.371523
 11
163.37338
 21
14.371523
  0
LINE
  8
_0-1_
  6
CONTINUOUS
 62
    2
 10
165.93535
 20
14.371523
 11
168.05214
 21
14.371523
  0
LINE
  8
_0-1_
  6
CONTINUOUS
 62
    2
 10
137.38264
 20
14.571523
 11
138.68264
 21
14.571523
  0
LINE
  8
_0-1_
  6
CONTINUOUS
 62
    2
 10
141.84241
 20
14.571523
 11
143.14241
 21
14.571523
  0
LINE
  8
_0-1_
  6
CONTINUOUS
 62
    2
 10
144.21042
 20
14.571523
 11
149.30232
 21
14.571523
  0
LINE
  8
_0-1_
  6
CONTINUOUS
 62
    2
 10
152.09533
 20
14.571523
 11
154.19283
 21
14.571523
  0
LINE
  8
_0-1_
  6
CONTINUOUS
 62
    2
 10
155.19283
 20
14.571523
 11
156.49283
 21
14.571523
  0
LINE
  8
_0-1_
  6
CONTINUOUS
 62
    2
 10
159.79808
 20
14.571523
 11
161.09808
 21
14.571523
  0
LINE
  8
_0-1_
  6
CONTINUOUS
 62
    2
 10
162.07338
 20
14.571523
 11
163.37338
 21
14.571523
  0
LINE
  8
_0-1_
  6
CONTINUOUS
 62
    2
 10
165.81037
 20
14.571523
 11
168.05214
 21
14.571523
  0
LINE
  8
_0-1_
  6
CONTINUOUS
 62
    2
 10
137.4759
 20
14.771523
 11
138.7759
 21
14.771523
  0
LINE
  8
_0-1_
  6
CONTINUOUS
 62
    2
 10
141.74915
 20
14.771523
 11
143.04915
 21
14.771523
  0
LINE
  8
_0-1_
  6
CONTINUOUS
 62
    2
 10
144.21042
 20
14.771523
 11
145.51042
 21
14.771523
  0
LINE
  8
_0-1_
  6
CONTINUOUS
 62
    2
 10
147.61026
 20
14.771523
 11
149.4416
 21
14.771523
  0
LINE
  8
_0-1_
  6
CONTINUOUS
 62
    2
 10
152.00206
 20
14.771523
 11
154.28609
 21
14.771523
  0
LINE
  8
_0-1_
  6
CONTINUOUS
 62
    2
 10
155.28609
 20
14.771523
 11
156.58609
 21
14.771523
  0
LINE
  8
_0-1_
  6
CONTINUOUS
 62
    2
 10
159.70482
 20
14.771523
 11
161.00482
 21
14.771523
  0
LINE
  8
_0-1_
  6
CONTINUOUS
 62
    2
 10
162.07338
 20
14.771523
 11
163.37338
 21
14.771523
  0
LINE
  8
_0-1_
  6
CONTINUOUS
 62
    2
 10
165.6854
 20
14.771523
 11
168.05214
 21
14.771523
  0
LINE
  8
_0-1_
  6
CONTINUOUS
 62
    2
 10
137.56916
 20
14.971523
 11
138.86916
 21
14.971523
  0
LINE
  8
_0-1_
  6
CONTINUOUS
 62
    2
 10
141.65589
 20
14.971523
 11
142.95589
 21
14.971523
  0
LINE
  8
_0-1_
  6
CONTINUOUS
 62
    2
 10
144.21042
 20
14.971523
 11
145.51042
 21
14.971523
  0
LINE
  8
_0-1_
  6
CONTINUOUS
 62
    2
 10
147.9381
 20
14.971523
 11
149.53117
 21
14.971523
  0
LINE
  8
_0-1_
  6
CONTINUOUS
 62
    2
 10
151.9088
 20
14.971523
 11
154.37935
 21
14.971523
  0
LINE
  8
_0-1_
  6
CONTINUOUS
 62
    2
 10
155.37935
 20
14.971523
 11
156.67935
 21
14.971523
  0
LINE
  8
_0-1_
  6
CONTINUOUS
 62
    2
 10
159.61156
 20
14.971523
 11
160.91156
 21
14.971523
  0
LINE
  8
_0-1_
  6
CONTINUOUS
 62
    2
 10
162.07338
 20
14.971523
 11
163.37338
 21
14.971523
  0
LINE
  8
_0-1_
  6
CONTINUOUS
 62
    2
 10
165.56042
 20
14.971523
 11
166.85752
 21
14.971523
  0
LINE
  8
_0-1_
  6
CONTINUOUS
 62
    2
 10
166.95214
 20
14.971523
 11
168.05214
 21
14.971523
  0
LINE
  8
_0-1_
  6
CONTINUOUS
 62
    2
 10
137.66242
 20
15.171523
 11
142.86263
 21
15.171523
  0
LINE
  8
_0-1_
  6
CONTINUOUS
 62
    2
 10
144.21042
 20
15.171523
 11
145.51042
 21
15.171523
  0
LINE
  8
_0-1_
  6
CONTINUOUS
 62
    2
 10
148.17113
 20
15.171523
 11
149.59743
 21
15.171523
  0
LINE
  8
_0-1_
  6
CONTINUOUS
 62
    2
 10
151.81554
 20
15.171523
 11
153.11554
 21
15.171523
  0
LINE
  8
_0-1_
  6
CONTINUOUS
 62
    2
 10
153.17262
 20
15.171523
 11
154.47262
 21
15.171523
  0
LINE
  8
_0-1_
  6
CONTINUOUS
 62
    2
 10
155.47262
 20
15.171523
 11
160.81829
 21
15.171523
  0
LINE
  8
_0-1_
  6
CONTINUOUS
 62
    2
 10
162.07338
 20
15.171523
 11
163.37338
 21
15.171523
  0
LINE
  8
_0-1_
  6
CONTINUOUS
 62
    2
 10
165.43545
 20
15.171523
 11
166.73255
 21
15.171523
  0
LINE
  8
_0-1_
  6
CONTINUOUS
 62
    2
 10
166.95214
 20
15.171523
 11
168.05214
 21
15.171523
  0
LINE
  8
_0-1_
  6
CONTINUOUS
 62
    2
 10
137.75568
 20
15.371523
 11
142.76937
 21
15.371523
  0
LINE
  8
_0-1_
  6
CONTINUOUS
 62
    2
 10
144.21042
 20
15.371523
 11
145.51042
 21
15.371523
  0
LINE
  8
_0-1_
  6
CONTINUOUS
 62
    2
 10
148.30871
 20
15.371523
 11
149.65161
 21
15.371523
  0
LINE
  8
_0-1_
  6
CONTINUOUS
 62
    2
 10
151.72228
 20
15.371523
 11
153.02228
 21
15.371523
  0
LINE
  8
_0-1_
  6
CONTINUOUS
 62
    2
 10
153.26588
 20
15.371523
 11
154.56588
 21
15.371523
  0
LINE
  8
_0-1_
  6
CONTINUOUS
 62
    2
 10
155.56588
 20
15.371523
 11
160.72503
 21
15.371523
  0
LINE
  8
_0-1_
  6
CONTINUOUS
 62
    2
 10
162.07338
 20
15.371523
 11
163.37338
 21
15.371523
  0
LINE
  8
_0-1_
  6
CONTINUOUS
 62
    2
 10
165.31048
 20
15.371523
 11
166.60757
 21
15.371523
  0
LINE
  8
_0-1_
  6
CONTINUOUS
 62
    2
 10
166.95214
 20
15.371523
 11
168.05214
 21
15.371523
  0
LINE
  8
_0-1_
  6
CONTINUOUS
 62
    2
 10
137.84894
 20
15.571523
 11
142.6761
 21
15.571523
  0
LINE
  8
_0-1_
  6
CONTINUOUS
 62
    2
 10
144.21042
 20
15.571523
 11
145.51042
 21
15.571523
  0
LINE
  8
_0-1_
  6
CONTINUOUS
 62
    2
 10
148.39567
 20
15.571523
 11
149.69881
 21
15.571523
  0
LINE
  8
_0-1_
  6
CONTINUOUS
 62
    2
 10
151.62902
 20
15.571523
 11
152.92902
 21
15.571523
  0
LINE
  8
_0-1_
  6
CONTINUOUS
 62
    2
 10
153.35914
 20
15.571523
 11
154.65914
 21
15.571523
  0
LINE
  8
_0-1_
  6
CONTINUOUS
 62
    2
 10
155.65914
 20
15.571523
 11
160.63177
 21
15.571523
  0
LINE
  8
_0-1_
  6
CONTINUOUS
 62
    2
 10
162.07338
 20
15.571523
 11
163.37338
 21
15.571523
  0
LINE
  8
_0-1_
  6
CONTINUOUS
 62
    2
 10
165.1855
 20
15.571523
 11
166.4826
 21
15.571523
  0
LINE
  8
_0-1_
  6
CONTINUOUS
 62
    2
 10
166.95214
 20
15.571523
 11
168.05214
 21
15.571523
  0
LINE
  8
_0-1_
  6
CONTINUOUS
 62
    2
 10
137.94221
 20
15.771523
 11
142.58284
 21
15.771523
  0
LINE
  8
_0-1_
  6
CONTINUOUS
 62
    2
 10
144.21042
 20
15.771523
 11
145.51042
 21
15.771523
  0
LINE
  8
_0-1_
  6
CONTINUOUS
 62
    2
 10
148.44993
 20
15.771523
 11
149.73736
 21
15.771523
  0
LINE
  8
_0-1_
  6
CONTINUOUS
 62
    2
 10
151.53576
 20
15.771523
 11
152.83576
 21
15.771523
  0
LINE
  8
_0-1_
  6
CONTINUOUS
 62
    2
 10
153.4524
 20
15.771523
 11
154.7524
 21
15.771523
  0
LINE
  8
_0-1_
  6
CONTINUOUS
 62
    2
 10
155.7524
 20
15.771523
 11
160.53851
 21
15.771523
  0
LINE
  8
_0-1_
  6
CONTINUOUS
 62
    2
 10
162.07338
 20
15.771523
 11
163.37338
 21
15.771523
  0
LINE
  8
_0-1_
  6
CONTINUOUS
 62
    2
 10
165.06053
 20
15.771523
 11
166.35762
 21
15.771523
  0
LINE
  8
_0-1_
  6
CONTINUOUS
 62
    2
 10
166.95214
 20
15.771523
 11
168.05214
 21
15.771523
  0
LINE
  8
_0-1_
  6
CONTINUOUS
 62
    2
 10
138.03547
 20
15.971523
 11
142.48958
 21
15.971523
  0
LINE
  8
_0-1_
  6
CONTINUOUS
 62
    2
 10
144.21042
 20
15.971523
 11
145.51042
 21
15.971523
  0
LINE
  8
_0-1_
  6
CONTINUOUS
 62
    2
 10
148.48291
 20
15.971523
 11
149.76768
 21
15.971523
  0
LINE
  8
_0-1_
  6
CONTINUOUS
 62
    2
 10
151.44249
 20
15.971523
 11
152.74249
 21
15.971523
  0
LINE
  8
_0-1_
  6
CONTINUOUS
 62
    2
 10
153.54566
 20
15.971523
 11
154.84566
 21
15.971523
  0
LINE
  8
_0-1_
  6
CONTINUOUS
 62
    2
 10
155.84566
 20
15.971523
 11
160.44525
 21
15.971523
  0
LINE
  8
_0-1_
  6
CONTINUOUS
 62
    2
 10
162.07338
 20
15.971523
 11
163.37338
 21
15.971523
  0
LINE
  8
_0-1_
  6
CONTINUOUS
 62
    2
 10
164.93555
 20
15.971523
 11
166.23265
 21
15.971523
  0
LINE
  8
_0-1_
  6
CONTINUOUS
 62
    2
 10
166.95214
 20
15.971523
 11
168.05214
 21
15.971523
  0
LINE
  8
_0-1_
  6
CONTINUOUS
 62
    2
 10
138.12873
 20
16.171523
 11
139.42873
 21
16.171523
  0
LINE
  8
_0-1_
  6
CONTINUOUS
 62
    2
 10
141.09632
 20
16.171523
 11
142.39632
 21
16.171523
  0
LINE
  8
_0-1_
  6
CONTINUOUS
 62
    2
 10
144.21042
 20
16.171523
 11
145.51042
 21
16.171523
  0
LINE
  8
_0-1_
  6
CONTINUOUS
 62
    2
 10
148.49982
 20
16.171523
 11
149.78983
 21
16.171523
  0
LINE
  8
_0-1_
  6
CONTINUOUS
 62
    2
 10
151.34923
 20
16.171523
 11
152.64923
 21
16.171523
  0
LINE
  8
_0-1_
  6
CONTINUOUS
 62
    2
 10
153.63892
 20
16.171523
 11
154.93892
 21
16.171523
  0
LINE
  8
_0-1_
  6
CONTINUOUS
 62
    2
 10
155.93892
 20
16.171523
 11
157.23892
 21
16.171523
  0
LINE
  8
_0-1_
  6
CONTINUOUS
 62
    2
 10
159.05199
 20
16.171523
 11
160.35199
 21
16.171523
  0
LINE
  8
_0-1_
  6
CONTINUOUS
 62
    2
 10
162.07338
 20
16.171523
 11
163.37338
 21
16.171523
  0
LINE
  8
_0-1_
  6
CONTINUOUS
 62
    2
 10
164.81058
 20
16.171523
 11
166.10768
 21
16.171523
  0
LINE
  8
_0-1_
  6
CONTINUOUS
 62
    2
 10
166.95214
 20
16.171523
 11
168.05214
 21
16.171523
  0
LINE
  8
_0-1_
  6
CONTINUOUS
 62
    2
 10
138.22199
 20
16.371523
 11
139.52199
 21
16.371523
  0
LINE
  8
_0-1_
  6
CONTINUOUS
 62
    2
 10
141.00306
 20
16.371523
 11
142.30306
 21
16.371523
  0
LINE
  8
_0-1_
  6
CONTINUOUS
 62
    2
 10
144.21042
 20
16.371523
 11
145.51042
 21
16.371523
  0
LINE
  8
_0-1_
  6
CONTINUOUS
 62
    2
 10
148.50734
 20
16.371523
 11
149.80365
 21
16.371523
  0
LINE
  8
_0-1_
  6
CONTINUOUS
 62
    2
 10
151.25597
 20
16.371523
 11
152.55597
 21
16.371523
  0
LINE
  8
_0-1_
  6
CONTINUOUS
 62
    2
 10
153.73218
 20
16.371523
 11
155.03218
 21
16.371523
  0
LINE
  8
_0-1_
  6
CONTINUOUS
 62
    2
 10
156.03218
 20
16.371523
 11
157.33218
 21
16.371523
  0
LINE
  8
_0-1_
  6
CONTINUOUS
 62
    2
 10
158.95873
 20
16.371523
 11
160.25873
 21
16.371523
  0
LINE
  8
_0-1_
  6
CONTINUOUS
 62
    2
 10
162.07338
 20
16.371523
 11
163.37338
 21
16.371523
  0
LINE
  8
_0-1_
  6
CONTINUOUS
 62
    2
 10
164.68561
 20
16.371523
 11
165.9827
 21
16.371523
  0
LINE
  8
_0-1_
  6
CONTINUOUS
 62
    2
 10
166.95214
 20
16.371523
 11
168.05214
 21
16.371523
  0
LINE
  8
_0-1_
  6
CONTINUOUS
 62
    2
 10
138.31525
 20
16.571523
 11
139.61525
 21
16.571523
  0
LINE
  8
_0-1_
  6
CONTINUOUS
 62
    2
 10
140.9098
 20
16.571523
 11
142.2098
 21
16.571523
  0
LINE
  8
_0-1_
  6
CONTINUOUS
 62
    2
 10
144.21042
 20
16.571523
 11
145.51042
 21
16.571523
  0
LINE
  8
_0-1_
  6
CONTINUOUS
 62
    2
 10
148.5103
 20
16.571523
 11
149.81009
 21
16.571523
  0
LINE
  8
_0-1_
  6
CONTINUOUS
 62
    2
 10
151.16271
 20
16.571523
 11
152.46271
 21
16.571523
  0
LINE
  8
_0-1_
  6
CONTINUOUS
 62
    2
 10
153.82545
 20
16.571523
 11
155.12545
 21
16.571523
  0
LINE
  8
_0-1_
  6
CONTINUOUS
 62
    2
 10
156.12545
 20
16.571523
 11
157.42545
 21
16.571523
  0
LINE
  8
_0-1_
  6
CONTINUOUS
 62
    2
 10
158.86546
 20
16.571523
 11
160.16546
 21
16.571523
  0
LINE
  8
_0-1_
  6
CONTINUOUS
 62
    2
 10
162.07338
 20
16.571523
 11
163.37338
 21
16.571523
  0
LINE
  8
_0-1_
  6
CONTINUOUS
 62
    2
 10
164.56063
 20
16.571523
 11
165.85773
 21
16.571523
  0
LINE
  8
_0-1_
  6
CONTINUOUS
 62
    2
 10
166.95214
 20
16.571523
 11
168.05214
 21
16.571523
  0
LINE
  8
_0-1_
  6
CONTINUOUS
 62
    2
 10
138.40851
 20
16.771523
 11
139.70851
 21
16.771523
  0
LINE
  8
_0-1_
  6
CONTINUOUS
 62
    2
 10
140.81654
 20
16.771523
 11
142.11654
 21
16.771523
  0
LINE
  8
_0-1_
  6
CONTINUOUS
 62
    2
 10
144.21042
 20
16.771523
 11
145.51042
 21
16.771523
  0
LINE
  8
_0-1_
  6
CONTINUOUS
 62
    2
 10
148.50869
 20
16.771523
 11
149.80603
 21
16.771523
  0
LINE
  8
_0-1_
  6
CONTINUOUS
 62
    2
 10
151.06945
 20
16.771523
 11
152.36945
 21
16.771523
  0
LINE
  8
_0-1_
  6
CONTINUOUS
 62
    2
 10
153.91871
 20
16.771523
 11
155.21871
 21
16.771523
  0
LINE
  8
_0-1_
  6
CONTINUOUS
 62
    2
 10
156.21871
 20
16.771523
 11
157.51871
 21
16.771523
  0
LINE
  8
_0-1_
  6
CONTINUOUS
 62
    2
 10
158.7722
 20
16.771523
 11
160.0722
 21
16.771523
  0
LINE
  8
_0-1_
  6
CONTINUOUS
 62
    2
 10
162.07338
 20
16.771523
 11
163.37338
 21
16.771523
  0
LINE
  8
_0-1_
  6
CONTINUOUS
 62
    2
 10
164.43566
 20
16.771523
 11
165.73275
 21
16.771523
  0
LINE
  8
_0-1_
  6
CONTINUOUS
 62
    2
 10
166.95214
 20
16.771523
 11
168.05214
 21
16.771523
  0
LINE
  8
_0-1_
  6
CONTINUOUS
 62
    2
 10
138.50178
 20
16.971523
 11
139.80178
 21
16.971523
  0
LINE
  8
_0-1_
  6
CONTINUOUS
 62
    2
 10
140.72327
 20
16.971523
 11
142.02327
 21
16.971523
  0
LINE
  8
_0-1_
  6
CONTINUOUS
 62
    2
 10
144.21042
 20
16.971523
 11
145.51042
 21
16.971523
  0
LINE
  8
_0-1_
  6
CONTINUOUS
 62
    2
 10
148.50267
 20
16.971523
 11
149.79435
 21
16.971523
  0
LINE
  8
_0-1_
  6
CONTINUOUS
 62
    2
 10
150.97619
 20
16.971523
 11
152.27619
 21
16.971523
  0
LINE
  8
_0-1_
  6
CONTINUOUS
 62
    2
 10
154.01197
 20
16.971523
 11
155.31197
 21
16.971523
  0
LINE
  8
_0-1_
  6
CONTINUOUS
 62
    2
 10
156.31197
 20
16.971523
 11
157.61197
 21
16.971523
  0
LINE
  8
_0-1_
  6
CONTINUOUS
 62
    2
 10
158.67894
 20
16.971523
 11
159.97894
 21
16.971523
  0
LINE
  8
_0-1_
  6
CONTINUOUS
 62
    2
 10
162.07338
 20
16.971523
 11
163.37338
 21
16.971523
  0
LINE
  8
_0-1_
  6
CONTINUOUS
 62
    2
 10
164.31068
 20
16.971523
 11
165.60778
 21
16.971523
  0
LINE
  8
_0-1_
  6
CONTINUOUS
 62
    2
 10
166.95214
 20
16.971523
 11
168.05214
 21
16.971523
  0
LINE
  8
_0-1_
  6
CONTINUOUS
 62
    2
 10
138.59504
 20
17.171523
 11
139.89504
 21
17.171523
  0
LINE
  8
_0-1_
  6
CONTINUOUS
 62
    2
 10
140.63001
 20
17.171523
 11
141.93001
 21
17.171523
  0
LINE
  8
_0-1_
  6
CONTINUOUS
 62
    2
 10
144.21042
 20
17.171523
 11
145.51042
 21
17.171523
  0
LINE
  8
_0-1_
  6
CONTINUOUS
 62
    2
 10
148.4867
 20
17.171523
 11
149.77417
 21
17.171523
  0
LINE
  8
_0-1_
  6
CONTINUOUS
 62
    2
 10
150.88293
 20
17.171523
 11
152.18293
 21
17.171523
  0
LINE
  8
_0-1_
  6
CONTINUOUS
 62
    2
 10
154.10523
 20
17.171523
 11
155.40523
 21
17.171523
  0
LINE
  8
_0-1_
  6
CONTINUOUS
 62
    2
 10
156.40523
 20
17.171523
 11
157.70523
 21
17.171523
  0
LINE
  8
_0-1_
  6
CONTINUOUS
 62
    2
 10
158.58568
 20
17.171523
 11
159.88568
 21
17.171523
  0
LINE
  8
_0-1_
  6
CONTINUOUS
 62
    2
 10
162.07338
 20
17.171523
 11
163.37338
 21
17.171523
  0
LINE
  8
_0-1_
  6
CONTINUOUS
 62
    2
 10
164.18571
 20
17.171523
 11
165.48281
 21
17.171523
  0
LINE
  8
_0-1_
  6
CONTINUOUS
 62
    2
 10
166.95214
 20
17.171523
 11
168.05214
 21
17.171523
  0
LINE
  8
_0-1_
  6
CONTINUOUS
 62
    2
 10
138.6883
 20
17.371523
 11
139.9883
 21
17.371523
  0
LINE
  8
_0-1_
  6
CONTINUOUS
 62
    2
 10
140.53675
 20
17.371523
 11
141.83675
 21
17.371523
  0
LINE
  8
_0-1_
  6
CONTINUOUS
 62
    2
 10
144.21042
 20
17.371523
 11
145.51042
 21
17.371523
  0
LINE
  8
_0-1_
  6
CONTINUOUS
 62
    2
 10
148.45761
 20
17.371523
 11
149.74481
 21
17.371523
  0
LINE
  8
_0-1_
  6
CONTINUOUS
 62
    2
 10
150.78966
 20
17.371523
 11
152.08966
 21
17.371523
  0
LINE
  8
_0-1_
  6
CONTINUOUS
 62
    2
 10
154.19849
 20
17.371523
 11
155.49849
 21
17.371523
  0
LINE
  8
_0-1_
  6
CONTINUOUS
 62
    2
 10
156.49849
 20
17.371523
 11
157.79849
 21
17.371523
  0
LINE
  8
_0-1_
  6
CONTINUOUS
 62
    2
 10
158.49242
 20
17.371523
 11
159.79242
 21
17.371523
  0
LINE
  8
_0-1_
  6
CONTINUOUS
 62
    2
 10
162.07338
 20
17.371523
 11
163.37338
 21
17.371523
  0
LINE
  8
_0-1_
  6
CONTINUOUS
 62
    2
 10
164.06074
 20
17.371523
 11
165.35783
 21
17.371523
  0
LINE
  8
_0-1_
  6
CONTINUOUS
 62
    2
 10
166.95214
 20
17.371523
 11
168.05214
 21
17.371523
  0
LINE
  8
_0-1_
  6
CONTINUOUS
 62
    2
 10
138.78156
 20
17.571523
 11
140.08156
 21
17.571523
  0
LINE
  8
_0-1_
  6
CONTINUOUS
 62
    2
 10
140.44349
 20
17.571523
 11
141.74349
 21
17.571523
  0
LINE
  8
_0-1_
  6
CONTINUOUS
 62
    2
 10
144.21042
 20
17.571523
 11
145.51042
 21
17.571523
  0
LINE
  8
_0-1_
  6
CONTINUOUS
 62
    2
 10
148.40914
 20
17.571523
 11
149.70746
 21
17.571523
  0
LINE
  8
_0-1_
  6
CONTINUOUS
 62
    2
 10
150.6964
 20
17.571523
 11
151.9964
 21
17.571523
  0
LINE
  8
_0-1_
  6
CONTINUOUS
 62
    2
 10
154.29175
 20
17.571523
 11
155.59175
 21
17.571523
  0
LINE
  8
_0-1_
  6
CONTINUOUS
 62
    2
 10
156.59175
 20
17.571523
 11
157.89175
 21
17.571523
  0
LINE
  8
_0-1_
  6
CONTINUOUS
 62
    2
 10
158.39916
 20
17.571523
 11
159.69916
 21
17.571523
  0
LINE
  8
_0-1_
  6
CONTINUOUS
 62
    2
 10
162.07338
 20
17.571523
 11
163.37338
 21
17.571523
  0
LINE
  8
_0-1_
  6
CONTINUOUS
 62
    2
 10
163.93576
 20
17.571523
 11
165.23286
 21
17.571523
  0
LINE
  8
_0-1_
  6
CONTINUOUS
 62
    2
 10
166.95214
 20
17.571523
 11
168.05214
 21
17.571523
  0
LINE
  8
_0-1_
  6
CONTINUOUS
 62
    2
 10
138.87482
 20
17.771523
 11
140.17482
 21
17.771523
  0
LINE
  8
_0-1_
  6
CONTINUOUS
 62
    2
 10
140.35023
 20
17.771523
 11
141.65023
 21
17.771523
  0
LINE
  8
_0-1_
  6
CONTINUOUS
 62
    2
 10
144.21042
 20
17.771523
 11
145.51042
 21
17.771523
  0
LINE
  8
_0-1_
  6
CONTINUOUS
 62
    2
 10
148.33077
 20
17.771523
 11
149.66225
 21
17.771523
  0
LINE
  8
_0-1_
  6
CONTINUOUS
 62
    2
 10
150.60314
 20
17.771523
 11
151.90314
 21
17.771523
  0
LINE
  8
_0-1_
  6
CONTINUOUS
 62
    2
 10
154.38502
 20
17.771523
 11
155.68502
 21
17.771523
  0
LINE
  8
_0-1_
  6
CONTINUOUS
 62
    2
 10
156.68502
 20
17.771523
 11
157.98502
 21
17.771523
  0
LINE
  8
_0-1_
  6
CONTINUOUS
 62
    2
 10
158.3059
 20
17.771523
 11
159.6059
 21
17.771523
  0
LINE
  8
_0-1_
  6
CONTINUOUS
 62
    2
 10
162.07338
 20
17.771523
 11
163.37338
 21
17.771523
  0
LINE
  8
_0-1_
  6
CONTINUOUS
 62
    2
 10
163.81079
 20
17.771523
 11
165.10789
 21
17.771523
  0
LINE
  8
_0-1_
  6
CONTINUOUS
 62
    2
 10
166.95214
 20
17.771523
 11
168.05214
 21
17.771523
  0
LINE
  8
_0-1_
  6
CONTINUOUS
 62
    2
 10
138.96808
 20
17.971523
 11
141.55697
 21
17.971523
  0
LINE
  8
_0-1_
  6
CONTINUOUS
 62
    2
 10
144.21042
 20
17.971523
 11
145.51042
 21
17.971523
  0
LINE
  8
_0-1_
  6
CONTINUOUS
 62
    2
 10
148.21042
 20
17.971523
 11
149.61042
 21
17.971523
  0
LINE
  8
_0-1_
  6
CONTINUOUS
 62
    2
 10
150.50988
 20
17.971523
 11
151.80988
 21
17.971523
  0
LINE
  8
_0-1_
  6
CONTINUOUS
 62
    2
 10
154.47828
 20
17.971523
 11
155.77828
 21
17.971523
  0
LINE
  8
_0-1_
  6
CONTINUOUS
 62
    2
 10
156.77828
 20
17.971523
 11
158.07828
 21
17.971523
  0
LINE
  8
_0-1_
  6
CONTINUOUS
 62
    2
 10
158.21263
 20
17.971523
 11
159.51263
 21
17.971523
  0
LINE
  8
_0-1_
  6
CONTINUOUS
 62
    2
 10
162.07338
 20
17.971523
 11
163.37338
 21
17.971523
  0
LINE
  8
_0-1_
  6
CONTINUOUS
 62
    2
 10
163.68582
 20
17.971523
 11
164.98291
 21
17.971523
  0
LINE
  8
_0-1_
  6
CONTINUOUS
 62
    2
 10
166.95214
 20
17.971523
 11
168.05214
 21
17.971523
  0
LINE
  8
_0-1_
  6
CONTINUOUS
 62
    2
 10
139.06134
 20
18.171523
 11
141.4637
 21
18.171523
  0
LINE
  8
_0-1_
  6
CONTINUOUS
 62
    2
 10
144.21042
 20
18.171523
 11
145.51042
 21
18.171523
  0
LINE
  8
_0-1_
  6
CONTINUOUS
 62
    2
 10
147.99797
 20
18.171523
 11
149.54762
 21
18.171523
  0
LINE
  8
_0-1_
  6
CONTINUOUS
 62
    2
 10
150.41662
 20
18.171523
 11
151.71662
 21
18.171523
  0
LINE
  8
_0-1_
  6
CONTINUOUS
 62
    2
 10
154.57154
 20
18.171523
 11
155.87154
 21
18.171523
  0
LINE
  8
_0-1_
  6
CONTINUOUS
 62
    2
 10
156.87154
 20
18.171523
 11
159.41937
 21
18.171523
  0
LINE
  8
_0-1_
  6
CONTINUOUS
 62
    2
 10
162.07338
 20
18.171523
 11
163.37338
 21
18.171523
  0
LINE
  8
_0-1_
  6
CONTINUOUS
 62
    2
 10
163.56084
 20
18.171523
 11
164.85794
 21
18.171523
  0
LINE
  8
_0-1_
  6
CONTINUOUS
 62
    2
 10
166.95214
 20
18.171523
 11
168.05214
 21
18.171523
  0
LINE
  8
_0-1_
  6
CONTINUOUS
 62
    2
 10
139.15461
 20
18.371523
 11
141.37044
 21
18.371523
  0
LINE
  8
_0-1_
  6
CONTINUOUS
 62
    2
 10
144.21042
 20
18.371523
 11
145.51042
 21
18.371523
  0
LINE
  8
_0-1_
  6
CONTINUOUS
 62
    2
 10
147.69008
 20
18.371523
 11
149.46455
 21
18.371523
  0
LINE
  8
_0-1_
  6
CONTINUOUS
 62
    2
 10
150.32336
 20
18.371523
 11
151.62336
 21
18.371523
  0
LINE
  8
_0-1_
  6
CONTINUOUS
 62
    2
 10
154.6648
 20
18.371523
 11
155.9648
 21
18.371523
  0
LINE
  8
_0-1_
  6
CONTINUOUS
 62
    2
 10
156.9648
 20
18.371523
 11
159.32611
 21
18.371523
  0
LINE
  8
_0-1_
  6
CONTINUOUS
 62
    2
 10
162.07338
 20
18.371523
 11
163.37338
 21
18.371523
  0
LINE
  8
_0-1_
  6
CONTINUOUS
 62
    2
 10
163.43587
 20
18.371523
 11
164.73296
 21
18.371523
  0
LINE
  8
_0-1_
  6
CONTINUOUS
 62
    2
 10
166.95214
 20
18.371523
 11
168.05214
 21
18.371523
  0
LINE
  8
_0-1_
  6
CONTINUOUS
 62
    2
 10
139.24787
 20
18.571523
 11
141.27718
 21
18.571523
  0
LINE
  8
_0-1_
  6
CONTINUOUS
 62
    2
 10
144.21042
 20
18.571523
 11
149.34147
 21
18.571523
  0
LINE
  8
_0-1_
  6
CONTINUOUS
 62
    2
 10
150.23009
 20
18.571523
 11
151.53009
 21
18.571523
  0
LINE
  8
_0-1_
  6
CONTINUOUS
 62
    2
 10
154.75806
 20
18.571523
 11
156.05806
 21
18.571523
  0
LINE
  8
_0-1_
  6
CONTINUOUS
 62
    2
 10
157.05806
 20
18.571523
 11
159.23285
 21
18.571523
  0
LINE
  8
_0-1_
  6
CONTINUOUS
 62
    2
 10
162.07338
 20
18.571523
 11
164.60799
 21
18.571523
  0
LINE
  8
_0-1_
  6
CONTINUOUS
 62
    2
 10
166.95214
 20
18.571523
 11
168.05214
 21
18.571523
  0
LINE
  8
_0-1_
  6
CONTINUOUS
 62
    2
 10
139.34113
 20
18.771523
 11
141.18392
 21
18.771523
  0
LINE
  8
_0-1_
  6
CONTINUOUS
 62
    2
 10
144.21042
 20
18.771523
 11
149.15231
 21
18.771523
  0
LINE
  8
_0-1_
  6
CONTINUOUS
 62
    2
 10
150.13683
 20
18.771523
 11
151.43683
 21
18.771523
  0
LINE
  8
_0-1_
  6
CONTINUOUS
 62
    2
 10
154.85132
 20
18.771523
 11
156.15132
 21
18.771523
  0
LINE
  8
_0-1_
  6
CONTINUOUS
 62
    2
 10
157.15132
 20
18.771523
 11
159.13959
 21
18.771523
  0
LINE
  8
_0-1_
  6
CONTINUOUS
 62
    2
 10
162.07338
 20
18.771523
 11
164.48302
 21
18.771523
  0
LINE
  8
_0-1_
  6
CONTINUOUS
 62
    2
 10
166.95214
 20
18.771523
 11
168.05214
 21
18.771523
  0
LINE
  8
_0-1_
  6
CONTINUOUS
 62
    2
 10
139.43439
 20
18.971523
 11
141.09066
 21
18.971523
  0
LINE
  8
_0-1_
  6
CONTINUOUS
 62
    2
 10
144.21042
 20
18.971523
 11
148.87455
 21
18.971523
  0
LINE
  8
_0-1_
  6
CONTINUOUS
 62
    2
 10
150.04357
 20
18.971523
 11
151.34357
 21
18.971523
  0
LINE
  8
_0-1_
  6
CONTINUOUS
 62
    2
 10
154.94458
 20
18.971523
 11
156.24458
 21
18.971523
  0
LINE
  8
_0-1_
  6
CONTINUOUS
 62
    2
 10
157.24458
 20
18.971523
 11
159.04633
 21
18.971523
  0
LINE
  8
_0-1_
  6
CONTINUOUS
 62
    2
 10
162.07338
 20
18.971523
 11
164.35804
 21
18.971523
  0
LINE
  8
_0-1_
  6
CONTINUOUS
 62
    2
 10
166.95214
 20
18.971523
 11
168.05214
 21
18.971523
  0
LINE
  8
_0-1_
  6
CONTINUOUS
 62
    2
 10
139.52765
 20
19.171523
 11
140.9974
 21
19.171523
  0
LINE
  8
_0-1_
  6
CONTINUOUS
 62
    2
 10
144.21042
 20
19.171523
 11
148.47348
 21
19.171523
  0
LINE
  8
_0-1_
  6
CONTINUOUS
 62
    2
 10
149.95031
 20
19.171523
 11
151.25031
 21
19.171523
  0
LINE
  8
_0-1_
  6
CONTINUOUS
 62
    2
 10
155.03785
 20
19.171523
 11
156.33785
 21
19.171523
  0
LINE
  8
_0-1_
  6
CONTINUOUS
 62
    2
 10
157.33785
 20
19.171523
 11
158.95306
 21
19.171523
  0
LINE
  8
_0-1_
  6
CONTINUOUS
 62
    2
 10
162.07338
 20
19.171523
 11
164.23307
 21
19.171523
  0
LINE
  8
_0-1_
  6
CONTINUOUS
 62
    2
 10
166.95214
 20
19.171523
 11
168.05214
 21
19.171523
  0
LINE
  8
_0-1_
  6
CONTINUOUS
 62
    2
 10
139.62091
 20
19.371523
 11
140.90414
 21
19.371523
  0
LINE
  8
_0-1_
  6
CONTINUOUS
 62
    2
 10
144.21042
 20
19.371523
 11
147.88508
 21
19.371523
  0
LINE
  8
_0-1_
  6
CONTINUOUS
 62
    2
 10
149.85705
 20
19.371523
 11
151.15705
 21
19.371523
  0
LINE
  8
_0-1_
  6
CONTINUOUS
 62
    2
 10
155.13111
 20
19.371523
 11
156.43111
 21
19.371523
  0
LINE
  8
_0-1_
  6
CONTINUOUS
 62
    2
 10
157.43111
 20
19.371523
 11
158.8598
 21
19.371523
  0
LINE
  8
_0-1_
  6
CONTINUOUS
 62
    2
 10
162.07338
 20
19.371523
 11
164.10809
 21
19.371523
  0
LINE
  8
_0-1_
  6
CONTINUOUS
 62
    2
 10
166.95214
 20
19.371523
 11
168.05214
 21
19.371523
  0
LINE
  8
_0-1_
  6
CONTINUOUS
 62
    7
 10
126.17665
 20
13.840458
 11
130.3805
 21
13.840458
  0
LINE
  8
_0-1_
  6
CONTINUOUS
 62
    7
 10
126.17665
 20
13.940458
 11
130.3805
 21
13.940458
  0
LINE
  8
_0-1_
  6
CONTINUOUS
 62
    7
 10
126.17665
 20
14.040458
 11
130.3805
 21
14.040458
  0
LINE
  8
_0-1_
  6
CONTINUOUS
 62
    7
 10
126.17665
 20
14.140458
 11
130.3805
 21
14.140458
  0
LINE
  8
_0-1_
  6
CONTINUOUS
 62
    7
 10
126.17665
 20
14.240458
 11
130.3805
 21
14.240458
  0
LINE
  8
_0-1_
  6
CONTINUOUS
 62
    7
 10
126.17665
 20
14.340458
 11
130.3805
 21
14.340458
  0
LINE
  8
_0-1_
  6
CONTINUOUS
 62
    7
 10
126.17665
 20
14.440458
 11
130.3805
 21
14.440458
  0
LINE
  8
_0-1_
  6
CONTINUOUS
 62
    7
 10
126.17665
 20
14.540458
 11
130.3805
 21
14.540458
  0
LINE
  8
_0-1_
  6
CONTINUOUS
 62
    7
 10
126.17665
 20
14.640458
 11
130.3805
 21
14.640458
  0
LINE
  8
_0-1_
  6
CONTINUOUS
 62
    7
 10
126.17665
 20
14.740458
 11
130.3805
 21
14.740458
  0
LINE
  8
_0-1_
  6
CONTINUOUS
 62
    7
 10
126.17665
 20
14.840458
 11
130.3805
 21
14.840458
  0
LINE
  8
_0-1_
  6
CONTINUOUS
 62
    7
 10
126.17665
 20
14.940458
 11
130.3805
 21
14.940458
  0
LINE
  8
_0-1_
  6
CONTINUOUS
 62
    7
 10
126.17665
 20
15.040458
 11
130.3805
 21
15.040458
  0
LINE
  8
_0-1_
  6
CONTINUOUS
 62
    7
 10
126.17665
 20
15.140458
 11
130.3805
 21
15.140458
  0
LINE
  8
_0-1_
  6
CONTINUOUS
 62
    7
 10
126.17665
 20
15.240458
 11
130.3805
 21
15.240458
  0
LINE
  8
_0-1_
  6
CONTINUOUS
 62
    7
 10
126.17665
 20
15.340458
 11
130.3805
 21
15.340458
  0
LINE
  8
_0-1_
  6
CONTINUOUS
 62
    7
 10
126.17665
 20
15.440458
 11
130.3805
 21
15.440458
  0
LINE
  8
_0-1_
  6
CONTINUOUS
 62
    7
 10
126.17665
 20
15.540458
 11
130.3805
 21
15.540458
  0
LINE
  8
_0-1_
  6
CONTINUOUS
 62
    7
 10
126.17665
 20
15.640458
 11
130.3805
 21
15.640458
  0
LINE
  8
_0-1_
  6
CONTINUOUS
 62
    7
 10
126.17665
 20
15.740458
 11
130.3805
 21
15.740458
  0
LINE
  8
_0-1_
  6
CONTINUOUS
 62
    7
 10
126.17665
 20
15.840458
 11
130.3805
 21
15.840458
  0
LINE
  8
_0-1_
  6
CONTINUOUS
 62
    7
 10
126.17665
 20
15.940458
 11
130.3805
 21
15.940458
  0
LINE
  8
_0-1_
  6
CONTINUOUS
 62
    7
 10
126.17665
 20
16.040458
 11
130.3805
 21
16.040458
  0
LINE
  8
_0-1_
  6
CONTINUOUS
 62
    7
 10
126.17665
 20
16.140458
 11
130.3805
 21
16.140458
  0
LINE
  8
_0-1_
  6
CONTINUOUS
 62
    7
 10
126.17665
 20
16.240458
 11
130.3805
 21
16.240458
  0
LINE
  8
_0-1_
  6
CONTINUOUS
 62
    7
 10
126.17665
 20
16.340458
 11
130.3805
 21
16.340458
  0
LINE
  8
_0-1_
  6
CONTINUOUS
 62
    7
 10
126.17665
 20
16.440458
 11
130.3805
 21
16.440458
  0
LINE
  8
_0-1_
  6
CONTINUOUS
 62
    7
 10
126.17665
 20
16.540458
 11
130.3805
 21
16.540458
  0
LINE
  8
_0-1_
  6
CONTINUOUS
 62
    7
 10
126.17665
 20
16.640458
 11
130.3805
 21
16.640458
  0
LINE
  8
_0-1_
  6
CONTINUOUS
 62
    7
 10
126.17665
 20
16.740458
 11
130.3805
 21
16.740458
  0
LINE
  8
_0-1_
  6
CONTINUOUS
 62
    7
 10
126.17665
 20
16.840458
 11
130.3805
 21
16.840458
  0
LINE
  8
_0-1_
  6
CONTINUOUS
 62
    7
 10
126.17665
 20
16.940458
 11
130.3805
 21
16.940458
  0
LINE
  8
_0-1_
  6
CONTINUOUS
 62
    7
 10
126.17665
 20
17.040458
 11
130.3805
 21
17.040458
  0
LINE
  8
_0-1_
  6
CONTINUOUS
 62
    7
 10
126.17665
 20
17.140458
 11
130.3805
 21
17.140458
  0
LINE
  8
_0-1_
  6
CONTINUOUS
 62
    7
 10
126.17665
 20
17.240458
 11
130.3805
 21
17.240458
  0
LINE
  8
_0-1_
  6
CONTINUOUS
 62
    7
 10
126.17665
 20
17.340458
 11
130.3805
 21
17.340458
  0
LINE
  8
_0-1_
  6
CONTINUOUS
 62
    7
 10
126.17665
 20
17.440458
 11
130.3805
 21
17.440458
  0
LINE
  8
_0-1_
  6
CONTINUOUS
 62
    7
 10
126.17665
 20
17.540458
 11
130.3805
 21
17.540458
  0
LINE
  8
_0-1_
  6
CONTINUOUS
 62
    7
 10
126.17665
 20
17.640458
 11
130.3805
 21
17.640458
  0
LINE
  8
_0-1_
  6
CONTINUOUS
 62
    7
 10
126.17665
 20
17.740458
 11
130.3805
 21
17.740458
  0
LINE
  8
_0-1_
  6
CONTINUOUS
 62
    7
 10
126.17665
 20
17.840458
 11
130.3805
 21
17.840458
  0
LINE
  8
_0-1_
  6
CONTINUOUS
 62
    7
 10
126.17665
 20
17.940458
 11
130.3805
 21
17.940458
  0
LINE
  8
_0-1_
  6
CONTINUOUS
 62
    7
 10
135.65782
 20
22.640458
 11
137.12138
 21
22.640458
  0
LINE
  8
_0-1_
  6
CONTINUOUS
 62
    7
 10
135.38552
 20
22.840458
 11
137.39367
 21
22.840458
  0
LINE
  8
_0-1_
  6
CONTINUOUS
 62
    7
 10
135.20602
 20
23.040458
 11
137.57317
 21
23.040458
  0
LINE
  8
_0-1_
  6
CONTINUOUS
 62
    7
 10
135.08058
 20
23.240458
 11
137.69861
 21
23.240458
  0
LINE
  8
_0-1_
  6
CONTINUOUS
 62
    7
 10
134.99454
 20
23.440458
 11
137.78465
 21
23.440458
  0
LINE
  8
_0-1_
  6
CONTINUOUS
 62
    7
 10
134.94085
 20
23.640458
 11
137.83834
 21
23.640458
  0
LINE
  8
_0-1_
  6
CONTINUOUS
 62
    7
 10
134.91599
 20
23.840458
 11
137.86321
 21
23.840458
  0
LINE
  8
_0-1_
  6
CONTINUOUS
 62
    7
 10
134.91848
 20
24.040458
 11
137.86072
 21
24.040458
  0
LINE
  8
_0-1_
  6
CONTINUOUS
 62
    7
 10
134.94846
 20
24.240458
 11
137.83073
 21
24.240458
  0
LINE
  8
_0-1_
  6
CONTINUOUS
 62
    7
 10
135.00774
 20
24.440458
 11
137.77146
 21
24.440458
  0
LINE
  8
_0-1_
  6
CONTINUOUS
 62
    7
 10
135.10033
 20
24.640458
 11
137.67886
 21
24.640458
  0
LINE
  8
_0-1_
  6
CONTINUOUS
 62
    7
 10
135.23423
 20
24.840458
 11
137.54497
 21
24.840458
  0
LINE
  8
_0-1_
  6
CONTINUOUS
 62
    7
 10
135.4265
 20
25.040458
 11
137.35269
 21
25.040458
  0
LINE
  8
_0-1_
  6
CONTINUOUS
 62
    7
 10
135.7261
 20
25.240458
 11
137.05309
 21
25.240458
  0
LINE
  8
_0-1_
  6
CONTINUOUS
 62
    7
 10
137.78781
 20
23.449695
 11
137.78781
 21
24.394575
  0
LINE
  8
_0-1_
  6
CONTINUOUS
 62
    7
 10
137.58781
 20
23.06046
 11
137.58781
 21
24.783811
  0
LINE
  8
_0-1_
  6
CONTINUOUS
 62
    7
 10
137.38781
 20
22.835043
 11
137.38781
 21
25.009227
  0
LINE
  8
_0-1_
  6
CONTINUOUS
 62
    7
 10
137.18781
 20
22.680743
 11
137.18781
 21
25.163527
  0
LINE
  8
_0-1_
  6
CONTINUOUS
 62
    7
 10
136.98781
 20
22.572936
 11
136.98781
 21
25.271335
  0
LINE
  8
_0-1_
  6
CONTINUOUS
 62
    7
 10
136.78781
 20
22.501
 11
136.78781
 21
25.34327
  0
LINE
  8
_0-1_
  6
CONTINUOUS
 62
    7
 10
136.58781
 20
22.459634
 11
136.58781
 21
25.384636
  0
LINE
  8
_0-1_
  6
CONTINUOUS
 62
    7
 10
136.38781
 20
22.446265
 11
136.38781
 21
25.398006
  0
LINE
  8
_0-1_
  6
CONTINUOUS
 62
    7
 10
135.09076
 20
19.402456
 11
135.13264
 21
19.444341
  0
LINE
  8
_0-1_
  6
CONTINUOUS
 62
    7
 10
134.80792
 20
19.402456
 11
135.02912
 21
19.623657
  0
LINE
  8
_0-1_
  6
CONTINUOUS
 62
    7
 10
134.52507
 20
19.402456
 11
134.92559
 21
19.802972
  0
LINE
  8
_0-1_
  6
CONTINUOUS
 62
    7
 10
134.24223
 20
19.402456
 11
134.82206
 21
19.982287
  0
LINE
  8
_0-1_
  6
CONTINUOUS
 62
    7
 10
133.95939
 20
19.402456
 11
134.71853
 21
20.161602
  0
LINE
  8
_0-1_
  6
CONTINUOUS
 62
    7
 10
133.67654
 20
19.402456
 11
134.61501
 21
20.340917
  0
LINE
  8
_0-1_
  6
CONTINUOUS
 62
    7
 10
133.3937
 20
19.402456
 11
134.51148
 21
20.520232
  0
LINE
  8
_0-1_
  6
CONTINUOUS
 62
    7
 10
133.11086
 20
19.402456
 11
134.40795
 21
20.699547
  0
LINE
  8
_0-1_
  6
CONTINUOUS
 62
    7
 10
132.82802
 20
19.402456
 11
134.30442
 21
20.878862
  0
LINE
  8
_0-1_
  6
CONTINUOUS
 62
    7
 10
132.54517
 20
19.402456
 11
134.2009
 21
21.058177
  0
LINE
  8
_0-1_
  6
CONTINUOUS
 62
    7
 10
132.26233
 20
19.402456
 11
134.09737
 21
21.237492
  0
LINE
  8
_0-1_
  6
CONTINUOUS
 62
    7
 10
131.97949
 20
19.402456
 11
133.99384
 21
21.416808
  0
LINE
  8
_0-1_
  6
CONTINUOUS
 62
    7
 10
131.69665
 20
19.402456
 11
133.89031
 21
21.596123
  0
LINE
  8
_0-1_
  6
CONTINUOUS
 62
    7
 10
131.4138
 20
19.402456
 11
133.78678
 21
21.775438
  0
LINE
  8
_0-1_
  6
CONTINUOUS
 62
    7
 10
131.13096
 20
19.402456
 11
133.68326
 21
21.954753
  0
LINE
  8
_0-1_
  6
CONTINUOUS
 62
    7
 10
130.86872
 20
19.423061
 11
133.57973
 21
22.134068
  0
LINE
  8
_0-1_
  6
CONTINUOUS
 62
    7
 10
131.25509
 20
20.092274
 11
133.4762
 21
22.313383
  0
LINE
  8
_0-1_
  6
CONTINUOUS
 62
    7
 10
131.64146
 20
20.761487
 11
133.37267
 21
22.492698
  0
LINE
  8
_0-1_
  6
CONTINUOUS
 62
    7
 10
132.02783
 20
21.430701
 11
133.26915
 21
22.672013
  0
LINE
  8
_0-1_
  6
CONTINUOUS
 62
    7
 10
132.4142
 20
22.099914
 11
133.16562
 21
22.851328
  0
LINE
  8
_0-1_
  6
CONTINUOUS
 62
    7
 10
132.80057
 20
22.769127
 11
133.06209
 21
23.030643
  0
LINE
  8
_0-1_
  6
CONTINUOUS
 62
    7
 10
130.89778
 20
19.473388
 11
130.96871
 21
19.402456
  0
LINE
  8
_0-1_
  6
CONTINUOUS
 62
    7
 10
131.00131
 20
19.652703
 11
131.25155
 21
19.402456
  0
LINE
  8
_0-1_
  6
CONTINUOUS
 62
    7
 10
131.10483
 20
19.832018
 11
131.5344
 21
19.402456
  0
LINE
  8
_0-1_
  6
CONTINUOUS
 62
    7
 10
131.20836
 20
20.011333
 11
131.81724
 21
19.402456
  0
LINE
  8
_0-1_
  6
CONTINUOUS
 62
    7
 10
131.31189
 20
20.190648
 11
132.10008
 21
19.402456
  0
LINE
  8
_0-1_
  6
CONTINUOUS
 62
    7
 10
131.41542
 20
20.369963
 11
132.38292
 21
19.402456
  0
LINE
  8
_0-1_
  6
CONTINUOUS
 62
    7
 10
131.51894
 20
20.549278
 11
132.66577
 21
19.402456
  0
LINE
  8
_0-1_
  6
CONTINUOUS
 62
    7
 10
131.62247
 20
20.728593
 11
132.94861
 21
19.402456
  0
LINE
  8
_0-1_
  6
CONTINUOUS
 62
    7
 10
131.726
 20
20.907908
 11
133.23145
 21
19.402456
  0
LINE
  8
_0-1_
  6
CONTINUOUS
 62
    7
 10
131.82953
 20
21.087223
 11
133.5143
 21
19.402456
  0
LINE
  8
_0-1_
  6
CONTINUOUS
 62
    7
 10
131.93306
 20
21.266539
 11
133.79714
 21
19.402456
  0
LINE
  8
_0-1_
  6
CONTINUOUS
 62
    7
 10
132.03658
 20
21.445854
 11
134.07998
 21
19.402456
  0
LINE
  8
_0-1_
  6
CONTINUOUS
 62
    7
 10
132.14011
 20
21.625169
 11
134.36282
 21
19.402456
  0
LINE
  8
_0-1_
  6
CONTINUOUS
 62
    7
 10
132.24364
 20
21.804484
 11
134.64567
 21
19.402456
  0
LINE
  8
_0-1_
  6
CONTINUOUS
 62
    7
 10
132.34717
 20
21.983799
 11
134.92851
 21
19.402456
  0
LINE
  8
_0-1_
  6
CONTINUOUS
 62
    7
 10
132.45069
 20
22.163114
 11
135.08234
 21
19.531463
  0
LINE
  8
_0-1_
  6
CONTINUOUS
 62
    7
 10
132.55422
 20
22.342429
 11
134.69597
 21
20.200676
  0
LINE
  8
_0-1_
  6
CONTINUOUS
 62
    7
 10
132.65775
 20
22.521744
 11
134.3096
 21
20.869889
  0
LINE
  8
_0-1_
  6
CONTINUOUS
 62
    7
 10
132.76128
 20
22.701059
 11
133.92323
 21
21.539102
  0
LINE
  8
_0-1_
  6
CONTINUOUS
 62
    7
 10
132.8648
 20
22.880374
 11
133.53686
 21
22.208315
  0
LINE
  8
_0-1_
  6
CONTINUOUS
 62
    7
 10
132.96833
 20
23.059689
 11
133.15049
 21
22.877528
  0
LINE
  8
_0-1_
  6
CONTINUOUS
 62
    7
 10
130.28781
 20
13.819895
 11
130.28781
 21
18.029664
  0
LINE
  8
_0-1_
  6
CONTINUOUS
 62
    7
 10
130.18781
 20
13.819895
 11
130.18781
 21
18.029664
  0
LINE
  8
_0-1_
  6
CONTINUOUS
 62
    7
 10
130.08781
 20
13.819895
 11
130.08781
 21
18.029664
  0
LINE
  8
_0-1_
  6
CONTINUOUS
 62
    7
 10
129.98781
 20
13.819895
 11
129.98781
 21
18.029664
  0
LINE
  8
_0-1_
  6
CONTINUOUS
 62
    7
 10
129.88781
 20
13.819895
 11
129.88781
 21
18.029664
  0
LINE
  8
_0-1_
  6
CONTINUOUS
 62
    7
 10
129.78781
 20
13.819895
 11
129.78781
 21
18.029664
  0
LINE
  8
_0-1_
  6
CONTINUOUS
 62
    7
 10
129.68781
 20
13.819895
 11
129.68781
 21
18.029664
  0
LINE
  8
_0-1_
  6
CONTINUOUS
 62
    7
 10
129.58781
 20
13.819895
 11
129.58781
 21
18.029664
  0
LINE
  8
_0-1_
  6
CONTINUOUS
 62
    7
 10
129.48781
 20
13.819895
 11
129.48781
 21
18.029664
  0
LINE
  8
_0-1_
  6
CONTINUOUS
 62
    7
 10
129.38781
 20
13.819895
 11
129.38781
 21
18.029664
  0
LINE
  8
_0-1_
  6
CONTINUOUS
 62
    7
 10
129.28781
 20
13.819895
 11
129.28781
 21
18.029664
  0
LINE
  8
_0-1_
  6
CONTINUOUS
 62
    7
 10
129.18781
 20
13.819895
 11
129.18781
 21
18.029664
  0
LINE
  8
_0-1_
  6
CONTINUOUS
 62
    7
 10
129.08781
 20
13.819895
 11
129.08781
 21
18.029664
  0
LINE
  8
_0-1_
  6
CONTINUOUS
 62
    7
 10
128.98781
 20
13.819895
 11
128.98781
 21
18.029664
  0
LINE
  8
_0-1_
  6
CONTINUOUS
 62
    7
 10
128.88781
 20
13.819895
 11
128.88781
 21
18.029664
  0
LINE
  8
_0-1_
  6
CONTINUOUS
 62
    7
 10
128.78781
 20
13.819895
 11
128.78781
 21
18.029664
  0
LINE
  8
_0-1_
  6
CONTINUOUS
 62
    7
 10
128.68781
 20
13.819895
 11
128.68781
 21
18.029664
  0
LINE
  8
_0-1_
  6
CONTINUOUS
 62
    7
 10
128.58781
 20
13.819895
 11
128.58781
 21
18.029664
  0
LINE
  8
_0-1_
  6
CONTINUOUS
 62
    7
 10
128.48781
 20
13.819895
 11
128.48781
 21
18.029664
  0
LINE
  8
_0-1_
  6
CONTINUOUS
 62
    7
 10
128.38781
 20
13.819895
 11
128.38781
 21
18.029664
  0
LINE
  8
_0-1_
  6
CONTINUOUS
 62
    7
 10
128.28781
 20
13.819895
 11
128.28781
 21
18.029664
  0
LINE
  8
_0-1_
  6
CONTINUOUS
 62
    7
 10
128.18781
 20
13.819895
 11
128.18781
 21
18.029664
  0
LINE
  8
_0-1_
  6
CONTINUOUS
 62
    7
 10
128.08781
 20
13.819895
 11
128.08781
 21
18.029664
  0
LINE
  8
_0-1_
  6
CONTINUOUS
 62
    7
 10
127.98781
 20
13.819895
 11
127.98781
 21
18.029664
  0
LINE
  8
_0-1_
  6
CONTINUOUS
 62
    7
 10
127.88781
 20
13.819895
 11
127.88781
 21
18.029664
  0
LINE
  8
_0-1_
  6
CONTINUOUS
 62
    7
 10
127.78781
 20
13.819895
 11
127.78781
 21
18.029664
  0
LINE
  8
_0-1_
  6
CONTINUOUS
 62
    7
 10
127.68781
 20
13.819895
 11
127.68781
 21
18.029664
  0
LINE
  8
_0-1_
  6
CONTINUOUS
 62
    7
 10
127.58781
 20
13.819895
 11
127.58781
 21
18.029664
  0
LINE
  8
_0-1_
  6
CONTINUOUS
 62
    7
 10
127.48781
 20
13.819895
 11
127.48781
 21
18.029664
  0
LINE
  8
_0-1_
  6
CONTINUOUS
 62
    7
 10
127.38781
 20
13.819895
 11
127.38781
 21
18.029664
  0
LINE
  8
_0-1_
  6
CONTINUOUS
 62
    7
 10
127.28781
 20
13.819895
 11
127.28781
 21
18.029664
  0
LINE
  8
_0-1_
  6
CONTINUOUS
 62
    7
 10
127.18781
 20
13.819895
 11
127.18781
 21
18.029664
  0
LINE
  8
_0-1_
  6
CONTINUOUS
 62
    7
 10
127.08781
 20
13.819895
 11
127.08781
 21
18.029664
  0
LINE
  8
_0-1_
  6
CONTINUOUS
 62
    7
 10
126.98781
 20
13.819895
 11
126.98781
 21
18.029664
  0
LINE
  8
_0-1_
  6
CONTINUOUS
 62
    7
 10
126.88781
 20
13.819895
 11
126.88781
 21
18.029664
  0
LINE
  8
_0-1_
  6
CONTINUOUS
 62
    7
 10
126.78781
 20
13.819895
 11
126.78781
 21
18.029664
  0
LINE
  8
_0-1_
  6
CONTINUOUS
 62
    7
 10
126.68781
 20
13.819895
 11
126.68781
 21
18.029664
  0
LINE
  8
_0-1_
  6
CONTINUOUS
 62
    7
 10
126.58781
 20
13.819895
 11
126.58781
 21
18.029664
  0
LINE
  8
_0-1_
  6
CONTINUOUS
 62
    7
 10
126.48781
 20
13.819895
 11
126.48781
 21
18.029664
  0
LINE
  8
_0-1_
  6
CONTINUOUS
 62
    7
 10
126.38781
 20
13.819895
 11
126.38781
 21
18.029664
  0
LINE
  8
_0-1_
  6
CONTINUOUS
 62
    7
 10
126.28781
 20
13.819895
 11
126.28781
 21
18.029664
  0
LINE
  8
_0-1_
  6
CONTINUOUS
 62
    7
 10
126.18781
 20
13.819895
 11
126.18781
 21
18.029664
  0
LINE
  8
_0-1_
  6
CONTINUOUS
 62
    4
 10
128.48756
 20
21.106798
 11
122.7974
 21
13.697979
  0
LINE
  8
_0-1_
  6
CONTINUOUS
 62
    4
 10
122.7974
 20
13.697979
 11
122.23999
 21
13.465728
  0
LINE
  8
_0-1_
  6
CONTINUOUS
 62
    4
 10
122.23999
 20
13.465728
 11
121.72904
 21
13.279927
  0
LINE
  8
_0-1_
  6
CONTINUOUS
 62
    4
 10
121.72904
 20
13.279927
 11
121.45034
 21
13.535403
  0
LINE
  8
_0-1_
  6
CONTINUOUS
 62
    4
 10
121.45034
 20
13.535403
 11
121.21809
 21
13.860555
  0
LINE
  8
_0-1_
  6
CONTINUOUS
 62
    4
 10
121.21809
 20
13.860555
 11
121.03229
 21
14.487634
  0
LINE
  8
_0-1_
  6
CONTINUOUS
 62
    4
 10
121.03229
 20
14.487634
 11
121.21809
 21
15.068262
  0
LINE
  8
_0-1_
  6
CONTINUOUS
 62
    4
 10
121.21809
 20
15.068262
 11
121.91484
 21
16.066943
  0
LINE
  8
_0-1_
  6
CONTINUOUS
 62
    4
 10
121.91484
 20
16.066943
 11
127.16372
 21
23.173835
  0
LINE
  8
_0-1_
  6
CONTINUOUS
 62
    4
 10
127.16372
 20
23.173835
 11
127.16372
 21
23.684788
  0
LINE
  8
_0-1_
  6
CONTINUOUS
 62
    4
 10
127.16372
 20
23.684788
 11
127.30307
 21
24.00994
  0
LINE
  8
_0-1_
  6
CONTINUOUS
 62
    4
 10
127.30307
 20
24.00994
 11
127.67468
 21
24.427992
  0
LINE
  8
_0-1_
  6
CONTINUOUS
 62
    4
 10
127.67468
 20
24.427992
 11
127.7908
 21
24.544118
  0
LINE
  8
_0-1_
  6
CONTINUOUS
 62
    4
 10
127.7908
 20
24.544118
 11
127.99983
 21
24.846044
  0
LINE
  8
_0-1_
  6
CONTINUOUS
 62
    4
 10
127.99983
 20
24.846044
 11
128.3482
 21
24.892495
  0
LINE
  8
_0-1_
  6
CONTINUOUS
 62
    4
 10
128.3482
 20
24.892495
 11
128.95206
 21
25.00862
  0
LINE
  8
_0-1_
  6
CONTINUOUS
 62
    4
 10
128.95206
 20
25.00862
 11
129.18431
 21
24.985395
  0
LINE
  8
_0-1_
  6
CONTINUOUS
 62
    4
 10
129.18431
 20
24.985395
 11
129.67204
 21
24.822819
  0
LINE
  8
_0-1_
  6
CONTINUOUS
 62
    4
 10
129.67204
 20
24.822819
 11
129.85784
 21
24.590568
  0
LINE
  8
_0-1_
  6
CONTINUOUS
 62
    4
 10
129.85784
 20
24.590568
 11
130.36879
 21
23.917039
  0
LINE
  8
_0-1_
  6
CONTINUOUS
 62
    4
 10
130.36879
 20
23.917039
 11
131.9481
 21
21.292599
  0
LINE
  8
_0-1_
  6
CONTINUOUS
 62
    4
 10
133.06696
 20
19.402456
 11
135.31484
 21
15.522102
  0
LINE
  8
_0-1_
  6
CONTINUOUS
 62
    4
 10
135.31484
 20
15.522102
 11
135.53039
 21
14.967819
  0
LINE
  8
_0-1_
  6
CONTINUOUS
 62
    4
 10
135.53039
 20
14.967819
 11
135.43801
 21
14.690678
  0
LINE
  8
_0-1_
  6
CONTINUOUS
 62
    4
 10
135.43801
 20
14.690678
 11
135.16087
 21
14.30576
  0
LINE
  8
_0-1_
  6
CONTINUOUS
 62
    4
 10
135.16087
 20
14.30576
 11
134.0831
 21
13.982428
  0
LINE
  8
_0-1_
  6
CONTINUOUS
 62
    4
 10
134.0831
 20
13.982428
 11
133.43643
 21
13.751477
  0
LINE
  8
_0-1_
  6
CONTINUOUS
 62
    4
 10
133.43643
 20
13.751477
 11
132.86676
 21
13.982428
  0
LINE
  8
_0-1_
  6
CONTINUOUS
 62
    4
 10
132.86676
 20
13.982428
 11
131.98914
 21
14.921629
  0
LINE
  8
_0-1_
  6
CONTINUOUS
 62
    4
 10
131.98914
 20
14.921629
 11
131.95835
 21
15.429721
  0
LINE
  8
_0-1_
  6
CONTINUOUS
 62
    4
 10
131.95835
 20
15.429721
 11
128.48756
 21
21.106798
  0
LINE
  8
_0-1_
  6
CONTINUOUS
 62
    4
 10
135.05282
 20
14.273344
 11
135.35536
 21
14.575892
  0
LINE
  8
_0-1_
  6
CONTINUOUS
 62
    4
 10
134.64875
 20
14.152126
 11
135.51193
 21
15.015297
  0
LINE
  8
_0-1_
  6
CONTINUOUS
 62
    4
 10
134.24469
 20
14.030907
 11
135.43273
 21
15.218944
  0
LINE
  8
_0-1_
  6
CONTINUOUS
 62
    4
 10
133.81908
 20
13.888137
 11
135.35353
 21
15.422591
  0
LINE
  8
_0-1_
  6
CONTINUOUS
 62
    4
 10
133.41021
 20
13.762109
 11
135.26178
 21
15.613683
  0
LINE
  8
_0-1_
  6
CONTINUOUS
 62
    4
 10
133.20896
 20
13.843698
 11
135.15803
 21
15.792777
  0
LINE
  8
_0-1_
  6
CONTINUOUS
 62
    4
 10
133.0077
 20
13.925288
 11
135.05429
 21
15.971871
  0
LINE
  8
_0-1_
  6
CONTINUOUS
 62
    4
 10
132.82581
 20
14.026242
 11
134.95054
 21
16.150965
  0
LINE
  8
_0-1_
  6
CONTINUOUS
 62
    4
 10
132.68919
 20
14.172458
 11
134.84679
 21
16.330059
  0
LINE
  8
_0-1_
  6
CONTINUOUS
 62
    4
 10
132.55256
 20
14.318673
 11
134.74304
 21
16.509154
  0
LINE
  8
_0-1_
  6
CONTINUOUS
 62
    4
 10
132.41593
 20
14.464888
 11
134.63929
 21
16.688248
  0
LINE
  8
_0-1_
  6
CONTINUOUS
 62
    4
 10
132.2793
 20
14.611103
 11
134.53554
 21
16.867342
  0
LINE
  8
_0-1_
  6
CONTINUOUS
 62
    4
 10
132.14268
 20
14.757319
 11
134.4318
 21
17.046436
  0
LINE
  8
_0-1_
  6
CONTINUOUS
 62
    4
 10
132.00605
 20
14.903534
 11
134.32805
 21
17.225531
  0
LINE
  8
_0-1_
  6
CONTINUOUS
 62
    4
 10
131.97498
 20
15.155306
 11
134.2243
 21
17.404625
  0
LINE
  8
_0-1_
  6
CONTINUOUS
 62
    4
 10
131.95882
 20
15.421986
 11
134.12055
 21
17.583719
  0
LINE
  8
_0-1_
  6
CONTINUOUS
 62
    4
 10
131.85415
 20
15.600159
 11
134.0168
 21
17.762813
  0
LINE
  8
_0-1_
  6
CONTINUOUS
 62
    4
 10
131.74683
 20
15.775689
 11
133.91305
 21
17.941908
  0
LINE
  8
_0-1_
  6
CONTINUOUS
 62
    4
 10
131.63952
 20
15.951218
 11
133.8093
 21
18.121002
  0
LINE
  8
_0-1_
  6
CONTINUOUS
 62
    4
 10
131.53221
 20
16.126748
 11
133.70556
 21
18.300096
  0
LINE
  8
_0-1_
  6
CONTINUOUS
 62
    4
 10
131.42489
 20
16.302277
 11
133.60181
 21
18.47919
  0
LINE
  8
_0-1_
  6
CONTINUOUS
 62
    4
 10
131.31758
 20
16.477806
 11
133.49806
 21
18.658285
  0
LINE
  8
_0-1_
  6
CONTINUOUS
 62
    4
 10
131.21027
 20
16.653336
 11
133.39431
 21
18.837379
  0
LINE
  8
_0-1_
  6
CONTINUOUS
 62
    4
 10
131.10295
 20
16.828865
 11
133.29056
 21
19.016473
  0
LINE
  8
_0-1_
  6
CONTINUOUS
 62
    4
 10
130.99564
 20
17.004394
 11
133.18681
 21
19.195567
  0
LINE
  8
_0-1_
  6
CONTINUOUS
 62
    4
 10
130.88833
 20
17.179924
 11
133.08307
 21
19.374661
  0
LINE
  8
_0-1_
  6
CONTINUOUS
 62
    4
 10
130.78101
 20
17.355453
 11
132.82802
 21
19.402456
  0
LINE
  8
_0-1_
  6
CONTINUOUS
 62
    4
 10
130.6737
 20
17.530983
 11
132.54517
 21
19.402456
  0
LINE
  8
_0-1_
  6
CONTINUOUS
 62
    4
 10
130.56639
 20
17.706512
 11
132.26233
 21
19.402456
  0
LINE
  8
_0-1_
  6
CONTINUOUS
 62
    4
 10
130.45907
 20
17.882041
 11
131.97949
 21
19.402456
  0
LINE
  8
_0-1_
  6
CONTINUOUS
 62
    4
 10
130.35176
 20
18.057571
 11
131.69665
 21
19.402456
  0
LINE
  8
_0-1_
  6
CONTINUOUS
 62
    4
 10
130.24445
 20
18.2331
 11
131.4138
 21
19.402456
  0
LINE
  8
_0-1_
  6
CONTINUOUS
 62
    4
 10
130.13713
 20
18.408629
 11
131.13096
 21
19.402456
  0
LINE
  8
_0-1_
  6
CONTINUOUS
 62
    4
 10
130.02982
 20
18.584159
 11
130.86872
 21
19.423061
  0
LINE
  8
_0-1_
  6
CONTINUOUS
 62
    4
 10
129.92251
 20
18.759688
 11
131.25509
 21
20.092274
  0
LINE
  8
_0-1_
  6
CONTINUOUS
 62
    4
 10
129.81519
 20
18.935218
 11
131.64146
 21
20.761487
  0
LINE
  8
_0-1_
  6
CONTINUOUS
 62
    4
 10
129.70788
 20
19.110747
 11
131.92617
 21
21.329039
  0
LINE
  8
_0-1_
  6
CONTINUOUS
 62
    4
 10
129.60057
 20
19.286276
 11
131.81991
 21
21.50562
  0
LINE
  8
_0-1_
  6
CONTINUOUS
 62
    4
 10
129.49325
 20
19.461806
 11
131.71365
 21
21.682201
  0
LINE
  8
_0-1_
  6
CONTINUOUS
 62
    4
 10
129.38594
 20
19.637335
 11
131.60739
 21
21.858783
  0
LINE
  8
_0-1_
  6
CONTINUOUS
 62
    4
 10
129.27863
 20
19.812864
 11
131.50113
 21
22.035364
  0
LINE
  8
_0-1_
  6
CONTINUOUS
 62
    4
 10
129.17131
 20
19.988394
 11
131.39487
 21
22.211946
  0
LINE
  8
_0-1_
  6
CONTINUOUS
 62
    4
 10
122.45567
 20
13.555593
 11
123.45738
 21
14.5573
  0
LINE
  8
_0-1_
  6
CONTINUOUS
 62
    4
 10
129.064
 20
20.163923
 11
131.2886
 21
22.388527
  0
LINE
  8
_0-1_
  6
CONTINUOUS
 62
    4
 10
121.99323
 20
13.375995
 11
124.39382
 21
15.776581
  0
LINE
  8
_0-1_
  6
CONTINUOUS
 62
    4
 10
128.95669
 20
20.339453
 11
131.18234
 21
22.565108
  0
LINE
  8
_0-1_
  6
CONTINUOUS
 62
    4
 10
121.66919
 20
13.334794
 11
125.33025
 21
16.995863
  0
LINE
  8
_0-1_
  6
CONTINUOUS
 62
    4
 10
128.84937
 20
20.514982
 11
131.07608
 21
22.74169
  0
LINE
  8
_0-1_
  6
CONTINUOUS
 62
    4
 10
121.52162
 20
13.470066
 11
126.26669
 21
18.215144
  0
LINE
  8
_0-1_
  6
CONTINUOUS
 62
    4
 10
128.74206
 20
20.690511
 11
130.96982
 21
22.918271
  0
LINE
  8
_0-1_
  6
CONTINUOUS
 62
    4
 10
121.38941
 20
13.620704
 11
127.20313
 21
19.434426
  0
LINE
  8
_0-1_
  6
CONTINUOUS
 62
    4
 10
128.63475
 20
20.866041
 11
130.86356
 21
23.094852
  0
LINE
  8
_0-1_
  6
CONTINUOUS
 62
    4
 10
121.27156
 20
13.785695
 11
128.13957
 21
20.653707
  0
LINE
  8
_0-1_
  6
CONTINUOUS
 62
    4
 10
128.52743
 20
21.04157
 11
130.7573
 21
23.271434
  0
LINE
  8
_0-1_
  6
CONTINUOUS
 62
    4
 10
121.18277
 20
13.97975
 11
130.65104
 21
23.448015
  0
LINE
  8
_0-1_
  6
CONTINUOUS
 62
    4
 10
121.11812
 20
14.197943
 11
130.54477
 21
23.624596
  0
LINE
  8
_0-1_
  6
CONTINUOUS
 62
    4
 10
121.05347
 20
14.416136
 11
130.43851
 21
23.801178
  0
LINE
  8
_0-1_
  6
CONTINUOUS
 62
    4
 10
121.12177
 20
14.767281
 11
130.32684
 21
23.972344
  0
LINE
  8
_0-1_
  6
CONTINUOUS
 62
    4
 10
121.39849
 20
15.326843
 11
130.20483
 21
24.133176
  0
LINE
  8
_0-1_
  6
CONTINUOUS
 62
    4
 10
122.08178
 20
16.292968
 11
130.08282
 21
24.294008
  0
LINE
  8
_0-1_
  6
CONTINUOUS
 62
    4
 10
122.88081
 20
17.374842
 11
129.9608
 21
24.45484
  0
LINE
  8
_0-1_
  6
CONTINUOUS
 62
    4
 10
123.67984
 20
18.456715
 11
129.83822
 21
24.615095
  0
LINE
  8
_0-1_
  6
CONTINUOUS
 62
    4
 10
124.47887
 20
19.538589
 11
129.71251
 21
24.77223
  0
LINE
  8
_0-1_
  6
CONTINUOUS
 62
    4
 10
125.2779
 20
20.620462
 11
129.5282
 21
24.870765
  0
LINE
  8
_0-1_
  6
CONTINUOUS
 62
    4
 10
126.07693
 20
21.702335
 11
129.31607
 21
24.941475
  0
LINE
  8
_0-1_
  6
CONTINUOUS
 62
    4
 10
126.87596
 20
22.784209
 11
129.08689
 21
24.995137
  0
LINE
  8
_0-1_
  6
CONTINUOUS
 62
    4
 10
127.16372
 20
23.354814
 11
128.7855
 21
24.97659
  0
LINE
  8
_0-1_
  6
CONTINUOUS
 62
    4
 10
127.16372
 20
23.637657
 11
128.43531
 21
24.909246
  0
LINE
  8
_0-1_
  6
CONTINUOUS
 62
    4
 10
127.79859
 20
24.555365
 11
128.10303
 21
24.859804
  0
LINE
  8
_0-1_
  6
CONTINUOUS
 62
    4
 10
121.21008
 20
13.887579
 11
121.79408
 21
13.303578
  0
LINE
  8
_0-1_
  6
CONTINUOUS
 62
    4
 10
121.09099
 20
14.289514
 11
122.0015
 21
13.379003
  0
LINE
  8
_0-1_
  6
CONTINUOUS
 62
    4
 10
121.06706
 20
14.596289
 11
122.20892
 21
13.454427
  0
LINE
  8
_0-1_
  6
CONTINUOUS
 62
    4
 10
121.13562
 20
14.810564
 11
122.40974
 21
13.536453
  0
LINE
  8
_0-1_
  6
CONTINUOUS
 62
    4
 10
121.20419
 20
15.024839
 11
122.60939
 21
13.619642
  0
LINE
  8
_0-1_
  6
CONTINUOUS
 62
    4
 10
121.31077
 20
15.201105
 11
122.80456
 21
13.70731
  0
LINE
  8
_0-1_
  6
CONTINUOUS
 62
    4
 10
121.42701
 20
15.367711
 11
122.92743
 21
13.867287
  0
LINE
  8
_0-1_
  6
CONTINUOUS
 62
    4
 10
121.54324
 20
15.534317
 11
123.0503
 21
14.027263
  0
LINE
  8
_0-1_
  6
CONTINUOUS
 62
    4
 10
121.65948
 20
15.700923
 11
123.17316
 21
14.18724
  0
LINE
  8
_0-1_
  6
CONTINUOUS
 62
    4
 10
121.77572
 20
15.867529
 11
123.29603
 21
14.347217
  0
LINE
  8
_0-1_
  6
CONTINUOUS
 62
    4
 10
121.89195
 20
16.034135
 11
123.41889
 21
14.507193
  0
LINE
  8
_0-1_
  6
CONTINUOUS
 62
    4
 10
122.01134
 20
16.197594
 11
123.54176
 21
14.66717
  0
LINE
  8
_0-1_
  6
CONTINUOUS
 62
    4
 10
122.13149
 20
16.360282
 11
123.66463
 21
14.827146
  0
LINE
  8
_0-1_
  6
CONTINUOUS
 62
    4
 10
122.25165
 20
16.522969
 11
123.78749
 21
14.987123
  0
LINE
  8
_0-1_
  6
CONTINUOUS
 62
    4
 10
122.3718
 20
16.685657
 11
123.91036
 21
15.1471
  0
LINE
  8
_0-1_
  6
CONTINUOUS
 62
    4
 10
122.49196
 20
16.848345
 11
124.03322
 21
15.307076
  0
LINE
  8
_0-1_
  6
CONTINUOUS
 62
    4
 10
122.61211
 20
17.011033
 11
124.15609
 21
15.467053
  0
LINE
  8
_0-1_
  6
CONTINUOUS
 62
    4
 10
122.73227
 20
17.17372
 11
124.27896
 21
15.62703
  0
LINE
  8
_0-1_
  6
CONTINUOUS
 62
    4
 10
122.85242
 20
17.336408
 11
124.40182
 21
15.787006
  0
LINE
  8
_0-1_
  6
CONTINUOUS
 62
    4
 10
122.97258
 20
17.499096
 11
124.52469
 21
15.946983
  0
LINE
  8
_0-1_
  6
CONTINUOUS
 62
    4
 10
123.09273
 20
17.661784
 11
124.64755
 21
16.10696
  0
LINE
  8
_0-1_
  6
CONTINUOUS
 62
    4
 10
123.21289
 20
17.824471
 11
124.77042
 21
16.266936
  0
LINE
  8
_0-1_
  6
CONTINUOUS
 62
    4
 10
123.33304
 20
17.987159
 11
124.89329
 21
16.426913
  0
LINE
  8
_0-1_
  6
CONTINUOUS
 62
    4
 10
123.4532
 20
18.149847
 11
125.01615
 21
16.58689
  0
LINE
  8
_0-1_
  6
CONTINUOUS
 62
    4
 10
123.57335
 20
18.312534
 11
125.13902
 21
16.746866
  0
LINE
  8
_0-1_
  6
CONTINUOUS
 62
    4
 10
123.69351
 20
18.475222
 11
125.26189
 21
16.906843
  0
LINE
  8
_0-1_
  6
CONTINUOUS
 62
    4
 10
123.81366
 20
18.63791
 11
125.38475
 21
17.066819
  0
LINE
  8
_0-1_
  6
CONTINUOUS
 62
    4
 10
123.93382
 20
18.800598
 11
125.50762
 21
17.226796
  0
LINE
  8
_0-1_
  6
CONTINUOUS
 62
    4
 10
124.05397
 20
18.963285
 11
125.63048
 21
17.386773
  0
LINE
  8
_0-1_
  6
CONTINUOUS
 62
    4
 10
124.17413
 20
19.125973
 11
125.75335
 21
17.546749
  0
LINE
  8
_0-1_
  6
CONTINUOUS
 62
    4
 10
124.29428
 20
19.288661
 11
125.87622
 21
17.706726
  0
LINE
  8
_0-1_
  6
CONTINUOUS
 62
    4
 10
124.41444
 20
19.451348
 11
125.99908
 21
17.866703
  0
LINE
  8
_0-1_
  6
CONTINUOUS
 62
    4
 10
124.53459
 20
19.614036
 11
126.12195
 21
18.026679
  0
LINE
  8
_0-1_
  6
CONTINUOUS
 62
    4
 10
124.65475
 20
19.776724
 11
126.24481
 21
18.186656
  0
LINE
  8
_0-1_
  6
CONTINUOUS
 62
    4
 10
124.7749
 20
19.939412
 11
126.36768
 21
18.346633
  0
LINE
  8
_0-1_
  6
CONTINUOUS
 62
    4
 10
124.89506
 20
20.102099
 11
126.49055
 21
18.506609
  0
LINE
  8
_0-1_
  6
CONTINUOUS
 62
    4
 10
125.01521
 20
20.264787
 11
126.61341
 21
18.666586
  0
LINE
  8
_0-1_
  6
CONTINUOUS
 62
    4
 10
125.13537
 20
20.427475
 11
126.73628
 21
18.826563
  0
LINE
  8
_0-1_
  6
CONTINUOUS
 62
    4
 10
125.25552
 20
20.590163
 11
126.85914
 21
18.986539
  0
LINE
  8
_0-1_
  6
CONTINUOUS
 62
    4
 10
125.37568
 20
20.75285
 11
126.98201
 21
19.146516
  0
LINE
  8
_0-1_
  6
CONTINUOUS
 62
    4
 10
125.49583
 20
20.915538
 11
127.10488
 21
19.306492
  0
LINE
  8
_0-1_
  6
CONTINUOUS
 62
    4
 10
125.61599
 20
21.078226
 11
127.22774
 21
19.466469
  0
LINE
  8
_0-1_
  6
CONTINUOUS
 62
    4
 10
125.73614
 20
21.240913
 11
127.35061
 21
19.626446
  0
LINE
  8
_0-1_
  6
CONTINUOUS
 62
    4
 10
131.98487
 20
14.992189
 11
133.08181
 21
13.895244
  0
LINE
  8
_0-1_
  6
CONTINUOUS
 62
    4
 10
125.8563
 20
21.403601
 11
127.47347
 21
19.786422
  0
LINE
  8
_0-1_
  6
CONTINUOUS
 62
    4
 10
131.96662
 20
15.293279
 11
133.48948
 21
13.770421
  0
LINE
  8
_0-1_
  6
CONTINUOUS
 62
    4
 10
125.97645
 20
21.566289
 11
127.59634
 21
19.946399
  0
LINE
  8
_0-1_
  6
CONTINUOUS
 62
    4
 10
131.71503
 20
15.827709
 11
133.69789
 21
13.844853
  0
LINE
  8
_0-1_
  6
CONTINUOUS
 62
    4
 10
126.09661
 20
21.728977
 11
127.71921
 21
20.106376
  0
LINE
  8
_0-1_
  6
CONTINUOUS
 62
    4
 10
131.27008
 20
16.555503
 11
133.9063
 21
13.919285
  0
LINE
  8
_0-1_
  6
CONTINUOUS
 62
    4
 10
126.21676
 20
21.891664
 11
127.84207
 21
20.266352
  0
LINE
  8
_0-1_
  6
CONTINUOUS
 62
    4
 10
130.82513
 20
17.283297
 11
134.1161
 21
13.992328
  0
LINE
  8
_0-1_
  6
CONTINUOUS
 62
    4
 10
126.33692
 20
22.054352
 11
127.96494
 21
20.426329
  0
LINE
  8
_0-1_
  6
CONTINUOUS
 62
    4
 10
130.38018
 20
18.011091
 11
134.33367
 21
14.0576
  0
LINE
  8
_0-1_
  6
CONTINUOUS
 62
    4
 10
126.45707
 20
22.21704
 11
128.0878
 21
20.586306
  0
LINE
  8
_0-1_
  6
CONTINUOUS
 62
    4
 10
129.93523
 20
18.738884
 11
134.55124
 21
14.122871
  0
LINE
  8
_0-1_
  6
CONTINUOUS
 62
    4
 10
126.57723
 20
22.379728
 11
128.21067
 21
20.746282
  0
LINE
  8
_0-1_
  6
CONTINUOUS
 62
    4
 10
129.49028
 20
19.466678
 11
134.76881
 21
14.188143
  0
LINE
  8
_0-1_
  6
CONTINUOUS
 62
    4
 10
126.69738
 20
22.542415
 11
128.33354
 21
20.906259
  0
LINE
  8
_0-1_
  6
CONTINUOUS
 62
    4
 10
129.04532
 20
20.194472
 11
134.98638
 21
14.253414
  0
LINE
  8
_0-1_
  6
CONTINUOUS
 62
    4
 10
126.81754
 20
22.705103
 11
128.4564
 21
21.066235
  0
LINE
  8
_0-1_
  6
CONTINUOUS
 62
    4
 10
128.60037
 20
20.922266
 11
135.18431
 21
14.338324
  0
LINE
  8
_0-1_
  6
CONTINUOUS
 62
    4
 10
126.93769
 20
22.867791
 11
135.30271
 21
14.502768
  0
LINE
  8
_0-1_
  6
CONTINUOUS
 62
    4
 10
127.05785
 20
23.030478
 11
135.42111
 21
14.667211
  0
LINE
  8
_0-1_
  6
CONTINUOUS
 62
    4
 10
127.16372
 20
23.207444
 11
130.89778
 21
19.473388
  0
LINE
  8
_0-1_
  6
CONTINUOUS
 62
    4
 10
130.96871
 20
19.402456
 11
135.49863
 21
14.872538
  0
LINE
  8
_0-1_
  6
CONTINUOUS
 62
    4
 10
127.16372
 20
23.490286
 11
131.00131
 21
19.652703
  0
LINE
  8
_0-1_
  6
CONTINUOUS
 62
    4
 10
131.25155
 20
19.402456
 11
135.43124
 21
15.222765
  0
LINE
  8
_0-1_
  6
CONTINUOUS
 62
    4
 10
127.19023
 20
23.746627
 11
131.10483
 21
19.832018
  0
LINE
  8
_0-1_
  6
CONTINUOUS
 62
    4
 10
131.5344
 20
19.402456
 11
135.17726
 21
15.759596
  0
LINE
  8
_0-1_
  6
CONTINUOUS
 62
    4
 10
127.27508
 20
23.944617
 11
131.20836
 21
20.011333
  0
LINE
  8
_0-1_
  6
CONTINUOUS
 62
    4
 10
131.81724
 20
19.402456
 11
134.78779
 21
16.431903
  0
LINE
  8
_0-1_
  6
CONTINUOUS
 62
    4
 10
127.39226
 20
24.110276
 11
131.31189
 21
20.190648
  0
LINE
  8
_0-1_
  6
CONTINUOUS
 62
    4
 10
132.10008
 20
19.402456
 11
134.39833
 21
17.104211
  0
LINE
  8
_0-1_
  6
CONTINUOUS
 62
    4
 10
127.52536
 20
24.260016
 11
131.41542
 21
20.369963
  0
LINE
  8
_0-1_
  6
CONTINUOUS
 62
    4
 10
132.38292
 20
19.402456
 11
134.00886
 21
17.776518
  0
LINE
  8
_0-1_
  6
CONTINUOUS
 62
    4
 10
127.65847
 20
24.409756
 11
131.51894
 21
20.549278
  0
LINE
  8
_0-1_
  6
CONTINUOUS
 62
    4
 10
132.66577
 20
19.402456
 11
133.6194
 21
18.448825
  0
LINE
  8
_0-1_
  6
CONTINUOUS
 62
    4
 10
127.79741
 20
24.553659
 11
131.62247
 21
20.728593
  0
LINE
  8
_0-1_
  6
CONTINUOUS
 62
    4
 10
132.94861
 20
19.402456
 11
133.22993
 21
19.121132
  0
LINE
  8
_0-1_
  6
CONTINUOUS
 62
    4
 10
127.91312
 20
24.720793
 11
131.726
 21
20.907908
  0
LINE
  8
_0-1_
  6
CONTINUOUS
 62
    4
 10
128.06237
 20
24.854383
 11
131.82953
 21
21.087223
  0
LINE
  8
_0-1_
  6
CONTINUOUS
 62
    4
 10
128.31194
 20
24.887659
 11
131.93306
 21
21.266539
  0
LINE
  8
_0-1_
  6
CONTINUOUS
 62
    4
 10
128.55095
 20
24.931485
 11
131.58281
 21
21.899627
  0
LINE
  8
_0-1_
  6
CONTINUOUS
 62
    4
 10
128.78817
 20
24.977104
 11
131.1554
 21
22.609876
  0
LINE
  8
_0-1_
  6
CONTINUOUS
 62
    4
 10
129.04922
 20
24.998905
 11
130.728
 21
23.320126
  0
LINE
  8
_0-1_
  6
CONTINUOUS
 62
    4
 10
129.4262
 20
24.904765
 11
130.22694
 21
24.104022
  0
LINE
  8
_0-1_
  6
CONTINUOUS
 62
    7
 10
136.18781
 20
22.460123
 11
136.18781
 21
25.384147
  0
LINE
  8
_0-1_
  6
CONTINUOUS
 62
    7
 10
135.98781
 20
22.502007
 11
135.98781
 21
25.342263
  0
LINE
  8
_0-1_
  6
CONTINUOUS
 62
    7
 10
135.78781
 20
22.574527
 11
135.78781
 21
25.269743
  0
LINE
  8
_0-1_
  6
CONTINUOUS
 62
    7
 10
135.58781
 20
22.68305
 11
135.58781
 21
25.161221
  0
LINE
  8
_0-1_
  6
CONTINUOUS
 62
    7
 10
135.38781
 20
22.838337
 11
135.38781
 21
25.005933
  0
LINE
  8
_0-1_
  6
CONTINUOUS
 62
    7
 10
135.18781
 20
23.065454
 11
135.18781
 21
24.778816
  0
LINE
  8
_0-1_
  6
CONTINUOUS
 62
    7
 10
134.98781
 20
23.460413
 11
134.98781
 21
24.383858
  0
TEXT
  8
_0-1_
 62
    3
 10
196.77357
 20
17.95337
 40
6
 41
1
 50
0
  1
アドヴァン
  0
TEXT
  8
_0-1_
 62
    7
 10
172.27357
 20
13.93838
 40
3
 41
1
 50
0
  1
TEL 03-3475-0281　　FAX 03-3475-0429
  0
TEXT
  8
_0-1_
 62
    3
 10
173.27357
 20
18.45337
 40
5
 41
1
 50
0
  1
株式会社
  0
LINE
  8
_0-1_
  6
CONTINUOUS
 62
    2
 10
306.75121
 20
19.338966
 11
241.75121
 21
19.338966
  0
LINE
  8
_0-1_
  6
CONTINUOUS
 62
    2
 10
281.75121
 20
19.338966
 11
281.75121
 21
10.338966
  0
LINE
  8
_0-1_
  6
CONTINUOUS
 62
    2
 10
296.75121
 20
19.338966
 11
296.75121
 21
10.338966
  0
LINE
  8
_0-1_
  6
CONTINUOUS
 62
    2
 10
306.75121
 20
16.338966
 11
281.75121
 21
16.338966
  0
LINE
  8
ADD_LINE
  6
DOT
 62
    7
 10
289.25121
 20
19.338966
 11
289.25121
 21
10.338966
  0
TEXT
  8
_0-0_
 62
    4
 10
286.12621
 20
16.588966
 40
2.5
 41
1
 50
0
  1
SCALE
  0
TEXT
  8
_0-0_
 62
    4
 10
298.62621
 20
16.588966
 40
2.5
 41
1
 50
0
  1
DRAWN
  0
LINE
  8
ADD_LINE
  6
DOT
 62
    7
 10
281.75121
 20
17.838966
 11
306.75121
 21
17.838966
  0
LINE
  8
ADD_LINE
  6
DOT
 62
    7
 10
281.75121
 20
13.338966
 11
306.75121
 21
13.338966
  0
LINE
  8
ADD_LINE
  6
DOT
 62
    7
 10
301.75121
 20
19.338966
 11
301.75121
 21
10.338966
  0
LINE
  8
ADD_LINE
  6
DOT
 62
    7
 10
306.75121
 20
26.088966
 11
241.75121
 21
26.088966
  0
LINE
  8
ADD_LINE
  6
DOT
 62
    7
 10
306.75121
 20
23.838966
 11
241.75121
 21
23.838966
  0
LINE
  8
ADD_LINE
  6
DOT
 62
    7
 10
306.75121
 20
21.588966
 11
241.75121
 21
21.588966
  0
LINE
  8
ADD_LINE
  6
DOT
 62
    7
 10
281.75121
 20
12.588966
 11
241.75121
 21
12.588966
  0
LINE
  8
ADD_LINE
  6
DOT
 62
    7
 10
281.75121
 20
14.838966
 11
241.75121
 21
14.838966
  0
LINE
  8
ADD_LINE
  6
DOT
 62
    7
 10
281.75121
 20
17.088966
 11
241.75121
 21
17.088966
  0
LINE
  8
ADD_LINE
  6
DOT
 62
    7
 10
242.75121
 20
28.338966
 11
242.75121
 21
10.338966
  0
LINE
  8
ADD_LINE
  6
DOT
 62
    7
 10
274.25121
 20
28.338966
 11
274.25121
 21
19.338966
  0
LINE
  8
_0-0_
  6
CONTINUOUS
 62
    7
 10
176.34095
 20
208.80691
 11
176.34095
 21
184.38067
  0
LINE
  8
_0-0_
  6
CONTINUOUS
 62
    7
 10
238.86719
 20
208.80691
 11
238.86719
 21
184.38067
  0
LINE
  8
_0-0_
  6
CONTINUOUS
 62
    7
 10
176.34095
 20
141.09476
 11
176.34095
 21
138.59707
  0
LINE
  8
_0-0_
  6
CONTINUOUS
 62
    7
 10
177.08181
 20
138.59707
 11
176.34095
 21
138.59707
  0
LINE
  8
_0-0_
  6
CONTINUOUS
 62
    7
 10
185.76018
 20
141.09476
 11
185.76018
 21
138.59707
  0
LINE
  8
_0-0_
  6
CONTINUOUS
 62
    7
 10
177.08181
 20
138.59707
 11
177.63217
 21
137.98332
  0
LINE
  8
_0-0_
  6
CONTINUOUS
 62
    7
 10
177.63217
 20
137.98332
 11
178.28829
 21
137.45416
  0
LINE
  8
_0-0_
  6
CONTINUOUS
 62
    7
 10
178.28829
 20
137.45416
 11
179.02915
 21
137.05194
  0
LINE
  8
_0-0_
  6
CONTINUOUS
 62
    7
 10
179.02915
 20
137.05194
 11
179.81222
 21
136.77685
  0
LINE
  8
_0-0_
  6
CONTINUOUS
 62
    7
 10
179.81222
 20
136.77685
 11
180.63784
 21
136.62854
  0
LINE
  8
_0-0_
  6
CONTINUOUS
 62
    7
 10
180.63784
 20
136.62854
 11
181.46329
 21
136.62854
  0
LINE
  8
_0-0_
  6
CONTINUOUS
 62
    7
 10
181.46329
 20
136.62854
 11
182.28873
 21
136.77685
  0
LINE
  8
_0-0_
  6
CONTINUOUS
 62
    7
 10
182.28873
 20
136.77685
 11
183.07197
 21
137.05194
  0
LINE
  8
_0-0_
  6
CONTINUOUS
 62
    7
 10
183.07197
 20
137.05194
 11
183.81284
 21
137.45416
  0
LINE
  8
_0-0_
  6
CONTINUOUS
 62
    7
 10
183.81284
 20
137.45416
 11
184.46896
 21
137.98332
  0
LINE
  8
_0-0_
  6
CONTINUOUS
 62
    7
 10
184.46896
 20
137.98332
 11
185.01931
 21
138.59707
  0
LINE
  8
_0-0_
  6
CONTINUOUS
 62
    7
 10
187.15717
 20
138.59707
 11
185.01931
 21
138.59707
  0
LINE
  8
_0-0_
  6
CONTINUOUS
 62
    7
 10
207.60415
 20
138.59707
 11
238.86719
 21
138.59707
  0
LINE
  8
_0-0_
  6
CONTINUOUS
 62
    7
 10
238.86719
 20
141.09476
 11
238.86719
 21
138.59707
  0
LINE
  8
_0-0_
  6
CONTINUOUS
 62
    7
 10
238.86719
 20
141.09476
 11
207.60415
 21
141.09476
  0
LINE
  8
_0-0_
  6
CONTINUOUS
 62
    7
 10
238.12649
 20
138.59707
 11
237.61834
 21
138.0257
  0
LINE
  8
_0-0_
  6
CONTINUOUS
 62
    7
 10
237.61834
 20
138.0257
 11
237.0468
 21
137.53874
  0
LINE
  8
_0-0_
  6
CONTINUOUS
 62
    7
 10
237.0468
 20
137.53874
 11
236.39086
 21
137.13669
  0
LINE
  8
_0-0_
  6
CONTINUOUS
 62
    7
 10
236.39086
 20
137.13669
 11
235.67118
 21
136.86143
  0
LINE
  8
_0-0_
  6
CONTINUOUS
 62
    7
 10
235.67118
 20
136.86143
 11
234.93014
 21
136.67092
  0
LINE
  8
_0-0_
  6
CONTINUOUS
 62
    7
 10
234.93014
 20
136.67092
 11
234.16842
 21
136.62854
  0
LINE
  8
_0-0_
  6
CONTINUOUS
 62
    7
 10
234.16842
 20
136.62854
 11
207.60415
 21
136.62854
  0
LINE
  8
_0-0_
  6
CONTINUOUS
 62
    7
 10
178.11896
 20
137.58111
 11
181.63261
 21
141.09476
  0
LINE
  8
_0-0_
  6
CONTINUOUS
 62
    7
 10
183.0296
 20
141.09476
 11
179.00797
 21
137.05194
  0
LINE
  8
_0-0_
  6
CONTINUOUS
 62
    7
 10
180.0663
 20
136.71329
 11
184.44777
 21
141.09476
  0
LINE
  8
_0-0_
  6
CONTINUOUS
 62
    7
 10
185.76018
 20
141.01019
 11
181.39972
 21
136.62854
  0
LINE
  8
_0-0_
  6
CONTINUOUS
 62
    7
 10
183.34707
 20
137.1789
 11
185.76018
 21
139.59201
  0
LINE
  8
_0-0_
  6
CONTINUOUS
 62
    7
 10
180.23563
 20
141.09476
 11
177.37809
 21
138.23723
  0
LINE
  8
_0-0_
  6
CONTINUOUS
 62
    7
 10
176.34095
 20
138.59707
 11
178.83864
 21
141.09476
  0
LINE
  8
_0-0_
  6
CONTINUOUS
 62
    7
 10
177.42047
 20
141.09476
 11
176.34095
 21
139.99405
  0
LINE
  8
_0-0_
  6
CONTINUOUS
 62
    7
 10
176.34095
 20
138.66063
 11
176.40451
 21
138.59707
  0
LINE
  8
_0-0_
  6
CONTINUOUS
 62
    7
 10
179.55832
 20
136.84024
 11
176.34095
 21
140.0788
  0
LINE
  8
_0-0_
  6
CONTINUOUS
 62
    7
 10
176.72197
 20
141.09476
 11
181.1882
 21
136.62854
  0
LINE
  8
_0-0_
  6
CONTINUOUS
 62
    7
 10
182.41586
 20
136.79804
 11
178.14015
 21
141.09476
  0
LINE
  8
_0-0_
  6
CONTINUOUS
 62
    7
 10
179.53713
 20
141.09476
 11
183.41063
 21
137.22127
  0
LINE
  8
_0-0_
  6
CONTINUOUS
 62
    7
 10
184.23607
 20
137.77162
 11
180.93412
 21
141.09476
  0
LINE
  8
_0-0_
  6
CONTINUOUS
 62
    7
 10
182.35229
 20
141.09476
 11
184.93457
 21
138.4913
  0
LINE
  8
_0-0_
  6
CONTINUOUS
 62
    7
 10
185.76018
 20
139.06285
 11
183.74928
 21
141.09476
  0
LINE
  8
_0-0_
  6
CONTINUOUS
 62
    7
 10
185.14627
 20
141.09476
 11
185.76018
 21
140.48102
  0
LINE
  8
_0-0_
  6
CONTINUOUS
 62
    7
 10
238.12649
 20
138.59707
 11
238.86719
 21
138.59707
  0
LINE
  8
_0-0_
  6
CONTINUOUS
 62
    7
 10
185.01931
 20
138.59707
 11
185.76018
 21
138.59707
  0
LINE
  8
_0-0_
  6
CONTINUOUS
 62
    7
 10
176.34095
 20
141.09476
 11
187.15717
 21
141.09476
  0
LINE
  8
_0-0_
  6
CONTINUOUS
 62
    7
 10
181.03988
 20
136.62854
 11
187.15717
 21
136.62854
  0
LINE
  8
_0-0_
  6
CONTINUOUS
 62
    7
 10
187.72854
 20
169.45806
 11
178.30947
 21
169.45806
  0
LINE
  8
_0-0_
  6
CONTINUOUS
 62
    7
 10
178.30947
 20
169.45806
 11
178.30947
 21
174.41108
  0
LINE
  8
_0-0_
  6
CONTINUOUS
 62
    7
 10
186.26816
 20
169.45806
 11
186.26816
 21
174.41108
  0
LINE
  8
_0-0_
  6
CONTINUOUS
 62
    7
 10
236.89866
 20
174.41108
 11
207.60415
 21
174.41108
  0
LINE
  8
_0-0_
  6
CONTINUOUS
 62
    7
 10
207.60415
 20
169.45806
 11
236.89866
 21
169.45806
  0
LINE
  8
_0-0_
  6
CONTINUOUS
 62
    7
 10
236.89866
 20
169.45806
 11
236.89866
 21
174.41108
  0
LINE
  8
_0-0_
  6
CONTINUOUS
 62
    7
 10
180.89175
 20
169.45806
 11
185.84476
 21
174.41108
  0
LINE
  8
_0-0_
  6
CONTINUOUS
 62
    7
 10
186.26816
 20
172.01932
 11
183.68572
 21
169.45806
  0
LINE
  8
_0-0_
  6
CONTINUOUS
 62
    7
 10
178.30947
 20
169.69095
 11
183.0296
 21
174.41108
  0
LINE
  8
_0-0_
  6
CONTINUOUS
 62
    7
 10
180.23563
 20
174.41108
 11
178.30947
 21
172.50611
  0
LINE
  8
_0-0_
  6
CONTINUOUS
 62
    7
 10
178.30947
 20
171.4054
 11
180.278
 21
169.45806
  0
LINE
  8
_0-0_
  6
CONTINUOUS
 62
    7
 10
183.09316
 20
169.45806
 11
178.30947
 21
174.22056
  0
LINE
  8
_0-0_
  6
CONTINUOUS
 62
    7
 10
180.93412
 20
174.41108
 11
185.90832
 21
169.45806
  0
LINE
  8
_0-0_
  6
CONTINUOUS
 62
    7
 10
186.26816
 20
171.89219
 11
183.74928
 21
174.41108
  0
LINE
  8
_0-0_
  6
CONTINUOUS
 62
    7
 10
178.30947
 20
174.41108
 11
187.72854
 21
174.41108
  0
LINE
  8
_0-0_
  6
CONTINUOUS
 62
    7
 10
173.84325
 20
234.48217
 11
175.62127
 21
238.88483
  0
LINE
  8
_0-0_
  6
CONTINUOUS
 62
    7
 10
176.38332
 20
239.49858
 11
195.87774
 21
242.92765
  0
LINE
  8
_0-0_
  6
CONTINUOUS
 62
    7
 10
207.60415
 20
242.92765
 11
195.87774
 21
242.92765
  0
LINE
  8
_0-0_
  6
CONTINUOUS
 62
    7
 10
173.84325
 20
234.48217
 11
207.60415
 21
234.48217
  0
LINE
  8
_0-0_
  6
CONTINUOUS
 62
    7
 10
176.04467
 20
237.33971
 11
176.82774
 21
236.97969
  0
LINE
  8
_0-0_
  6
CONTINUOUS
 62
    7
 10
174.45717
 20
234.48217
 11
176.82774
 21
236.97969
  0
LINE
  8
_0-0_
  6
CONTINUOUS
 62
    7
 10
176.04467
 20
238.41905
 11
195.96249
 21
241.93271
  0
LINE
  8
_0-0_
  6
CONTINUOUS
 62
    7
 10
207.60415
 20
241.93271
 11
195.96249
 21
241.93271
  0
LINE
  8
_0-0_
  6
CONTINUOUS
 62
    7
 10
176.04467
 20
238.41905
 11
176.04467
 21
237.33971
  0
LINE
  8
_0-0_
  6
CONTINUOUS
 62
    7
 10
176.82774
 20
236.97969
 11
207.60415
 21
236.97969
  0
LINE
  8
_0-0_
  6
CONTINUOUS
 62
    7
 10
176.04467
 20
237.33971
 11
207.60415
 21
237.33971
  0
LINE
  8
_0-0_
  6
CONTINUOUS
 62
    7
 10
176.04467
 20
238.41905
 11
207.60415
 21
238.41905
  0
LINE
  8
_0-0_
  6
CONTINUOUS
 62
    7
 10
176.38332
 20
239.49858
 11
176.06586
 21
239.37162
  0
LINE
  8
_0-0_
  6
CONTINUOUS
 62
    7
 10
176.06586
 20
239.37162
 11
175.81178
 21
239.15992
  0
LINE
  8
_0-0_
  6
CONTINUOUS
 62
    7
 10
175.81178
 20
239.15992
 11
175.62127
 21
238.88483
  0
LINE
  8
_0-0_
  6
CONTINUOUS
 62
    7
 10
241.36488
 20
234.48217
 11
207.60415
 21
234.48217
  0
LINE
  8
_0-0_
  6
CONTINUOUS
 62
    7
 10
241.36488
 20
234.48217
 11
239.58687
 21
238.88483
  0
LINE
  8
_0-0_
  6
CONTINUOUS
 62
    7
 10
238.82482
 20
239.49858
 11
239.14245
 21
239.37162
  0
LINE
  8
_0-0_
  6
CONTINUOUS
 62
    7
 10
239.14245
 20
239.37162
 11
239.41772
 21
239.15992
  0
LINE
  8
_0-0_
  6
CONTINUOUS
 62
    7
 10
239.41772
 20
239.15992
 11
239.58687
 21
238.88483
  0
LINE
  8
_0-0_
  6
CONTINUOUS
 62
    7
 10
238.82482
 20
239.49858
 11
219.3304
 21
242.92765
  0
LINE
  8
_0-0_
  6
CONTINUOUS
 62
    7
 10
207.60415
 20
242.92765
 11
219.3304
 21
242.92765
  0
LINE
  8
_0-0_
  6
CONTINUOUS
 62
    7
 10
239.58687
 20
238.88483
 11
207.60415
 21
238.88483
  0
LINE
  8
_0-0_
  6
CONTINUOUS
 62
    7
 10
174.26665
 20
234.48217
 11
176.78554
 21
237.00105
  0
LINE
  8
_0-0_
  6
CONTINUOUS
 62
    7
 10
178.66931
 20
238.88483
 11
179.89697
 21
240.11249
  0
LINE
  8
_0-0_
  6
CONTINUOUS
 62
    7
 10
182.43687
 20
240.55691
 11
181.2304
 21
239.32925
  0
LINE
  8
_0-0_
  6
CONTINUOUS
 62
    7
 10
183.77047
 20
239.79503
 11
184.99813
 21
241.0015
  0
LINE
  8
_0-0_
  6
CONTINUOUS
 62
    7
 10
187.55921
 20
241.4671
 11
186.33155
 21
240.23944
  0
LINE
  8
_0-0_
  6
CONTINUOUS
 62
    7
 10
188.89281
 20
240.68386
 11
190.12047
 21
241.91169
  0
LINE
  8
_0-0_
  6
CONTINUOUS
 62
    7
 10
192.68155
 20
242.35611
 11
191.45389
 21
241.14964
  0
LINE
  8
_0-0_
  6
CONTINUOUS
 62
    7
 10
194.01515
 20
241.59405
 11
195.22162
 21
242.82189
  0
LINE
  8
_0-0_
  6
CONTINUOUS
 62
    7
 10
197.44405
 20
242.92765
 11
196.44928
 21
241.93271
  0
LINE
  8
_0-0_
  6
CONTINUOUS
 62
    7
 10
198.56595
 20
241.93271
 11
199.56072
 21
242.92765
  0
LINE
  8
_0-0_
  6
CONTINUOUS
 62
    7
 10
201.65637
 20
242.92765
 11
200.66143
 21
241.93271
  0
LINE
  8
_0-0_
  6
CONTINUOUS
 62
    7
 10
202.77809
 20
241.93271
 11
203.77304
 21
242.92765
  0
LINE
  8
_0-0_
  6
CONTINUOUS
 62
    7
 10
205.86852
 20
242.92765
 11
204.87357
 21
241.93271
  0
LINE
  8
_0-0_
  6
CONTINUOUS
 62
    7
 10
206.99024
 20
241.93271
 11
207.60415
 21
242.54662
  0
LINE
  8
_0-0_
  6
CONTINUOUS
 62
    7
 10
177.33572
 20
239.6679
 11
176.10806
 21
238.44024
  0
LINE
  8
_0-0_
  6
CONTINUOUS
 62
    7
 10
176.04467
 20
238.35567
 11
175.00752
 21
237.31852
  0
LINE
  8
_0-0_
  6
CONTINUOUS
 62
    7
 10
187.72854
 20
175.99858
 11
187.72854
 21
167.42614
  0
LINE
  8
_0-0_
  6
CONTINUOUS
 62
    7
 10
187.72854
 20
155.50939
 11
187.72854
 21
153.37136
  0
LINE
  8
_0-0_
  6
CONTINUOUS
 62
    7
 10
187.13598
 20
153.37136
 11
187.72854
 21
153.37136
  0
LINE
  8
_0-0_
  6
CONTINUOUS
 62
    7
 10
207.58297
 20
125.5796
 11
189.61249
 21
125.5796
  0
LINE
  8
_0-0_
  6
CONTINUOUS
 62
    7
 10
195.66604
 20
167.42614
 11
189.21027
 21
167.42614
  0
LINE
  8
_0-0_
  6
CONTINUOUS
 62
    7
 10
195.66604
 20
155.50939
 11
189.21027
 21
155.50939
  0
LINE
  8
_0-0_
  6
CONTINUOUS
 62
    7
 10
195.66604
 20
167.42614
 11
195.66604
 21
155.50939
  0
LINE
  8
_0-0_
  6
CONTINUOUS
 62
    7
 10
195.77197
 20
153.87951
 11
190.12047
 21
153.87951
  0
LINE
  8
_0-0_
  6
CONTINUOUS
 62
    7
 10
190.12047
 20
151.55114
 11
190.12047
 21
153.87951
  0
LINE
  8
_0-0_
  6
CONTINUOUS
 62
    7
 10
195.77197
 20
153.87951
 11
198.05797
 21
153.87951
  0
LINE
  8
_0-0_
  6
CONTINUOUS
 62
    7
 10
203.11675
 20
153.87951
 11
198.05797
 21
153.87951
  0
LINE
  8
_0-0_
  6
CONTINUOUS
 62
    7
 10
203.11675
 20
151.55114
 11
203.11675
 21
153.87951
  0
LINE
  8
_0-0_
  6
CONTINUOUS
 62
    7
 10
187.72854
 20
167.42614
 11
189.21027
 21
167.42614
  0
LINE
  8
_0-0_
  6
CONTINUOUS
 62
    7
 10
187.72854
 20
155.50939
 11
189.21027
 21
155.50939
  0
LINE
  8
_0-0_
  6
CONTINUOUS
 62
    7
 10
188.13075
 20
125.5796
 11
189.61249
 21
125.5796
  0
LINE
  8
_0-0_
  6
CONTINUOUS
 62
    7
 10
187.13598
 20
153.37136
 11
187.13598
 21
126.57437
  0
LINE
  8
_0-0_
  6
CONTINUOUS
 62
    7
 10
187.13598
 20
126.57437
 11
188.13075
 21
125.5796
  0
LINE
  8
_0-0_
  6
CONTINUOUS
 62
    7
 10
187.07242
 20
180.63412
 11
187.72854
 21
175.99858
  0
LINE
  8
_0-0_
  6
CONTINUOUS
 62
    7
 10
196.17419
 20
185.14272
 11
176.61604
 21
185.14272
  0
LINE
  8
_0-0_
  6
CONTINUOUS
 62
    7
 10
177.58979
 20
183.57624
 11
185.23102
 21
182.49689
  0
LINE
  8
_0-0_
  6
CONTINUOUS
 62
    7
 10
176.31976
 20
184.84627
 11
176.31976
 21
184.35948
  0
LINE
  8
_0-0_
  6
CONTINUOUS
 62
    7
 10
176.31976
 20
184.35948
 11
177.58979
 21
183.57624
  0
LINE
  8
_0-0_
  6
CONTINUOUS
 62
    7
 10
189.21027
 20
153.87951
 11
190.12047
 21
153.87951
  0
LINE
  8
_0-0_
  6
CONTINUOUS
 62
    7
 10
207.58297
 20
153.87951
 11
204.11169
 21
153.87951
  0
LINE
  8
_0-0_
  6
CONTINUOUS
 62
    7
 10
203.11675
 20
153.87951
 11
204.11169
 21
153.87951
  0
LINE
  8
_0-0_
  6
CONTINUOUS
 62
    7
 10
207.58297
 20
148.58785
 11
205.10646
 21
148.58785
  0
LINE
  8
_0-0_
  6
CONTINUOUS
 62
    7
 10
207.58297
 20
152.88457
 11
205.10646
 21
152.88457
  0
LINE
  8
_0-0_
  6
CONTINUOUS
 62
    7
 10
205.10646
 20
148.58785
 11
205.10646
 21
152.88457
  0
LINE
  8
_0-0_
  6
CONTINUOUS
 62
    7
 10
205.10646
 20
152.88457
 11
204.11169
 21
153.87951
  0
LINE
  8
_0-0_
  6
CONTINUOUS
 62
    7
 10
205.10646
 20
148.58785
 11
204.11169
 21
148.58785
  0
LINE
  8
_0-0_
  6
CONTINUOUS
 62
    7
 10
203.62472
 20
149.07464
 11
204.11169
 21
148.58785
  0
LINE
  8
_0-0_
  6
CONTINUOUS
 62
    7
 10
204.40797
 20
153.56187
 11
204.40797
 21
148.58785
  0
LINE
  8
_0-0_
  6
CONTINUOUS
 62
    7
 10
188.13075
 20
125.77012
 11
188.13075
 21
153.18102
  0
LINE
  8
_0-0_
  6
CONTINUOUS
 62
    7
 10
176.31976
 20
184.84627
 11
176.61604
 21
185.14272
  0
LINE
  8
_0-0_
  6
CONTINUOUS
 62
    7
 10
176.61604
 20
185.14272
 11
187.85566
 21
184.21134
  0
LINE
  8
_0-0_
  6
CONTINUOUS
 62
    7
 10
188.17313
 20
183.83031
 11
188.85043
 21
181.24804
  0
LINE
  8
_0-0_
  6
CONTINUOUS
 62
    7
 10
187.85566
 20
184.21134
 11
188.17313
 21
183.83031
  0
LINE
  8
_0-0_
  6
CONTINUOUS
 62
    7
 10
188.85043
 20
181.24804
 11
189.21027
 21
180.65531
  0
LINE
  8
_0-0_
  6
CONTINUOUS
 62
    7
 10
197.3171
 20
180.63412
 11
189.21027
 21
180.63412
  0
LINE
  8
_0-0_
  6
CONTINUOUS
 62
    7
 10
189.21027
 20
180.65531
 11
189.21027
 21
167.42614
  0
LINE
  8
_0-0_
  6
CONTINUOUS
 62
    7
 10
203.62472
 20
149.07464
 11
203.62472
 21
151.55114
  0
LINE
  8
_0-0_
  6
CONTINUOUS
 62
    7
 10
203.62472
 20
151.55114
 11
189.21027
 21
151.55114
  0
LINE
  8
_0-0_
  6
CONTINUOUS
 62
    7
 10
189.21027
 20
151.55114
 11
189.21027
 21
127.56932
  0
LINE
  8
_0-0_
  6
CONTINUOUS
 62
    7
 10
189.71825
 20
127.56932
 11
189.71825
 21
125.5796
  0
LINE
  8
_0-0_
  6
CONTINUOUS
 62
    7
 10
207.58297
 20
127.56932
 11
189.21027
 21
127.56932
  0
LINE
  8
_0-0_
  6
CONTINUOUS
 62
    7
 10
189.21027
 20
153.87951
 11
189.21027
 21
155.50939
  0
LINE
  8
_0-0_
  6
CONTINUOUS
 62
    7
 10
188.13075
 20
153.18102
 11
187.13598
 21
153.18102
  0
LINE
  8
_0-0_
  6
CONTINUOUS
 62
    7
 10
188.82925
 20
125.5796
 11
187.13598
 21
127.27304
  0
LINE
  8
_0-0_
  6
CONTINUOUS
 62
    7
 10
187.13598
 20
130.0882
 11
189.21027
 21
127.99255
  0
LINE
  8
_0-0_
  6
CONTINUOUS
 62
    7
 10
189.65486
 20
127.56932
 11
189.71825
 21
127.50576
  0
LINE
  8
_0-0_
  6
CONTINUOUS
 62
    7
 10
189.21027
 20
130.80771
 11
187.13598
 21
132.88217
  0
LINE
  8
_0-0_
  6
CONTINUOUS
 62
    7
 10
187.13598
 20
135.69733
 11
189.21027
 21
133.60185
  0
LINE
  8
_0-0_
  6
CONTINUOUS
 62
    7
 10
189.21027
 20
136.41701
 11
187.13598
 21
138.51249
  0
LINE
  8
_0-0_
  6
CONTINUOUS
 62
    7
 10
187.13598
 20
141.30646
 11
189.21027
 21
139.23217
  0
LINE
  8
_0-0_
  6
CONTINUOUS
 62
    7
 10
189.21027
 20
142.02614
 11
187.13598
 21
144.12162
  0
LINE
  8
_0-0_
  6
CONTINUOUS
 62
    7
 10
187.13598
 20
146.93678
 11
189.21027
 21
144.8413
  0
LINE
  8
_0-0_
  6
CONTINUOUS
 62
    7
 10
189.21027
 20
147.65646
 11
187.13598
 21
149.73076
  0
LINE
  8
_0-0_
  6
CONTINUOUS
 62
    7
 10
187.13598
 20
152.54592
 11
189.21027
 21
150.45044
  0
LINE
  8
_0-0_
  6
CONTINUOUS
 62
    7
 10
190.12047
 20
152.37659
 11
187.72854
 21
154.74733
  0
LINE
  8
_0-0_
  6
CONTINUOUS
 62
    7
 10
189.10451
 20
167.42614
 11
187.72854
 21
168.80194
  0
LINE
  8
_0-0_
  6
CONTINUOUS
 62
    7
 10
187.72854
 20
171.59592
 11
189.21027
 21
170.11435
  0
LINE
  8
_0-0_
  6
CONTINUOUS
 62
    7
 10
189.21027
 20
172.92951
 11
187.72854
 21
174.41108
  0
LINE
  8
_0-0_
  6
CONTINUOUS
 62
    7
 10
178.7327
 20
183.40691
 11
177.03944
 21
185.10035
  0
LINE
  8
_0-0_
  6
CONTINUOUS
 62
    7
 10
180.10868
 20
184.84627
 11
181.99245
 21
182.96249
  0
LINE
  8
_0-0_
  6
CONTINUOUS
 62
    7
 10
187.5382
 20
177.41675
 11
189.21027
 21
175.72348
  0
LINE
  8
_0-0_
  6
CONTINUOUS
 62
    7
 10
189.21027
 20
178.53864
 11
187.07242
 21
180.6765
  0
LINE
  8
_0-0_
  6
CONTINUOUS
 62
    7
 10
185.27322
 20
182.49689
 11
183.15655
 21
184.59219
  0
LINE
  8
_0-0_
  6
CONTINUOUS
 62
    7
 10
186.22579
 20
184.33829
 11
188.68111
 21
181.88297
  0
LINE
  8
_0-0_
  6
CONTINUOUS
 62
    7
 10
187.07242
 20
180.63412
 11
186.92428
 21
181.18448
  0
LINE
  8
_0-0_
  6
CONTINUOUS
 62
    7
 10
186.92428
 20
181.18448
 11
186.64919
 21
181.67127
  0
LINE
  8
_0-0_
  6
CONTINUOUS
 62
    7
 10
186.64919
 20
181.67127
 11
186.24697
 21
182.07348
  0
LINE
  8
_0-0_
  6
CONTINUOUS
 62
    7
 10
186.24697
 20
182.07348
 11
185.76018
 21
182.34858
  0
LINE
  8
_0-0_
  6
CONTINUOUS
 62
    7
 10
185.76018
 20
182.34858
 11
185.23102
 21
182.49689
  0
LINE
  8
_0-0_
  6
CONTINUOUS
 62
    7
 10
205.10646
 20
148.60886
 11
203.62472
 21
150.11178
  0
LINE
  8
_0-0_
  6
CONTINUOUS
 62
    7
 10
203.11675
 20
153.41374
 11
205.10646
 21
151.42419
  0
LINE
  8
_0-0_
  6
CONTINUOUS
 62
    7
 10
227.4374
 20
155.50939
 11
227.4374
 21
153.37136
  0
LINE
  8
_0-0_
  6
CONTINUOUS
 62
    7
 10
228.09334
 20
180.63412
 11
227.4374
 21
175.99858
  0
LINE
  8
_0-0_
  6
CONTINUOUS
 62
    7
 10
237.57597
 20
183.57624
 11
229.95611
 21
182.49689
  0
LINE
  8
_0-0_
  6
CONTINUOUS
 62
    7
 10
238.86719
 20
184.84627
 11
238.86719
 21
184.35948
  0
LINE
  8
_0-0_
  6
CONTINUOUS
 62
    7
 10
238.86719
 20
184.35948
 11
237.57597
 21
183.57624
  0
LINE
  8
_0-0_
  6
CONTINUOUS
 62
    7
 10
227.4374
 20
175.99858
 11
207.58297
 21
175.99858
  0
LINE
  8
_0-0_
  6
CONTINUOUS
 62
    7
 10
228.02995
 20
153.37136
 11
207.58297
 21
153.37136
  0
LINE
  8
_0-0_
  6
CONTINUOUS
 62
    7
 10
227.4374
 20
180.78226
 11
207.58297
 21
180.78226
  0
LINE
  8
_0-0_
  6
CONTINUOUS
 62
    7
 10
228.24148
 20
182.47553
 11
207.58297
 21
182.47553
  0
LINE
  8
_0-0_
  6
CONTINUOUS
 62
    7
 10
227.03501
 20
141.09476
 11
227.03501
 21
153.37136
  0
LINE
  8
_0-0_
  6
CONTINUOUS
 62
    7
 10
207.58297
 20
184.84627
 11
238.86719
 21
184.84627
  0
LINE
  8
_0-0_
  6
CONTINUOUS
 62
    7
 10
228.09334
 20
180.63412
 11
228.24148
 21
181.18448
  0
LINE
  8
_0-0_
  6
CONTINUOUS
 62
    7
 10
228.24148
 20
181.18448
 11
228.51675
 21
181.67127
  0
LINE
  8
_0-0_
  6
CONTINUOUS
 62
    7
 10
228.51675
 20
181.67127
 11
228.91879
 21
182.07348
  0
LINE
  8
_0-0_
  6
CONTINUOUS
 62
    7
 10
228.91879
 20
182.07348
 11
229.40592
 21
182.34858
  0
LINE
  8
_0-0_
  6
CONTINUOUS
 62
    7
 10
229.40592
 20
182.34858
 11
229.95611
 21
182.49689
  0
LINE
  8
_0-0_
  6
CONTINUOUS
 62
    7
 10
219.4999
 20
167.42614
 11
225.95566
 21
167.42614
  0
LINE
  8
_0-0_
  6
CONTINUOUS
 62
    7
 10
219.4999
 20
167.42614
 11
219.4999
 21
155.50939
  0
LINE
  8
_0-0_
  6
CONTINUOUS
 62
    7
 10
219.4999
 20
155.50939
 11
225.95566
 21
155.50939
  0
LINE
  8
_0-0_
  6
CONTINUOUS
 62
    7
 10
227.4374
 20
167.42614
 11
225.95566
 21
167.42614
  0
LINE
  8
_0-0_
  6
CONTINUOUS
 62
    7
 10
227.4374
 20
155.50939
 11
225.95566
 21
155.50939
  0
LINE
  8
_0-0_
  6
CONTINUOUS
 62
    7
 10
227.4374
 20
169.45806
 11
227.4374
 21
167.42614
  0
LINE
  8
_0-0_
  6
CONTINUOUS
 62
    7
 10
187.13598
 20
126.57437
 11
188.13075
 21
125.5796
  0
LINE
  8
_0-0_
  6
CONTINUOUS
 62
    7
 10
187.13598
 20
126.57437
 11
188.13075
 21
125.5796
  0
LINE
  8
_0-0_
  6
CONTINUOUS
 62
    7
 10
228.02995
 20
153.37136
 11
228.02995
 21
141.09476
  0
LINE
  8
_0-0_
  6
CONTINUOUS
 62
    7
 10
227.03501
 20
134.15221
 11
227.03501
 21
136.62854
  0
LINE
  8
_0-0_
  6
CONTINUOUS
 62
    7
 10
228.02995
 20
136.62854
 11
228.02995
 21
134.15221
  0
LINE
  8
_0-0_
  6
CONTINUOUS
 62
    7
 10
227.4374
 20
175.99858
 11
227.4374
 21
174.41108
  0
LINE
  8
_0-0_
  6
CONTINUOUS
 62
    7
 10
188.85043
 20
181.24804
 11
197.3171
 21
181.24804
  0
LINE
  8
_0-0_
  6
CONTINUOUS
 62
    7
 10
187.85566
 20
184.21134
 11
196.17419
 21
184.21134
  0
LINE
  8
_0-0_
  6
CONTINUOUS
 62
    7
 10
188.17313
 20
183.83031
 11
196.17419
 21
183.83031
  0
LINE
  8
_0-0_
  6
CONTINUOUS
 62
    7
 10
188.17313
 20
183.83031
 11
196.17419
 21
183.83031
  0
LINE
  8
_0-0_
  6
CONTINUOUS
 62
    7
 10
187.85566
 20
184.21134
 11
196.17419
 21
184.21134
  0
LINE
  8
_0-0_
  6
CONTINUOUS
 62
    7
 10
235.52304
 20
183.57624
 11
207.58297
 21
183.57624
  0
LINE
  8
_0-0_
  6
CONTINUOUS
 62
    7
 10
238.86719
 20
184.35948
 11
207.58297
 21
184.35948
  0
LINE
  8
_0-0_
  6
CONTINUOUS
 62
    7
 10
238.5499
 20
185.14272
 11
207.58297
 21
185.14272
  0
LINE
  8
_0-0_
  6
CONTINUOUS
 62
    7
 10
198.18492
 20
164.92845
 11
198.18492
 21
179.23714
  0
LINE
  8
_0-0_
  6
CONTINUOUS
 62
    7
 10
205.4663
 20
147.95274
 11
207.60415
 21
147.95274
  0
LINE
  8
_0-0_
  6
CONTINUOUS
 62
    7
 10
204.47153
 20
148.94769
 11
204.47153
 21
154.40868
  0
LINE
  8
_0-0_
  6
CONTINUOUS
 62
    7
 10
204.47153
 20
148.94769
 11
205.4663
 21
147.95274
  0
LINE
  8
_0-0_
  6
CONTINUOUS
 62
    7
 10
199.45495
 20
154.40868
 11
199.45495
 21
164.92845
  0
LINE
  8
_0-0_
  6
CONTINUOUS
 62
    7
 10
198.18492
 20
164.92845
 11
207.60415
 21
164.92845
  0
LINE
  8
_0-0_
  6
CONTINUOUS
 62
    7
 10
198.01559
 20
191.64086
 11
207.60415
 21
191.64086
  0
LINE
  8
_0-0_
  6
CONTINUOUS
 62
    7
 10
197.3171
 20
179.23714
 11
197.3171
 21
182.70842
  0
LINE
  8
_0-0_
  6
CONTINUOUS
 62
    7
 10
197.3171
 20
179.23714
 11
207.60415
 21
179.23714
  0
LINE
  8
_0-0_
  6
CONTINUOUS
 62
    7
 10
203.73066
 20
198.09662
 11
207.58297
 21
198.09662
  0
LINE
  8
_0-0_
  6
CONTINUOUS
 62
    7
 10
202.73572
 20
191.64086
 11
202.73572
 21
197.10185
  0
LINE
  8
_0-0_
  6
CONTINUOUS
 62
    7
 10
205.4663
 20
147.95274
 11
205.4663
 21
154.40868
  0
LINE
  8
_0-0_
  6
CONTINUOUS
 62
    7
 10
198.01559
 20
179.23714
 11
198.01559
 21
191.64086
  0
LINE
  8
_0-0_
  6
CONTINUOUS
 62
    7
 10
199.45495
 20
154.40868
 11
207.60415
 21
154.40868
  0
LINE
  8
_0-0_
  6
CONTINUOUS
 62
    7
 10
202.73572
 20
197.10185
 11
202.82047
 21
197.48271
  0
LINE
  8
_0-0_
  6
CONTINUOUS
 62
    7
 10
202.82047
 20
197.48271
 11
203.03217
 21
197.80035
  0
LINE
  8
_0-0_
  6
CONTINUOUS
 62
    7
 10
203.03217
 20
197.80035
 11
203.34963
 21
198.01187
  0
LINE
  8
_0-0_
  6
CONTINUOUS
 62
    7
 10
203.34963
 20
198.01187
 11
203.73066
 21
198.09662
  0
LINE
  8
_0-0_
  6
CONTINUOUS
 62
    7
 10
195.66604
 20
191.23864
 11
195.66604
 21
187.17464
  0
LINE
  8
_0-0_
  6
CONTINUOUS
 62
    7
 10
196.17419
 20
186.17969
 11
196.17419
 21
182.79317
  0
LINE
  8
_0-0_
  6
CONTINUOUS
 62
    7
 10
193.73988
 20
186.17969
 11
196.17419
 21
186.17969
  0
LINE
  8
_0-0_
  6
CONTINUOUS
 62
    7
 10
193.23191
 20
191.23864
 11
195.66604
 21
191.23864
  0
LINE
  8
_0-0_
  6
CONTINUOUS
 62
    7
 10
193.23191
 20
191.23864
 11
192.93563
 21
191.53492
  0
LINE
  8
_0-0_
  6
CONTINUOUS
 62
    7
 10
193.73988
 20
186.17969
 11
193.44361
 21
186.47614
  0
LINE
  8
_0-0_
  6
CONTINUOUS
 62
    7
 10
176.80655
 20
195.9164
 11
192.15238
 21
195.9164
  0
LINE
  8
_0-0_
  6
CONTINUOUS
 62
    7
 10
192.93563
 20
195.11214
 11
192.93563
 21
191.53492
  0
LINE
  8
_0-0_
  6
CONTINUOUS
 62
    7
 10
193.44361
 20
186.87836
 11
193.44361
 21
186.47614
  0
LINE
  8
_0-0_
  6
CONTINUOUS
 62
    7
 10
195.66604
 20
187.17464
 11
195.56027
 21
187.17464
  0
LINE
  8
_0-0_
  6
CONTINUOUS
 62
    7
 10
195.56027
 20
187.17464
 11
193.44361
 21
186.87836
  0
LINE
  8
_0-0_
  6
CONTINUOUS
 62
    7
 10
198.01559
 20
196.59387
 11
198.01559
 21
183.49166
  0
LINE
  8
_0-0_
  6
CONTINUOUS
 62
    7
 10
198.01559
 20
183.49166
 11
197.02082
 21
182.49689
  0
LINE
  8
_0-0_
  6
CONTINUOUS
 62
    7
 10
197.3171
 20
196.40336
 11
197.3171
 21
182.79317
  0
LINE
  8
_0-0_
  6
CONTINUOUS
 62
    7
 10
202.73572
 20
196.40336
 11
197.3171
 21
196.40336
  0
LINE
  8
_0-0_
  6
CONTINUOUS
 62
    7
 10
196.47047
 20
182.49689
 11
197.3171
 21
182.49689
  0
LINE
  8
_0-0_
  6
CONTINUOUS
 62
    7
 10
196.47047
 20
182.49689
 11
196.17419
 21
182.79317
  0
LINE
  8
_0-0_
  6
CONTINUOUS
 62
    7
 10
207.58297
 20
198.09662
 11
199.49733
 21
198.09662
  0
LINE
  8
_0-0_
  6
CONTINUOUS
 62
    7
 10
198.01559
 20
196.59387
 11
198.07915
 21
197.05948
  0
LINE
  8
_0-0_
  6
CONTINUOUS
 62
    7
 10
198.07915
 20
197.05948
 11
198.29086
 21
197.48271
  0
LINE
  8
_0-0_
  6
CONTINUOUS
 62
    7
 10
198.29086
 20
197.48271
 11
198.62951
 21
197.80035
  0
LINE
  8
_0-0_
  6
CONTINUOUS
 62
    7
 10
198.62951
 20
197.80035
 11
199.03155
 21
198.01187
  0
LINE
  8
_0-0_
  6
CONTINUOUS
 62
    7
 10
199.03155
 20
198.01187
 11
199.49733
 21
198.09662
  0
LINE
  8
_0-0_
  6
CONTINUOUS
 62
    7
 10
176.4257
 20
196.19166
 11
176.34095
 21
196.84778
  0
LINE
  8
_0-0_
  6
CONTINUOUS
 62
    7
 10
176.4257
 20
196.19166
 11
176.80655
 21
195.9164
  0
LINE
  8
_0-0_
  6
CONTINUOUS
 62
    7
 10
192.15238
 20
195.9164
 11
192.44884
 21
195.85301
  0
LINE
  8
_0-0_
  6
CONTINUOUS
 62
    7
 10
192.44884
 20
195.85301
 11
192.70274
 21
195.68368
  0
LINE
  8
_0-0_
  6
CONTINUOUS
 62
    7
 10
192.70274
 20
195.68368
 11
192.89325
 21
195.40842
  0
LINE
  8
_0-0_
  6
CONTINUOUS
 62
    7
 10
192.89325
 20
195.40842
 11
192.93563
 21
195.11214
  0
LINE
  8
_0-0_
  6
CONTINUOUS
 62
    7
 10
219.01311
 20
186.17969
 11
219.01311
 21
185.14272
  0
LINE
  8
_0-0_
  6
CONTINUOUS
 62
    7
 10
221.42605
 20
186.17969
 11
207.58297
 21
186.17969
  0
LINE
  8
_0-0_
  6
CONTINUOUS
 62
    7
 10
221.42605
 20
186.17969
 11
221.74334
 21
186.47614
  0
LINE
  8
_0-0_
  6
CONTINUOUS
 62
    7
 10
221.74334
 20
186.87836
 11
221.74334
 21
186.47614
  0
LINE
  8
_0-0_
  6
CONTINUOUS
 62
    7
 10
219.60566
 20
187.17464
 11
221.74334
 21
186.87836
  0
LINE
  8
_0-0_
  6
CONTINUOUS
 62
    7
 10
219.4999
 20
187.17464
 11
219.60566
 21
187.17464
  0
LINE
  8
_0-0_
  6
CONTINUOUS
 62
    7
 10
221.93386
 20
191.23864
 11
207.58297
 21
191.23864
  0
LINE
  8
_0-0_
  6
CONTINUOUS
 62
    7
 10
221.93386
 20
191.23864
 11
222.23014
 21
191.53492
  0
LINE
  8
_0-0_
  6
CONTINUOUS
 62
    7
 10
222.23014
 20
195.11214
 11
222.23014
 21
191.53492
  0
LINE
  8
_0-0_
  6
CONTINUOUS
 62
    7
 10
223.01355
 20
195.9164
 11
222.71727
 21
195.85301
  0
LINE
  8
_0-0_
  6
CONTINUOUS
 62
    7
 10
222.71727
 20
195.85301
 11
222.46302
 21
195.68368
  0
LINE
  8
_0-0_
  6
CONTINUOUS
 62
    7
 10
222.46302
 20
195.68368
 11
222.29387
 21
195.40842
  0
LINE
  8
_0-0_
  6
CONTINUOUS
 62
    7
 10
222.29387
 20
195.40842
 11
222.23014
 21
195.11214
  0
LINE
  8
_0-0_
  6
CONTINUOUS
 62
    7
 10
238.35938
 20
195.9164
 11
207.58297
 21
195.9164
  0
LINE
  8
_0-0_
  6
CONTINUOUS
 62
    7
 10
238.74041
 20
196.19166
 11
238.35938
 21
195.9164
  0
LINE
  8
_0-0_
  6
CONTINUOUS
 62
    7
 10
238.74041
 20
196.19166
 11
238.82482
 21
196.89015
  0
LINE
  8
_0-0_
  6
CONTINUOUS
 62
    7
 10
238.50752
 20
197.18643
 11
232.34804
 21
197.90611
  0
LINE
  8
_0-0_
  6
CONTINUOUS
 62
    7
 10
232.34804
 20
197.90611
 11
226.16719
 21
198.45646
  0
LINE
  8
_0-0_
  6
CONTINUOUS
 62
    7
 10
226.16719
 20
198.45646
 11
219.96533
 21
198.83749
  0
LINE
  8
_0-0_
  6
CONTINUOUS
 62
    7
 10
219.96533
 20
198.83749
 11
213.76347
 21
199.0914
  0
LINE
  8
_0-0_
  6
CONTINUOUS
 62
    7
 10
213.76347
 20
199.0914
 11
207.56178
 21
199.15496
  0
LINE
  8
_0-0_
  6
CONTINUOUS
 62
    7
 10
207.56178
 20
199.15496
 11
201.35992
 21
199.07021
  0
LINE
  8
_0-0_
  6
CONTINUOUS
 62
    7
 10
201.35992
 20
199.07021
 11
195.15806
 21
198.83749
  0
LINE
  8
_0-0_
  6
CONTINUOUS
 62
    7
 10
195.15806
 20
198.83749
 11
188.95637
 21
198.45646
  0
LINE
  8
_0-0_
  6
CONTINUOUS
 62
    7
 10
188.95637
 20
198.45646
 11
182.7757
 21
197.90611
  0
LINE
  8
_0-0_
  6
CONTINUOUS
 62
    7
 10
182.7757
 20
197.90611
 11
176.61604
 21
197.18643
  0
LINE
  8
_0-0_
  6
CONTINUOUS
 62
    7
 10
176.34095
 20
196.84778
 11
176.61604
 21
197.18643
  0
LINE
  8
_0-0_
  6
CONTINUOUS
 62
    7
 10
238.50752
 20
197.18643
 11
238.82482
 21
196.89015
  0
LINE
  8
_0-0_
  6
CONTINUOUS
 62
    7
 10
176.51027
 20
197.05948
 11
177.65336
 21
195.9164
  0
LINE
  8
_0-0_
  6
CONTINUOUS
 62
    7
 10
180.44733
 20
195.9164
 11
178.9022
 21
197.46169
  0
LINE
  8
_0-0_
  6
CONTINUOUS
 62
    7
 10
181.42091
 20
197.75797
 11
183.26249
 21
195.9164
  0
LINE
  8
_0-0_
  6
CONTINUOUS
 62
    7
 10
196.17419
 20
183.00469
 11
196.66098
 21
182.49689
  0
LINE
  8
_0-0_
  6
CONTINUOUS
 62
    7
 10
198.01559
 20
183.97845
 11
196.17419
 21
185.79884
  0
LINE
  8
_0-0_
  6
CONTINUOUS
 62
    7
 10
195.79316
 20
186.17969
 11
194.90415
 21
187.06887
  0
LINE
  8
_0-0_
  6
CONTINUOUS
 62
    7
 10
186.07765
 20
195.9164
 11
183.96098
 21
198.01187
  0
LINE
  8
_0-0_
  6
CONTINUOUS
 62
    7
 10
186.54325
 20
198.24476
 11
188.87162
 21
195.9164
  0
LINE
  8
_0-0_
  6
CONTINUOUS
 62
    7
 10
192.93563
 20
191.85239
 11
193.54937
 21
191.23864
  0
LINE
  8
_0-0_
  6
CONTINUOUS
 62
    7
 10
195.66604
 20
189.12198
 11
198.01559
 21
186.77242
  0
LINE
  8
_0-0_
  6
CONTINUOUS
 62
    7
 10
198.01559
 20
189.58758
 11
192.93563
 21
194.64636
  0
LINE
  8
_0-0_
  6
CONTINUOUS
 62
    7
 10
191.68678
 20
195.9164
 11
189.1257
 21
198.45646
  0
LINE
  8
_0-0_
  6
CONTINUOUS
 62
    7
 10
191.75034
 20
198.64698
 11
198.01559
 21
192.40274
  0
LINE
  8
_0-0_
  6
CONTINUOUS
 62
    7
 10
198.01559
 20
195.19689
 11
194.39618
 21
198.79512
  0
LINE
  8
_0-0_
  6
CONTINUOUS
 62
    7
 10
197.08421
 20
198.94326
 11
198.39662
 21
197.60983
  0
LINE
  8
_0-0_
  6
CONTINUOUS
 62
    7
 10
200.72499
 20
198.09662
 11
199.79361
 21
199.02801
  0
LINE
  8
_0-0_
  6
CONTINUOUS
 62
    7
 10
202.52419
 20
199.11258
 11
203.54015
 21
198.09662
  0
LINE
  8
_0-0_
  6
CONTINUOUS
 62
    7
 10
206.35531
 20
198.09662
 11
205.29697
 21
199.15496
  0
LINE
  8
_0-0_
  6
CONTINUOUS
 62
    7
 10
238.82482
 20
196.89015
 11
207.58297
 21
196.89015
  0
LINE
  8
_0-0_
  6
CONTINUOUS
 62
    7
 10
238.74041
 20
196.19166
 11
207.58297
 21
196.19166
  0
LINE
  8
_0-0_
  6
CONTINUOUS
 62
    7
 10
222.23014
 20
195.11214
 11
207.58297
 21
195.11214
  0
LINE
  8
_0-0_
  6
CONTINUOUS
 62
    7
 10
222.23014
 20
191.53492
 11
207.58297
 21
191.53492
  0
LINE
  8
_0-0_
  6
CONTINUOUS
 62
    7
 10
221.74334
 20
186.47614
 11
207.58297
 21
186.47614
  0
LINE
  8
_0-0_
  6
CONTINUOUS
 62
    7
 10
219.4999
 20
187.17464
 11
207.58297
 21
187.17464
  0
LINE
  8
_0-0_
  6
CONTINUOUS
 62
    7
 10
222.23014
 20
191.23864
 11
207.58297
 21
191.23864
  0
LINE
  8
_0-0_
  6
CONTINUOUS
 62
    7
 10
222.23014
 20
187.25939
 11
207.58297
 21
187.25939
  0
LINE
  8
_0-0_
  6
CONTINUOUS
 62
    7
 10
226.06143
 20
189.54521
 11
226.69636
 21
188.1906
  0
LINE
  8
_0-0_
  6
CONTINUOUS
 62
    7
 10
222.23014
 20
187.68262
 11
222.23014
 21
187.25939
  0
LINE
  8
_0-0_
  6
CONTINUOUS
 62
    7
 10
226.06143
 20
189.54521
 11
222.23014
 21
190.22269
  0
LINE
  8
_0-0_
  6
CONTINUOUS
 62
    7
 10
222.23014
 20
191.23864
 11
222.23014
 21
190.22269
  0
LINE
  8
_0-0_
  6
CONTINUOUS
 62
    7
 10
192.93563
 20
187.25939
 11
195.66604
 21
187.25939
  0
LINE
  8
_0-0_
  6
CONTINUOUS
 62
    7
 10
192.93563
 20
191.23864
 11
195.66604
 21
191.23864
  0
LINE
  8
_0-0_
  6
CONTINUOUS
 62
    7
 10
193.9304
 20
189.54521
 11
194.92534
 21
189.54521
  0
LINE
  8
_0-0_
  6
CONTINUOUS
 62
    7
 10
193.9304
 20
189.54521
 11
193.9304
 21
187.25939
  0
LINE
  8
_0-0_
  6
CONTINUOUS
 62
    7
 10
194.92534
 20
189.54521
 11
194.92534
 21
187.25939
  0
LINE
  8
_0-0_
  6
CONTINUOUS
 62
    7
 10
192.93563
 20
188.76214
 11
192.93563
 21
187.25939
  0
LINE
  8
_0-0_
  6
CONTINUOUS
 62
    7
 10
189.1257
 20
189.54521
 11
192.93563
 21
190.22269
  0
LINE
  8
_0-0_
  6
CONTINUOUS
 62
    7
 10
192.93563
 20
191.23864
 11
192.93563
 21
190.22269
  0
LINE
  8
_0-0_
  6
CONTINUOUS
 62
    7
 10
226.20957
 20
187.68262
 11
226.44245
 21
187.74618
  0
LINE
  8
_0-0_
  6
CONTINUOUS
 62
    7
 10
226.44245
 20
187.74618
 11
226.63297
 21
187.93669
  0
LINE
  8
_0-0_
  6
CONTINUOUS
 62
    7
 10
226.63297
 20
187.93669
 11
226.69636
 21
188.1906
  0
LINE
  8
_0-0_
  6
CONTINUOUS
 62
    7
 10
189.1257
 20
189.54521
 11
188.46941
 21
188.1906
  0
LINE
  8
_0-0_
  6
CONTINUOUS
 62
    7
 10
189.57011
 20
188.76214
 11
192.93563
 21
188.76214
  0
LINE
  8
_0-0_
  6
CONTINUOUS
 62
    7
 10
189.46435
 20
188.08483
 11
189.35841
 21
187.87313
  0
LINE
  8
_0-0_
  6
CONTINUOUS
 62
    7
 10
189.35841
 20
187.87313
 11
189.1679
 21
187.72499
  0
LINE
  8
_0-0_
  6
CONTINUOUS
 62
    7
 10
189.1679
 20
187.72499
 11
188.93518
 21
187.68262
  0
LINE
  8
_0-0_
  6
CONTINUOUS
 62
    7
 10
188.93518
 20
187.68262
 11
188.70229
 21
187.76719
  0
LINE
  8
_0-0_
  6
CONTINUOUS
 62
    7
 10
188.70229
 20
187.76719
 11
188.53297
 21
187.93669
  0
LINE
  8
_0-0_
  6
CONTINUOUS
 62
    7
 10
188.53297
 20
187.93669
 11
188.46941
 21
188.1906
  0
LINE
  8
_0-0_
  6
CONTINUOUS
 62
    7
 10
189.46435
 20
188.08483
 11
189.57011
 21
188.76214
  0
LINE
  8
_0-0_
  6
CONTINUOUS
 62
    7
 10
226.20957
 20
187.68262
 11
207.58297
 21
187.68262
  0
LINE
  8
_0-0_
  6
CONTINUOUS
 62
    7
 10
188.97738
 20
187.68262
 11
192.93563
 21
187.68262
  0
LINE
  8
_0-0_
  6
CONTINUOUS
 62
    7
 10
222.23014
 20
190.22269
 11
207.58297
 21
190.22269
  0
LINE
  8
_0-0_
  6
CONTINUOUS
 62
    7
 10
226.06143
 20
189.54521
 11
207.58297
 21
189.54521
  0
LINE
  8
_0-0_
  6
CONTINUOUS
 62
    7
 10
226.69636
 20
188.1906
 11
207.58297
 21
188.1906
  0
LINE
  8
_0-0_
  6
CONTINUOUS
 62
    7
 10
188.97738
 20
187.68262
 11
189.48554
 21
188.1906
  0
LINE
  8
_0-0_
  6
CONTINUOUS
 62
    7
 10
190.03572
 20
188.76214
 11
191.19999
 21
189.92624
  0
LINE
  8
_0-0_
  6
CONTINUOUS
 62
    7
 10
193.23191
 20
191.23864
 11
192.93563
 21
190.96355
  0
LINE
  8
_0-0_
  6
CONTINUOUS
 62
    7
 10
192.06781
 20
190.07437
 11
190.73421
 21
188.76214
  0
LINE
  8
_0-0_
  6
CONTINUOUS
 62
    7
 10
191.45389
 20
188.76214
 11
192.91444
 21
190.22269
  0
LINE
  8
_0-0_
  6
CONTINUOUS
 62
    7
 10
192.93563
 20
190.26489
 11
193.9304
 21
191.23864
  0
LINE
  8
_0-0_
  6
CONTINUOUS
 62
    7
 10
194.62889
 20
191.23864
 11
192.15238
 21
188.76214
  0
LINE
  8
_0-0_
  6
CONTINUOUS
 62
    7
 10
192.85088
 20
188.76214
 11
195.32738
 21
191.23864
  0
LINE
  8
_0-0_
  6
CONTINUOUS
 62
    7
 10
195.66604
 20
190.8788
 11
194.3538
 21
189.54521
  0
LINE
  8
_0-0_
  6
CONTINUOUS
 62
    7
 10
193.9304
 20
189.14317
 11
192.93563
 21
188.14822
  0
LINE
  8
_0-0_
  6
CONTINUOUS
 62
    7
 10
192.93563
 20
187.44973
 11
193.9304
 21
188.44467
  0
LINE
  8
_0-0_
  6
CONTINUOUS
 62
    7
 10
194.92534
 20
189.43944
 11
195.66604
 21
190.18031
  0
LINE
  8
_0-0_
  6
CONTINUOUS
 62
    7
 10
195.66604
 20
189.48182
 11
194.92534
 21
188.74095
  0
LINE
  8
_0-0_
  6
CONTINUOUS
 62
    7
 10
193.9304
 20
187.74618
 11
193.46479
 21
187.25939
  0
LINE
  8
_0-0_
  6
CONTINUOUS
 62
    7
 10
194.92534
 20
188.02127
 11
195.66604
 21
188.78332
  0
LINE
  8
_0-0_
  6
CONTINUOUS
 62
    7
 10
195.66604
 20
188.06364
 11
194.92534
 21
187.32278
  0
LINE
  8
_0-0_
  6
CONTINUOUS
 62
    7
 10
195.58146
 20
187.25939
 11
195.66604
 21
187.36515
  0
LINE
  8
_0-0_
  6
CONTINUOUS
 62
    7
 10
190.35336
 20
189.7781
 11
188.53297
 21
187.95771
  0
LINE
  8
_0-0_
  6
CONTINUOUS
 62
    7
 10
188.82925
 20
188.95265
 11
189.50655
 21
189.62996
  0
LINE
  8
_0-0_
  6
CONTINUOUS
 62
    7
 10
188.59653
 20
188.44467
 11
189.25265
 21
187.76719
  0
LINE
  8
_0-0_
  6
CONTINUOUS
 62
    7
 10
189.48554
 20
188.25416
 11
188.82925
 21
188.91028
  0
LINE
  8
_0-0_
  6
CONTINUOUS
 62
    7
 10
189.04095
 20
189.39707
 11
189.67588
 21
188.76214
  0
LINE
  8
_0-0_
  6
CONTINUOUS
 62
    7
 10
190.39556
 20
188.76214
 11
189.52774
 21
189.62996
  0
LINE
  8
_0-0_
  6
CONTINUOUS
 62
    7
 10
190.12047
 20
189.73572
 11
191.09405
 21
188.76214
  0
LINE
  8
_0-0_
  6
CONTINUOUS
 62
    7
 10
193.27428
 20
187.25939
 11
192.93563
 21
187.59804
  0
LINE
  8
_0-0_
  6
CONTINUOUS
 62
    7
 10
191.79254
 20
188.76214
 11
190.7132
 21
189.84166
  0
LINE
  8
_0-0_
  6
CONTINUOUS
 62
    7
 10
191.30575
 20
189.94742
 11
192.49104
 21
188.76214
  0
LINE
  8
_0-0_
  6
CONTINUOUS
 62
    7
 10
192.93563
 20
188.29636
 11
193.9304
 21
187.32278
  0
LINE
  8
_0-0_
  6
CONTINUOUS
 62
    7
 10
193.9304
 20
188.02127
 11
191.89848
 21
190.05336
  0
LINE
  8
_0-0_
  6
CONTINUOUS
 62
    7
 10
192.51222
 20
190.15912
 11
193.9304
 21
188.71976
  0
LINE
  8
_0-0_
  6
CONTINUOUS
 62
    7
 10
194.92534
 20
187.72499
 11
195.39095
 21
187.25939
  0
LINE
  8
_0-0_
  6
CONTINUOUS
 62
    7
 10
195.66604
 20
187.68262
 11
194.92534
 21
188.42348
  0
LINE
  8
_0-0_
  6
CONTINUOUS
 62
    7
 10
193.9304
 20
189.41826
 11
192.93563
 21
190.41303
  0
LINE
  8
_0-0_
  6
CONTINUOUS
 62
    7
 10
192.93563
 20
191.11169
 11
194.50194
 21
189.54521
  0
LINE
  8
_0-0_
  6
CONTINUOUS
 62
    7
 10
194.92534
 20
189.12198
 11
195.66604
 21
188.38111
  0
LINE
  8
_0-0_
  6
CONTINUOUS
 62
    7
 10
195.66604
 20
189.0796
 11
193.52836
 21
191.23864
  0
LINE
  8
_0-0_
  6
CONTINUOUS
 62
    7
 10
194.22685
 20
191.23864
 11
195.66604
 21
189.7781
  0
LINE
  8
_0-0_
  6
CONTINUOUS
 62
    7
 10
195.66604
 20
190.49778
 11
194.92534
 21
191.23864
  0
LINE
  8
_0-0_
  6
CONTINUOUS
 62
    7
 10
195.62384
 20
191.23864
 11
195.66604
 21
191.19627
  0
LINE
  8
_0-0_
  6
CONTINUOUS
 62
    7
 10
207.58297
 20
226.16364
 11
207.58297
 21
233.14858
  0
LINE
  8
_0-0_
  6
CONTINUOUS
 62
    7
 10
207.58297
 20
234.16471
 11
207.58297
 21
235.15948
  0
LINE
  8
_0-0_
  6
CONTINUOUS
 62
    7
 10
207.58297
 20
236.17544
 11
207.58297
 21
243.16054
  0
LINE
  8
_0-0_
  6
CONTINUOUS
 62
    7
 10
207.58297
 20
244.1765
 11
207.58297
 21
245.17127
  0
LINE
  8
_0-0_
  6
CONTINUOUS
 62
    7
 10
207.58297
 20
246.18723
 11
207.58297
 21
249.00239
  0
LINE
  8
_0-0_
  6
CONTINUOUS
 62
    7
 10
207.58297
 20
95.142017
 11
207.58297
 21
102.12694
  0
LINE
  8
_0-0_
  6
CONTINUOUS
 62
    7
 10
207.58297
 20
103.1429
 11
207.58297
 21
104.13785
  0
LINE
  8
_0-0_
  6
CONTINUOUS
 62
    7
 10
207.58297
 20
105.1538
 11
207.58297
 21
112.13874
  0
LINE
  8
_0-0_
  6
CONTINUOUS
 62
    7
 10
207.58297
 20
113.15469
 11
207.58297
 21
114.14964
  0
LINE
  8
_0-0_
  6
CONTINUOUS
 62
    7
 10
207.58297
 20
115.1656
 11
207.58297
 21
122.1507
  0
LINE
  8
_0-0_
  6
CONTINUOUS
 62
    7
 10
207.58297
 20
123.16666
 11
207.58297
 21
124.16143
  0
LINE
  8
_0-0_
  6
CONTINUOUS
 62
    7
 10
207.58297
 20
125.17739
 11
207.58297
 21
132.16249
  0
LINE
  8
_0-0_
  6
CONTINUOUS
 62
    7
 10
207.58297
 20
133.17845
 11
207.58297
 21
134.17322
  0
LINE
  8
_0-0_
  6
CONTINUOUS
 62
    7
 10
207.58297
 20
135.18935
 11
207.58297
 21
142.17428
  0
LINE
  8
_0-0_
  6
CONTINUOUS
 62
    7
 10
207.58297
 20
143.19024
 11
207.58297
 21
144.18519
  0
LINE
  8
_0-0_
  6
CONTINUOUS
 62
    7
 10
207.58297
 20
145.20114
 11
207.58297
 21
152.18608
  0
LINE
  8
_0-0_
  6
CONTINUOUS
 62
    7
 10
207.58297
 20
153.20221
 11
207.58297
 21
154.19698
  0
LINE
  8
_0-0_
  6
CONTINUOUS
 62
    7
 10
207.58297
 20
155.21294
 11
207.58297
 21
162.19804
  0
LINE
  8
_0-0_
  6
CONTINUOUS
 62
    7
 10
207.58297
 20
163.214
 11
207.58297
 21
164.20877
  0
LINE
  8
_0-0_
  6
CONTINUOUS
 62
    7
 10
207.58297
 20
165.22473
 11
207.58297
 21
172.20983
  0
LINE
  8
_0-0_
  6
CONTINUOUS
 62
    7
 10
207.58297
 20
173.22579
 11
207.58297
 21
174.22056
  0
LINE
  8
_0-0_
  6
CONTINUOUS
 62
    7
 10
207.58297
 20
175.23669
 11
207.58297
 21
182.22162
  0
LINE
  8
_0-0_
  6
CONTINUOUS
 62
    7
 10
207.58297
 20
183.23758
 11
207.58297
 21
184.23253
  0
LINE
  8
_0-0_
  6
CONTINUOUS
 62
    7
 10
207.58297
 20
185.24848
 11
207.58297
 21
192.23342
  0
LINE
  8
_0-0_
  6
CONTINUOUS
 62
    7
 10
207.58297
 20
193.24937
 11
207.58297
 21
194.24432
  0
LINE
  8
_0-0_
  6
CONTINUOUS
 62
    7
 10
207.58297
 20
195.26028
 11
207.58297
 21
202.24521
  0
LINE
  8
_0-0_
  6
CONTINUOUS
 62
    7
 10
207.58297
 20
203.26134
 11
207.58297
 21
204.25611
  0
LINE
  8
_0-0_
  6
CONTINUOUS
 62
    7
 10
186.98784
 20
83.055933
 11
186.98784
 21
99.565864
  0
LINE
  8
_0-0_
  6
CONTINUOUS
 62
    7
 10
228.17809
 20
83.055933
 11
228.17809
 21
99.565864
  0
LINE
  8
_0-0_
  6
CONTINUOUS
 62
    7
 10
176.31976
 20
131.16755
 11
176.31976
 21
133.94051
  0
LINE
  8
_0-0_
  6
CONTINUOUS
 62
    7
 10
187.13598
 20
134.15221
 11
176.51027
 21
134.15221
  0
LINE
  8
_0-0_
  6
CONTINUOUS
 62
    7
 10
177.06063
 20
134.15221
 11
176.31976
 21
134.15221
  0
LINE
  8
_0-0_
  6
CONTINUOUS
 62
    7
 10
176.80655
 20
134.15221
 11
177.35691
 21
133.5171
  0
LINE
  8
_0-0_
  6
CONTINUOUS
 62
    7
 10
177.35691
 20
133.5171
 11
178.0132
 21
133.00912
  0
LINE
  8
_0-0_
  6
CONTINUOUS
 62
    7
 10
178.0132
 20
133.00912
 11
178.75389
 21
132.58572
  0
LINE
  8
_0-0_
  6
CONTINUOUS
 62
    7
 10
178.75389
 20
132.58572
 11
179.53713
 21
132.31063
  0
LINE
  8
_0-0_
  6
CONTINUOUS
 62
    7
 10
179.53713
 20
132.31063
 11
180.36258
 21
132.18368
  0
LINE
  8
_0-0_
  6
CONTINUOUS
 62
    7
 10
180.36258
 20
132.18368
 11
181.20921
 21
132.18368
  0
LINE
  8
_0-0_
  6
CONTINUOUS
 62
    7
 10
181.20921
 20
132.18368
 11
182.03483
 21
132.31063
  0
LINE
  8
_0-0_
  6
CONTINUOUS
 62
    7
 10
182.03483
 20
132.31063
 11
182.8179
 21
132.58572
  0
LINE
  8
_0-0_
  6
CONTINUOUS
 62
    7
 10
182.8179
 20
132.58572
 11
183.53758
 21
133.00912
  0
LINE
  8
_0-0_
  6
CONTINUOUS
 62
    7
 10
183.53758
 20
133.00912
 11
184.19387
 21
133.5171
  0
LINE
  8
_0-0_
  6
CONTINUOUS
 62
    7
 10
184.19387
 20
133.5171
 11
184.74405
 21
134.15221
  0
LINE
  8
_0-0_
  6
CONTINUOUS
 62
    7
 10
182.47925
 20
130.68076
 11
176.80655
 21
130.68076
  0
LINE
  8
_0-0_
  6
CONTINUOUS
 62
    7
 10
187.94024
 20
129.17801
 11
186.43749
 21
130.68076
  0
LINE
  8
_0-0_
  6
CONTINUOUS
 62
    7
 10
183.26249
 20
107.84201
 11
186.75495
 21
107.84201
  0
LINE
  8
_0-0_
  6
CONTINUOUS
 62
    7
 10
190.45912
 20
97.91463
 11
190.45912
 21
106.25451
  0
LINE
  8
_0-0_
  6
CONTINUOUS
 62
    7
 10
199.89937
 20
97.91463
 11
215.26656
 21
106.12739
  0
LINE
  8
_0-0_
  6
CONTINUOUS
 62
    7
 10
201.71976
 20
105.1538
 11
215.26656
 21
97.91463
  0
LINE
  8
_0-0_
  6
CONTINUOUS
 62
    7
 10
199.89937
 20
102.78323
 11
199.89937
 21
97.91463
  0
LINE
  8
_0-0_
  6
CONTINUOUS
 62
    7
 10
198.29086
 20
97.91463
 11
198.58713
 21
99.079072
  0
LINE
  8
_0-0_
  6
CONTINUOUS
 62
    7
 10
198.58713
 20
99.079072
 11
198.86222
 21
100.11604
  0
LINE
  8
_0-0_
  6
CONTINUOUS
 62
    7
 10
198.86222
 20
100.11604
 11
199.15868
 21
101.00522
  0
LINE
  8
_0-0_
  6
CONTINUOUS
 62
    7
 10
199.15868
 20
101.00522
 11
199.43377
 21
101.78829
  0
LINE
  8
_0-0_
  6
CONTINUOUS
 62
    7
 10
199.43377
 20
101.78829
 11
199.73004
 21
102.4656
  0
LINE
  8
_0-0_
  6
CONTINUOUS
 62
    7
 10
199.73004
 20
102.4656
 11
200.04768
 21
103.05815
  0
LINE
  8
_0-0_
  6
CONTINUOUS
 62
    7
 10
200.04768
 20
103.05815
 11
200.38634
 21
103.60868
  0
LINE
  8
_0-0_
  6
CONTINUOUS
 62
    7
 10
200.38634
 20
103.60868
 11
200.74618
 21
104.09547
  0
LINE
  8
_0-0_
  6
CONTINUOUS
 62
    7
 10
200.74618
 20
104.09547
 11
201.14822
 21
104.56125
  0
LINE
  8
_0-0_
  6
CONTINUOUS
 62
    7
 10
201.14822
 20
104.56125
 11
201.57162
 21
105.00567
  0
LINE
  8
_0-0_
  6
CONTINUOUS
 62
    7
 10
201.57162
 20
105.00567
 11
202.01604
 21
105.42907
  0
LINE
  8
_0-0_
  6
CONTINUOUS
 62
    7
 10
202.01604
 20
105.42907
 11
202.46063
 21
105.83111
  0
LINE
  8
_0-0_
  6
CONTINUOUS
 62
    7
 10
202.46063
 20
105.83111
 11
202.92623
 21
106.23315
  0
LINE
  8
_0-0_
  6
CONTINUOUS
 62
    7
 10
202.92623
 20
106.23315
 11
203.39201
 21
106.65655
  0
LINE
  8
_0-0_
  6
CONTINUOUS
 62
    7
 10
203.39201
 20
106.65655
 11
203.83643
 21
107.05894
  0
LINE
  8
_0-0_
  6
CONTINUOUS
 62
    7
 10
203.83643
 20
107.05894
 11
204.28102
 21
107.482
  0
LINE
  8
_0-0_
  6
CONTINUOUS
 62
    7
 10
204.28102
 20
107.482
 11
204.70425
 21
107.92676
  0
LINE
  8
_0-0_
  6
CONTINUOUS
 62
    7
 10
204.70425
 20
107.92676
 11
205.08527
 21
108.39219
  0
LINE
  8
_0-0_
  6
CONTINUOUS
 62
    7
 10
205.08527
 20
108.39219
 11
205.4663
 21
108.87899
  0
LINE
  8
_0-0_
  6
CONTINUOUS
 62
    7
 10
205.4663
 20
108.87899
 11
205.82614
 21
109.38714
  0
LINE
  8
_0-0_
  6
CONTINUOUS
 62
    7
 10
205.82614
 20
109.38714
 11
206.16479
 21
109.89529
  0
LINE
  8
_0-0_
  6
CONTINUOUS
 62
    7
 10
206.16479
 20
109.89529
 11
206.48226
 21
110.42446
  0
LINE
  8
_0-0_
  6
CONTINUOUS
 62
    7
 10
206.48226
 20
110.42446
 11
207.07499
 21
111.52482
  0
LINE
  8
_0-0_
  6
CONTINUOUS
 62
    7
 10
207.07499
 20
111.52482
 11
207.32889
 21
112.07535
  0
LINE
  8
_0-0_
  6
CONTINUOUS
 62
    7
 10
207.32889
 20
112.07535
 11
207.58297
 21
112.64689
  0
LINE
  8
_0-0_
  6
CONTINUOUS
 62
    7
 10
207.58297
 20
134.15221
 11
207.58297
 21
112.64689
  0
LINE
  8
_0-0_
  6
CONTINUOUS
 62
    7
 10
183.26249
 20
107.84201
 11
183.26249
 21
129.8765
  0
LINE
  8
_0-0_
  6
CONTINUOUS
 62
    7
 10
207.58297
 20
134.15221
 11
238.65566
 21
134.15221
  0
LINE
  8
_0-0_
  6
CONTINUOUS
 62
    7
 10
238.84618
 20
131.16755
 11
238.84618
 21
133.94051
  0
LINE
  8
_0-0_
  6
CONTINUOUS
 62
    7
 10
207.58297
 20
130.68076
 11
238.35938
 21
130.68076
  0
LINE
  8
_0-0_
  6
CONTINUOUS
 62
    7
 10
231.90362
 20
107.84201
 11
207.58297
 21
107.84201
  0
LINE
  8
_0-0_
  6
CONTINUOUS
 62
    7
 10
215.26656
 20
106.12739
 11
215.26656
 21
97.91463
  0
LINE
  8
_0-0_
  6
CONTINUOUS
 62
    7
 10
238.84618
 20
131.16755
 11
207.58297
 21
131.16755
  0
LINE
  8
_0-0_
  6
CONTINUOUS
 62
    7
 10
231.1202
 20
129.8765
 11
207.58297
 21
129.8765
  0
LINE
  8
_0-0_
  6
CONTINUOUS
 62
    7
 10
228.17809
 20
98.909573
 11
228.17809
 21
104.85753
  0
LINE
  8
_0-0_
  6
CONTINUOUS
 62
    7
 10
231.90362
 20
107.84201
 11
231.90362
 21
129.8765
  0
LINE
  8
_0-0_
  6
CONTINUOUS
 62
    7
 10
187.96143
 20
97.91463
 11
186.96665
 21
98.909573
  0
LINE
  8
_0-0_
  6
CONTINUOUS
 62
    7
 10
227.18315
 20
97.91463
 11
207.58297
 21
97.91463
  0
LINE
  8
_0-0_
  6
CONTINUOUS
 62
    7
 10
187.09361
 20
119.25079
 11
187.09361
 21
130.02464
  0
LINE
  8
_0-0_
  6
CONTINUOUS
 62
    7
 10
215.26656
 20
98.909573
 11
228.17809
 21
98.909573
  0
LINE
  8
_0-0_
  6
CONTINUOUS
 62
    7
 10
198.54476
 20
98.909573
 11
199.89937
 21
98.909573
  0
LINE
  8
_0-0_
  6
CONTINUOUS
 62
    7
 10
232.7077
 20
130.68076
 11
232.39041
 21
130.61737
  0
LINE
  8
_0-0_
  6
CONTINUOUS
 62
    7
 10
232.39041
 20
130.61737
 11
232.13616
 21
130.44804
  0
LINE
  8
_0-0_
  6
CONTINUOUS
 62
    7
 10
232.13616
 20
130.44804
 11
231.96701
 21
130.17278
  0
LINE
  8
_0-0_
  6
CONTINUOUS
 62
    7
 10
231.96701
 20
130.17278
 11
231.90362
 21
129.8765
  0
LINE
  8
_0-0_
  6
CONTINUOUS
 62
    7
 10
183.26249
 20
129.8765
 11
183.19893
 21
130.17278
  0
LINE
  8
_0-0_
  6
CONTINUOUS
 62
    7
 10
183.19893
 20
130.17278
 11
183.0296
 21
130.44804
  0
LINE
  8
_0-0_
  6
CONTINUOUS
 62
    7
 10
183.0296
 20
130.44804
 11
182.7757
 21
130.61737
  0
LINE
  8
_0-0_
  6
CONTINUOUS
 62
    7
 10
182.7757
 20
130.61737
 11
182.47925
 21
130.68076
  0
LINE
  8
_0-0_
  6
CONTINUOUS
 62
    7
 10
227.18315
 20
97.91463
 11
227.18315
 21
104.85753
  0
LINE
  8
_0-0_
  6
CONTINUOUS
 62
    7
 10
187.38988
 20
109.32375
 11
190.45912
 21
106.25451
  0
LINE
  8
_0-0_
  6
CONTINUOUS
 62
    7
 10
186.73377
 20
109.32375
 11
205.78377
 21
109.32375
  0
LINE
  8
_0-0_
  6
CONTINUOUS
 62
    7
 10
187.94024
 20
119.25079
 11
187.94024
 21
129.17801
  0
LINE
  8
_0-0_
  6
CONTINUOUS
 62
    7
 10
202.92623
 20
106.25451
 11
190.45912
 21
106.25451
  0
LINE
  8
_0-0_
  6
CONTINUOUS
 62
    7
 10
228.41098
 20
107.84201
 11
226.69636
 21
106.12739
  0
LINE
  8
_0-0_
  6
CONTINUOUS
 62
    7
 10
187.09361
 20
119.25079
 11
207.58297
 21
119.25079
  0
LINE
  8
_0-0_
  6
CONTINUOUS
 62
    7
 10
184.74405
 20
111.31329
 11
184.74405
 21
116.79547
  0
LINE
  8
_0-0_
  6
CONTINUOUS
 62
    7
 10
215.26656
 20
104.85753
 11
228.17809
 21
104.85753
  0
LINE
  8
_0-0_
  6
CONTINUOUS
 62
    7
 10
226.69636
 20
106.12739
 11
207.58297
 21
106.12739
  0
LINE
  8
_0-0_
  6
CONTINUOUS
 62
    7
 10
186.75495
 20
107.84201
 11
188.46941
 21
106.12739
  0
LINE
  8
_0-0_
  6
CONTINUOUS
 62
    7
 10
188.46941
 20
104.85753
 11
188.46941
 21
106.12739
  0
LINE
  8
_0-0_
  6
CONTINUOUS
 62
    7
 10
186.96665
 20
98.909573
 11
186.96665
 21
104.85753
  0
LINE
  8
_0-0_
  6
CONTINUOUS
 62
    7
 10
187.96143
 20
97.91463
 11
187.96143
 21
104.85753
  0
LINE
  8
_0-0_
  6
CONTINUOUS
 62
    7
 10
188.46941
 20
104.85753
 11
186.96665
 21
104.85753
  0
LINE
  8
_0-0_
  6
CONTINUOUS
 62
    7
 10
207.58297
 20
107.84201
 11
204.59848
 21
107.84201
  0
LINE
  8
_0-0_
  6
CONTINUOUS
 62
    7
 10
207.58297
 20
97.91463
 11
187.96143
 21
97.91463
  0
LINE
  8
_0-0_
  6
CONTINUOUS
 62
    7
 10
207.58297
 20
106.12739
 11
202.79928
 21
106.12739
  0
LINE
  8
_0-0_
  6
CONTINUOUS
 62
    7
 10
238.35938
 20
130.68076
 11
238.84618
 21
131.16755
  0
LINE
  8
_0-0_
  6
CONTINUOUS
 62
    7
 10
176.80655
 20
130.68076
 11
176.31976
 21
131.16755
  0
LINE
  8
_0-0_
  6
CONTINUOUS
 62
    7
 10
226.69636
 20
104.85753
 11
226.69636
 21
106.12739
  0
LINE
  8
_0-0_
  6
CONTINUOUS
 62
    7
 10
228.17809
 20
98.909573
 11
227.18315
 21
97.91463
  0
LINE
  8
_0-0_
  6
CONTINUOUS
 62
    7
 10
184.74405
 20
111.31329
 11
184.8288
 21
110.80514
  0
LINE
  8
_0-0_
  6
CONTINUOUS
 62
    7
 10
184.8288
 20
110.80514
 11
185.01931
 21
110.31835
  0
LINE
  8
_0-0_
  6
CONTINUOUS
 62
    7
 10
185.01931
 20
110.31835
 11
185.33678
 21
109.9163
  0
LINE
  8
_0-0_
  6
CONTINUOUS
 62
    7
 10
185.33678
 20
109.9163
 11
185.73899
 21
109.59867
  0
LINE
  8
_0-0_
  6
CONTINUOUS
 62
    7
 10
185.73899
 20
109.59867
 11
186.22579
 21
109.38714
  0
LINE
  8
_0-0_
  6
CONTINUOUS
 62
    7
 10
186.22579
 20
109.38714
 11
186.73377
 21
109.32375
  0
LINE
  8
_0-0_
  6
CONTINUOUS
 62
    7
 10
176.51027
 20
134.15221
 11
176.31976
 21
133.94051
  0
LINE
  8
_0-0_
  6
CONTINUOUS
 62
    7
 10
238.84618
 20
133.94051
 11
238.65566
 21
134.15221
  0
LINE
  8
_0-0_
  6
CONTINUOUS
 62
    7
 10
207.58297
 20
133.94051
 11
238.50752
 21
133.94051
  0
LINE
  8
_0-0_
  6
CONTINUOUS
 62
    7
 10
185.31559
 20
111.54618
 11
207.07499
 21
111.54618
  0
LINE
  8
_0-0_
  6
CONTINUOUS
 62
    7
 10
187.94024
 20
119.25079
 11
186.14104
 21
118.67925
  0
LINE
  8
_0-0_
  6
CONTINUOUS
 62
    7
 10
186.14104
 20
118.67925
 11
185.67543
 21
118.46755
  0
LINE
  8
_0-0_
  6
CONTINUOUS
 62
    7
 10
185.67543
 20
118.46755
 11
185.29441
 21
118.15008
  0
LINE
  8
_0-0_
  6
CONTINUOUS
 62
    7
 10
185.29441
 20
118.15008
 11
184.99813
 21
117.74804
  0
LINE
  8
_0-0_
  6
CONTINUOUS
 62
    7
 10
184.99813
 20
117.74804
 11
184.80761
 21
117.28226
  0
LINE
  8
_0-0_
  6
CONTINUOUS
 62
    7
 10
184.80761
 20
117.28226
 11
184.74405
 21
116.79547
  0
LINE
  8
_0-0_
  6
CONTINUOUS
 62
    7
 10
185.0827
 20
116.79547
 11
207.58297
 21
116.79547
  0
LINE
  8
_0-0_
  6
CONTINUOUS
 62
    7
 10
186.43749
 20
130.68076
 11
186.43749
 21
132.94556
  0
LINE
  8
_0-0_
  6
CONTINUOUS
 62
    7
 10
186.43749
 20
132.94556
 11
187.13598
 21
132.94556
  0
LINE
  8
_0-0_
  6
CONTINUOUS
 62
    7
 10
186.43749
 20
130.68076
 11
187.13598
 21
130.68076
  0
LINE
  8
_0-0_
  6
CONTINUOUS
 62
    7
 10
185.73899
 20
134.15221
 11
186.43749
 21
132.94556
  0
LINE
  8
_0-0_
  6
CONTINUOUS
 62
    7
 10
187.36887
 20
107.2281
 11
188.4272
 21
108.28643
  0
LINE
  8
_0-0_
  6
CONTINUOUS
 62
    7
 10
189.65486
 20
107.05894
 11
188.46941
 21
105.8945
  0
LINE
  8
_0-0_
  6
CONTINUOUS
 62
    7
 10
187.45345
 20
104.85753
 11
186.96665
 21
104.39175
  0
LINE
  8
_0-0_
  6
CONTINUOUS
 62
    7
 10
186.96665
 20
101.93643
 11
187.96143
 21
102.93137
  0
LINE
  8
_0-0_
  6
CONTINUOUS
 62
    7
 10
187.96143
 20
102.93137
 11
190.45912
 21
105.40771
  0
LINE
  8
_0-0_
  6
CONTINUOUS
 62
    7
 10
190.45912
 20
102.95239
 11
187.96143
 21
100.45469
  0
LINE
  8
_0-0_
  6
CONTINUOUS
 62
    7
 10
187.96143
 20
100.45469
 11
186.96665
 21
99.481114
  0
LINE
  8
_0-0_
  6
CONTINUOUS
 62
    7
 10
187.91905
 20
97.957004
 11
187.96143
 21
97.999379
  0
LINE
  8
_0-0_
  6
CONTINUOUS
 62
    7
 10
187.96143
 20
97.999379
 11
190.45912
 21
100.49707
  0
LINE
  8
_0-0_
  6
CONTINUOUS
 62
    7
 10
190.45912
 20
98.041754
 11
190.33217
 21
97.91463
  0
LINE
  8
_0-0_
  6
CONTINUOUS
 62
    7
 10
185.50611
 20
107.84201
 11
187.00903
 21
109.32375
  0
LINE
  8
_0-0_
  6
CONTINUOUS
 62
    7
 10
185.23102
 20
110.02207
 11
183.26249
 21
108.05354
  0
LINE
  8
_0-0_
  6
CONTINUOUS
 62
    7
 10
183.26249
 20
110.50886
 11
184.74405
 21
111.9906
  0
LINE
  8
_0-0_
  6
CONTINUOUS
 62
    7
 10
184.74405
 20
114.44592
 11
183.26249
 21
112.96418
  0
LINE
  8
_0-0_
  6
CONTINUOUS
 62
    7
 10
183.26249
 20
115.41967
 11
184.76524
 21
116.90124
  0
LINE
  8
_0-0_
  6
CONTINUOUS
 62
    7
 10
186.71258
 20
118.86976
 11
187.11479
 21
119.25079
  0
LINE
  8
_0-0_
  6
CONTINUOUS
 62
    7
 10
187.11479
 20
119.25079
 11
187.94024
 21
120.07624
  0
LINE
  8
_0-0_
  6
CONTINUOUS
 62
    7
 10
187.94024
 20
122.53155
 11
187.09361
 21
121.68492
  0
LINE
  8
_0-0_
  6
CONTINUOUS
 62
    7
 10
187.09361
 20
121.68492
 11
183.26249
 21
117.87499
  0
LINE
  8
_0-0_
  6
CONTINUOUS
 62
    7
 10
183.26249
 20
120.33031
 11
187.09361
 21
124.16143
  0
LINE
  8
_0-0_
  6
CONTINUOUS
 62
    7
 10
187.09361
 20
124.16143
 11
187.94024
 21
124.98687
  0
LINE
  8
_0-0_
  6
CONTINUOUS
 62
    7
 10
187.94024
 20
127.44237
 11
187.09361
 21
126.61675
  0
LINE
  8
_0-0_
  6
CONTINUOUS
 62
    7
 10
187.09361
 20
126.61675
 11
183.26249
 21
122.78563
  0
LINE
  8
_0-0_
  6
CONTINUOUS
 62
    7
 10
183.26249
 20
125.24095
 11
187.09361
 21
129.07207
  0
LINE
  8
_0-0_
  6
CONTINUOUS
 62
    7
 10
187.09361
 20
129.07207
 11
187.55921
 21
129.53785
  0
LINE
  8
_0-0_
  6
CONTINUOUS
 62
    7
 10
186.43749
 20
130.87127
 11
183.26249
 21
127.69627
  0
LINE
  8
_0-0_
  6
CONTINUOUS
 62
    7
 10
183.22011
 20
130.10921
 11
186.28935
 21
133.19964
  0
LINE
  8
_0-0_
  6
CONTINUOUS
 62
    7
 10
184.80761
 20
134.15221
 11
184.57472
 21
133.94051
  0
LINE
  8
_0-0_
  6
CONTINUOUS
 62
    7
 10
183.98217
 20
133.32659
 11
181.31515
 21
130.68076
  0
LINE
  8
_0-0_
  6
CONTINUOUS
 62
    7
 10
178.85983
 20
130.68076
 11
180.36258
 21
132.18368
  0
LINE
  8
_0-0_
  6
CONTINUOUS
 62
    7
 10
178.4788
 20
132.73403
 11
176.61604
 21
130.87127
  0
LINE
  8
_0-0_
  6
CONTINUOUS
 62
    7
 10
176.31976
 20
133.03031
 11
177.08181
 21
133.81338
  0
LINE
  8
_0-0_
  6
CONTINUOUS
 62
    7
 10
240.37029
 20
97.91463
 11
227.22552
 21
97.91463
  0
LINE
  8
_0-0_
  6
CONTINUOUS
 62
    7
 10
282.38598
 20
97.91463
 11
227.22552
 21
97.91463
  0
LINE
  8
_0-0_
  6
CONTINUOUS
 62
    7
 10
282.38598
 20
141.09476
 11
238.90957
 21
141.09476
  0
LINE
  8
_0-0_
  6
CONTINUOUS
 62
    7
 10
183.26249
 20
114.86932
 11
183.26249
 21
107.88439
  0
LINE
  8
_0-0_
  6
CONTINUOUS
 62
    7
 10
231.90362
 20
114.86932
 11
231.90362
 21
107.88439
  0
LINE
  8
_0-0_
  6
CONTINUOUS
 62
    7
 10
176.34095
 20
208.80691
 11
238.86719
 21
208.80691
  0
LINE
  8
_0-0_
  6
CONTINUOUS
 62
    7
 10
176.34095
 20
208.80691
 11
179.23872
 21
209.58337
  0
LINE
  8
_0-0_
  6
CONTINUOUS
 62
    7
 10
176.34095
 20
208.80691
 11
179.23872
 21
208.03045
  0
LINE
  8
_0-0_
  6
CONTINUOUS
 62
    7
 10
238.86719
 20
208.80691
 11
235.96941
 21
209.58337
  0
LINE
  8
_0-0_
  6
CONTINUOUS
 62
    7
 10
238.86719
 20
208.80691
 11
235.96941
 21
208.03045
  0
TEXT
  8
_0-0_
 62
    7
 10
205.97907
 20
208.80691
 40
3
 41
1
 50
0
  1
63
  0
LINE
  8
_0-0_
  6
CONTINUOUS
 62
    7
 10
246.89698
 20
97.91463
 11
246.89698
 21
107.88439
  0
LINE
  8
_0-0_
  6
CONTINUOUS
 62
    7
 10
246.89698
 20
97.91463
 11
246.12052
 21
100.8124
  0
LINE
  8
_0-0_
  6
CONTINUOUS
 62
    7
 10
246.89698
 20
97.91463
 11
247.67343
 21
100.8124
  0
LINE
  8
_0-0_
  6
CONTINUOUS
 62
    7
 10
246.89698
 20
107.88439
 11
246.12052
 21
104.98661
  0
LINE
  8
_0-0_
  6
CONTINUOUS
 62
    7
 10
246.89698
 20
107.88439
 11
247.67343
 21
104.98661
  0
LINE
  8
_0-0_
  6
CONTINUOUS
 62
    7
 10
246.89698
 20
107.88439
 11
234.90362
 21
107.88439
  0
TEXT
  8
_0-0_
 62
    7
 10
246.89698
 20
101.27451
 40
3
 41
1
 50
90
  1
10
  0
LINE
  8
_0-0_
  6
CONTINUOUS
 62
    7
 10
287.14008
 20
97.91463
 11
287.14008
 21
141.09476
  0
LINE
  8
_0-0_
  6
CONTINUOUS
 62
    7
 10
287.14008
 20
97.91463
 11
286.36363
 21
100.8124
  0
LINE
  8
_0-0_
  6
CONTINUOUS
 62
    7
 10
287.14008
 20
97.91463
 11
287.91654
 21
100.8124
  0
LINE
  8
_0-0_
  6
CONTINUOUS
 62
    7
 10
287.14008
 20
141.09476
 11
286.36363
 21
138.19698
  0
LINE
  8
_0-0_
  6
CONTINUOUS
 62
    7
 10
287.14008
 20
141.09476
 11
287.91654
 21
138.19698
  0
LINE
  8
_0-0_
  6
CONTINUOUS
 62
    7
 10
287.14008
 20
97.91463
 11
249.89698
 21
97.91463
  0
LINE
  8
_0-0_
  6
CONTINUOUS
 62
    7
 10
287.14008
 20
141.09476
 11
241.90957
 21
141.09476
  0
LINE
  8
_0-0_
  6
CONTINUOUS
 62
    7
 10
287.14008
 20
141.09476
 11
287.14008
 21
184.35948
  0
LINE
  8
_0-0_
  6
CONTINUOUS
 62
    7
 10
287.14008
 20
141.09476
 11
286.36363
 21
143.99254
  0
LINE
  8
_0-0_
  6
CONTINUOUS
 62
    7
 10
287.14008
 20
141.09476
 11
287.91654
 21
143.99254
  0
LINE
  8
_0-0_
  6
CONTINUOUS
 62
    7
 10
287.14008
 20
184.35948
 11
286.36363
 21
181.4617
  0
LINE
  8
_0-0_
  6
CONTINUOUS
 62
    7
 10
287.14008
 20
184.35948
 11
287.91654
 21
181.4617
  0
LINE
  8
_0-0_
  6
CONTINUOUS
 62
    7
 10
287.14008
 20
184.35948
 11
241.88855
 21
184.35948
  0
TEXT
  8
_0-0_
 62
    7
 10
287.14008
 20
117.87969
 40
3
 41
1
 50
90
  1
40
  0
TEXT
  8
_0-0_
 62
    7
 10
287.14008
 20
157.60212
 40
3
 41
1
 50
90
  1
31～50
  0
LINE
  8
_0-0_
  6
CONTINUOUS
 62
    7
 10
266.26913
 20
185.14272
 11
266.26913
 21
195.9164
  0
LINE
  8
_0-0_
  6
CONTINUOUS
 62
    7
 10
266.26913
 20
185.14272
 11
265.49268
 21
188.0405
  0
LINE
  8
_0-0_
  6
CONTINUOUS
 62
    7
 10
266.26913
 20
185.14272
 11
267.04559
 21
188.0405
  0
LINE
  8
_0-0_
  6
CONTINUOUS
 62
    7
 10
266.26913
 20
195.9164
 11
265.49268
 21
193.01862
  0
LINE
  8
_0-0_
  6
CONTINUOUS
 62
    7
 10
266.26913
 20
195.9164
 11
267.04559
 21
193.01862
  0
LINE
  8
_0-0_
  6
CONTINUOUS
 62
    7
 10
266.26913
 20
185.14272
 11
241.86719
 21
185.14272
  0
LINE
  8
_0-0_
  6
CONTINUOUS
 62
    7
 10
266.26913
 20
195.9164
 11
241.86719
 21
195.9164
  0
TEXT
  8
_0-0_
 62
    7
 10
266.26913
 20
195.9164
 40
3
 41
1
 50
90
  1
3.5～10
  0
LINE
  8
_0-0_
  6
CONTINUOUS
 62
    7
 10
186.98784
 20
78.890891
 11
228.17809
 21
78.890891
  0
LINE
  8
_0-0_
  6
CONTINUOUS
 62
    7
 10
186.98784
 20
78.890891
 11
189.88562
 21
79.667348
  0
LINE
  8
_0-0_
  6
CONTINUOUS
 62
    7
 10
186.98784
 20
78.890891
 11
189.88562
 21
78.114434
  0
LINE
  8
_0-0_
  6
CONTINUOUS
 62
    7
 10
228.17809
 20
78.890891
 11
225.28031
 21
79.667348
  0
LINE
  8
_0-0_
  6
CONTINUOUS
 62
    7
 10
228.17809
 20
78.890891
 11
225.28031
 21
78.114434
  0
LINE
  8
_0-0_
  6
CONTINUOUS
 62
    7
 10
186.98784
 20
78.890891
 11
186.98784
 21
95.888382
  0
LINE
  8
_0-0_
  6
CONTINUOUS
 62
    7
 10
228.17809
 20
78.890891
 11
228.17809
 21
95.909573
  0
TEXT
  8
_0-0_
 62
    7
 10
205.95797
 20
78.890891
 40
3
 41
1
 50
0
  1
1 1/4
  0
TEXT
  8
_0-0_
 62
    7
 10
263.00121
 20
24.588966
 40
3
 41
1
 50
0
  1
RP-8530.360.5
  0
TEXT
  8
_0-0_
 62
    7
 10
285.00121
 20
11.838966
 40
3
 41
1
 50
0
  1
S=1/1
  0
TEXT
  8
_0-0_
 62
    7
 10
255.12621
 20
20.088966
 40
3
 41
1
 50
0
  1
クリッカー(スロット有)
  0
ENDSEC
  0
EOF
