  0
SECTION
  2
HEADER
  9
$ACADVER
  1
AC1009
  9
$INSBASE
 10
0
 20
0
 30
0
  9
$EXTMIN
 10
0
 20
0
  9
$EXTMAX
 10
420
 20
297
  9
$LIMMIN
 10
0
 20
0
  9
$LIMMAX
 10
420
 20
297
  9
$LTSCALE
 40
1
  0
ENDSEC
  0
SECTION
  2
TABLES
  0
TABLE
  2
LTYPE
 70
     9
  0
LTYPE
  2
CONTINUOUS
 70
    64
  3
実線
 72
    65
 73
     0
 40
0.0
  0
LTYPE
  2
DASHED1
 70
    64
  3
--  --  --  --  --  --  --  --  
 72
    65
 73
     2
 40
2.5
 49
1.25
 49
-1.25
  0
LTYPE
  2
DASHED2
 70
    64
  3
----    ----    ----    ----    
 72
    65
 73
     2
 40
5.0
 49
2.5
 49
-2.5
  0
LTYPE
  2
DASHED3
 70
    64
  3
------  ------  ------  ------  
 72
    65
 73
     2
 40
5.0
 49
3.75
 49
-1.25
  0
LTYPE
  2
CENTER1
 70
    64
  3
----- - ----- - ----- - ----- - 
 72
    65
 73
     4
 40
10.0
 49
6.25
 49
-1.25
 49
1.25
 49
-1.25
  0
LTYPE
  2
CENTER2
 70
    64
  3
----------  --  ----------  --  
 72
    65
 73
     4
 40
20.0
 49
12.5
 49
-2.5
 49
2.5
 49
-2.5
  0
LTYPE
  2
PHANTOM1
 70
    64
  3
--- - - --- - - --- - - --- - - 
 72
    65
 73
     6
 40
10.0
 49
3.25
 49
-1.25
 49
1.25
 49
-1.25
 49
1.25
 49
-1.25
  0
LTYPE
  2
PHANTOM2
 70
    64
  3
--------  -  -  --------  -  -  
 72
    65
 73
     6
 40
20.0
 49
10.0
 49
-2.5
 49
1.25
 49
-2.5
 49
1.25
 49
-2.5
  0
LTYPE
  2
DOT
 70
    64
  3
-   -   -   -   -   -   -   -   
 72
    65
 73
     2
 40
2.5
 49
0.625
 49
-1.875
  0
LTYPE
  2
DUMMY
 70
    64
  3
ダミー
 72
    65
 73
     0
 40
0.0
  0
LTYPE
  2
RAND1
 70
    64
  3
ランダム線1
 72
    65
 73
     4
 40
10.0
 49
1.0
 49
-2.0
 49
3.0
 49
-4.0
  0
LTYPE
  2
RAND2
 70
    64
  3
ランダム線2
 72
    65
 73
     4
 40
14.0
 49
2.0
 49
-3.0
 49
4.0
 49
-5.0
  0
LTYPE
  2
RAND3
 70
    64
  3
ランダム線3
 72
    65
 73
     4
 40
18.0
 49
3.0
 49
-4.0
 49
5.0
 49
-6.0
  0
LTYPE
  2
RAND4
 70
    64
  3
ランダム線4
 72
    65
 73
     4
 40
22.0
 49
4.0
 49
-5.0
 49
6.0
 49
-7.0
  0
LTYPE
  2
RAND5
 70
    64
  3
ランダム線5
 72
    65
 73
     4
 40
26.0
 49
5.0
 49
-6.0
 49
7.0
 49
-8.0
  0
LTYPE
  2
LONG1
 70
    64
  3
----------  --  ----------  --  
 72
    65
 73
     4
 40
40.0
 49
32.5
 49
-2.5
 49
2.5
 49
-2.5
  0
LTYPE
  2
LONG2
 70
    64
  3
--------  -  -  --------  -  -  
 72
    65
 73
     6
 40
40.0
 49
30.0
 49
-2.5
 49
1.25
 49
-2.5
 49
1.25
 49
-2.5
  0
LTYPE
  2
LONG3
 70
    64
  3
+++++++++++++++..+++++++++++++++
 72
    65
 73
     2
 40
40.0
 49
37.5
 49
-2.5
  0
LTYPE
  2
LONG4
 70
    64
  3
+++++++++++++++..+++++++++++++++
 72
    65
 73
     2
 40
80.0
 49
75.0
 49
-5.0
  0
LTYPE
  2
LONG5
 70
    64
  3
----------  --  ----------  --  
 72
    65
 73
     4
 40
60.0
 49
37.5
 49
-7.5
 49
7.5
 49
-7.5
  0
LTYPE
  2
dashed
 70
   64
  3
-------   -------------   ------
 72
   65
 73
    2
 40
7.5
 49
6
 49
-1.5
  0
LTYPE
  2
dashed_spaced
 70
   64
  3
----        --------        ----
 72
   65
 73
    2
 40
12
 49
6
 49
-6
  0
LTYPE
  2
long_dashed_dotted
 70
   64
  3
------------- --- --------------
 72
   65
 73
    4
 40
15.25
 49
12
 49
-1.5
 49
0.25
 49
-1.5
  0
LTYPE
  2
long_dashed_double-dotted
 70
   64
  3
----------- --- --- ------------
 72
   65
 73
    6
 40
17
 49
12
 49
-1.5
 49
0.25
 49
-1.5
 49
0.25
 49
-1.5
  0
LTYPE
  2
long_dashed_triplicate-dotted
 70
   64
  3
--------- --- --- --- ----------
 72
   65
 73
    8
 40
18.75
 49
12
 49
-1.5
 49
0.25
 49
-1.5
 49
0.25
 49
-1.5
 49
0.25
 49
-1.5
  0
LTYPE
  2
dotted
 70
   64
  3
   -       -       -       -    
 72
   65
 73
    2
 40
1.75
 49
0.25
 49
-1.5
  0
LTYPE
  2
chain
 70
   64
  3
-------------- -- --------------
 72
   65
 73
    4
 40
18.5
 49
12
 49
-1.5
 49
3.5
 49
-1.5
  0
LTYPE
  2
chain_double_dash
 70
   64
  3
------------ -- -- -------------
 72
   65
 73
    6
 40
23.5
 49
12
 49
-1.5
 49
3.5
 49
-1.5
 49
3.5
 49
-1.5
  0
LTYPE
  2
dashed_dotted
 70
   64
  3
-----------     -     ----------
 72
   65
 73
    4
 40
9.25
 49
6
 49
-1.5
 49
0.25
 49
-1.5
  0
LTYPE
  2
double-dashed_dotted
 70
   64
  3
------   -----------   -   -----
 72
   65
 73
    6
 40
16.75
 49
6
 49
-1.5
 49
6
 49
-1.5
 49
0.25
 49
-1.5
  0
LTYPE
  2
dashed_double-dotted
 70
   64
  3
---------    -    -    ---------
 72
   65
 73
    6
 40
11
 49
6
 49
-1.5
 49
0.25
 49
-1.5
 49
0.25
 49
-1.5
  0
LTYPE
  2
double-dashed_double-dotted
 70
   64
  3
-----   ---------   -   -   ----
 72
   65
 73
    8
 40
18.5
 49
6
 49
-1.5
 49
6
 49
-1.5
 49
0.25
 49
-1.5
 49
0.25
 49
-1.5
  0
LTYPE
  2
dashed_triplicate-dotted
 70
   64
  3
-------    -    -    -    ------
 72
   65
 73
    8
 40
12.75
 49
6
 49
-1.5
 49
0.25
 49
-1.5
 49
0.25
 49
-1.5
 49
0.25
 49
-1.5
  0
LTYPE
  2
double-dashed_triplicate-dotted
 70
   64
  3
-----  ---------  -  -  -  -----
 72
   65
 73
   10
 40
20.25
 49
6
 49
-1.5
 49
6
 49
-1.5
 49
0.25
 49
-1.5
 49
0.25
 49
-1.5
 49
0.25
 49
-1.5
  0
LTYPE
  2
undefined
 70
   64
  3
--------------------------------
 72
   65
 73
    0
 40
0
  0
ENDTAB
  0
TABLE
  2
STYLE
  5
3
100
AcDbSymbolTable
 70
     1
  0
STYLE
  5
10
100
AcDbSymbolTableRecord
100
AcDbTextStyleTableRecord
  2
STANDARD
 70
     0
 40
0.0
 41
1.0
 50
0.0
 71
     0
 42
0.2
  3
txt
  4
bigfont.shx
  0
STYLE
  5
26
100
AcDbSymbolTableRecord
100
AcDbTextStyleTableRecord
  2
TATEGAKI
 70
    68
 40
0.0
 41
1.0
 50
0.0
 71
     0
 42
1.0
  3
txt
  4
bigfont.shx
  0
ENDTAB
  0
TABLE
  2
LAYER
 70
    3
  0
LAYER
  2
_0-0_
 70
   64
 62
    7
  6
CONTINUOUS
  0
LAYER
  2
_0-1_
 70
   64
 62
    7
  6
CONTINUOUS
  0
LAYER
  2
ADD_LINE
 70
   64
 62
    7
  6
CONTINUOUS
  0
ENDTAB
  0
ENDSEC
  0
SECTION
  2
BLOCKS
  0
ENDSEC
  0
SECTION
  2
ENTITIES
  0
TEXT
  8
_0-0_
 62
    7
 10
251.62621158683709
 20
20.088966595682223
 40
3
 41
1
 50
0
  1
(クリッカー：スロットなし)
  0
LINE
  8
_0-1_
  6
CONTINUOUS
 62
    1
 10
241.75121158683709
 20
28.338966595007264
 11
241.75121158683709
 21
10.338966596807268
  0
LINE
  8
_0-1_
  6
CONTINUOUS
 62
    1
 10
306.75121158683709
 20
287.5038448141957
 11
306.75121158683709
 21
10.338966596807268
  0
LINE
  8
ADD_LINE
  6
DOT
 62
    7
 10
310
 20
291.49999997140014
 11
110.0000000199999
 21
291.49999997140014
  0
LINE
  8
ADD_LINE
  6
DOT
 62
    7
 10
110.0000000199999
 20
291.49999997140014
 11
110.0000000199999
 21
5.5
  0
LINE
  8
ADD_LINE
  6
DOT
 62
    7
 10
110.0000000199999
 20
5.5
 11
310
 21
5.5
  0
LINE
  8
ADD_LINE
  6
DOT
 62
    7
 10
310
 20
5.5
 11
310
 21
291.49999997140014
  0
LINE
  8
_0-1_
  6
CONTINUOUS
 62
    1
 10
114.30465463589576
 20
10.338966596807268
 11
114.30465463589576
 21
287.5038448141957
  0
LINE
  8
_0-1_
  6
CONTINUOUS
 62
    1
 10
114.30465463589576
 20
287.5038448141957
 11
306.75121158683709
 21
287.5038448141957
  0
LINE
  8
_0-1_
  6
CONTINUOUS
 62
    1
 10
306.75121158683709
 20
28.338966595007207
 11
114.30465463589576
 21
28.338966595007207
  0
LINE
  8
_0-1_
  6
CONTINUOUS
 62
    1
 10
306.75121158683709
 20
10.338966596807268
 11
114.30465463589576
 21
10.338966596807268
  0
LINE
  8
_0-1_
  6
CONTINUOUS
 62
    7
 10
126.1766597049351
 20
13.819895418957401
 11
130.38050950713313
 21
13.819895418957401
  0
LINE
  8
_0-1_
  6
CONTINUOUS
 62
    7
 10
130.38050950713313
 20
13.819895418957401
 11
130.38050950713313
 21
18.029664629699312
  0
LINE
  8
_0-1_
  6
CONTINUOUS
 62
    7
 10
126.1766597049351
 20
18.029664629699312
 11
126.1766597049351
 21
13.819895418957401
  0
LINE
  8
_0-1_
  6
CONTINUOUS
 62
    7
 10
130.38050950713313
 20
18.029664629699312
 11
126.1766597049351
 21
18.029664629699312
  0
LINE
  8
_0-1_
  6
CONTINUOUS
 62
    7
 10
130.85683166959154
 20
19.40245639282324
 11
133.00683166959152
 21
23.126365629096227
  0
LINE
  8
_0-1_
  6
CONTINUOUS
 62
    7
 10
130.85683166959154
 20
19.40245639282324
 11
135.15683166959155
 21
19.40245639282324
  0
LINE
  8
_0-1_
  6
CONTINUOUS
 62
    7
 10
133.00683166959152
 20
23.126365629096227
 11
135.15683166959155
 21
19.40245639282324
  0
CIRCLE
  8
_0-1_
  6
CONTINUOUS
 62
    7
 10
136.38960112976145
 20
23.92213560710141
 40
1.4758715835162384
  0
LINE
  8
_0-1_
  6
CONTINUOUS
 62
    2
 10
139.35639702721204
 20
16.016395581136806
 11
141.16866199605749
 21
16.016395581136806
  0
LINE
  8
_0-1_
  6
CONTINUOUS
 62
    2
 10
141.63496965421251
 20
15.016395581136862
 11
142.24116960981405
 21
13.716395581136794
  0
LINE
  8
_0-1_
  6
CONTINUOUS
 62
    2
 10
138.89008936905702
 20
15.016395581136862
 11
138.28388941345554
 21
13.716395581136794
  0
LINE
  8
_0-1_
  6
CONTINUOUS
 62
    2
 10
140.2625295116348
 20
17.959602964879934
 11
141.16866199605749
 21
16.016395581136806
  0
LINE
  8
_0-1_
  6
CONTINUOUS
 62
    2
 10
140.2625295116348
 20
17.959602964879934
 11
139.35639702721204
 21
16.016395581136806
  0
LINE
  8
_0-1_
  6
CONTINUOUS
 62
    2
 10
139.66754969551971
 20
19.471523628320085
 11
136.98388941345553
 21
13.716395581136794
  0
LINE
  8
_0-1_
  6
CONTINUOUS
 62
    2
 10
147.51042248461488
 20
18.471523628320085
 11
147.58523649286826
 21
18.430466883560598
  0
LINE
  8
_0-1_
  6
CONTINUOUS
 62
    2
 10
147.58523649286826
 20
18.430466883560598
 11
147.71283294566626
 21
18.358737350812589
  0
LINE
  8
_0-1_
  6
CONTINUOUS
 62
    2
 10
147.71283294566626
 20
18.358737350812589
 11
147.83655935234094
 21
18.284391035332021
  0
LINE
  8
_0-1_
  6
CONTINUOUS
 62
    2
 10
147.83655935234094
 20
18.284391035332021
 11
147.95396631661163
 21
18.205771745516529
  0
LINE
  8
_0-1_
  6
CONTINUOUS
 62
    2
 10
147.95396631661163
 20
18.205771745516529
 11
148.06260444219782
 21
18.121223289763122
  0
LINE
  8
_0-1_
  6
CONTINUOUS
 62
    2
 10
148.06260444219782
 20
18.121223289763122
 11
148.16002433281886
 21
18.02908947646921
  0
LINE
  8
_0-1_
  6
CONTINUOUS
 62
    2
 10
148.16002433281886
 20
18.02908947646921
 11
148.21042248461492
 21
17.971523628320085
  0
LINE
  8
_0-1_
  6
CONTINUOUS
 62
    2
 10
148.21042248461492
 20
17.971523628320085
 11
148.28237112184786
 21
17.869989098545545
  0
LINE
  8
_0-1_
  6
CONTINUOUS
 62
    2
 10
148.28237112184786
 20
17.869989098545545
 11
148.37782669260349
 21
17.675811149029926
  0
LINE
  8
_0-1_
  6
CONTINUOUS
 62
    2
 10
148.37782669260349
 20
17.675811149029926
 11
148.44226346598793
 21
17.461258492089144
  0
LINE
  8
_0-1_
  6
CONTINUOUS
 62
    2
 10
148.44226346598793
 20
17.461258492089144
 11
148.48169991986532
 21
17.230779753798288
  0
LINE
  8
_0-1_
  6
CONTINUOUS
 62
    2
 10
148.48169991986532
 20
17.230779753798288
 11
148.50215453209967
 21
16.988823560233072
  0
LINE
  8
_0-1_
  6
CONTINUOUS
 62
    2
 10
148.50215453209967
 20
16.988823560233072
 11
148.50964578055505
 21
16.739838537468643
  0
LINE
  8
_0-1_
  6
CONTINUOUS
 62
    2
 10
148.50964578055505
 20
16.739838537468643
 11
148.51042248461488
 21
16.593959604728468
  0
LINE
  8
_0-1_
  6
CONTINUOUS
 62
    2
 10
148.51042248461488
 20
16.593959604728468
 11
148.50964578055505
 21
16.44808067198835
  0
LINE
  8
_0-1_
  6
CONTINUOUS
 62
    2
 10
148.50964578055505
 20
16.44808067198835
 11
148.50215453209967
 21
16.199095649223921
  0
LINE
  8
_0-1_
  6
CONTINUOUS
 62
    2
 10
148.50215453209967
 20
16.199095649223921
 11
148.48169991986532
 21
15.957139455658762
  0
LINE
  8
_0-1_
  6
CONTINUOUS
 62
    2
 10
148.48169991986532
 20
15.957139455658762
 11
148.44226346598793
 21
15.726660717367906
  0
LINE
  8
_0-1_
  6
CONTINUOUS
 62
    2
 10
148.44226346598793
 20
15.726660717367906
 11
148.37782669260349
 21
15.512108060426954
  0
LINE
  8
_0-1_
  6
CONTINUOUS
 62
    2
 10
148.37782669260349
 20
15.512108060426954
 11
148.28237112184786
 21
15.317930110911391
  0
LINE
  8
_0-1_
  6
CONTINUOUS
 62
    2
 10
148.28237112184786
 20
15.317930110911391
 11
148.21042248461492
 21
15.216395581136794
  0
LINE
  8
_0-1_
  6
CONTINUOUS
 62
    2
 10
148.21042248461492
 20
15.216395581136794
 11
148.16002433281886
 21
15.15882973298784
  0
LINE
  8
_0-1_
  6
CONTINUOUS
 62
    2
 10
148.16002433281886
 20
15.15882973298784
 11
148.06260444219782
 21
15.066695919693927
  0
LINE
  8
_0-1_
  6
CONTINUOUS
 62
    2
 10
148.06260444219782
 20
15.066695919693927
 11
147.95396631661163
 21
14.982147463940407
  0
LINE
  8
_0-1_
  6
CONTINUOUS
 62
    2
 10
147.95396631661163
 20
14.982147463940407
 11
147.83655935234094
 21
14.903528174124915
  0
LINE
  8
_0-1_
  6
CONTINUOUS
 62
    2
 10
147.83655935234094
 20
14.903528174124915
 11
147.71283294566626
 21
14.829181858644404
  0
LINE
  8
_0-1_
  6
CONTINUOUS
 62
    2
 10
147.71283294566626
 20
14.829181858644404
 11
147.58523649286826
 21
14.757452325896224
  0
LINE
  8
_0-1_
  6
CONTINUOUS
 62
    2
 10
147.58523649286826
 20
14.757452325896224
 11
147.51042248461488
 21
14.716395581136794
  0
LINE
  8
_0-1_
  6
CONTINUOUS
 62
    2
 10
147.51042248461488
 20
13.716395581136794
 11
147.57591121113927
 21
13.733349386091561
  0
LINE
  8
_0-1_
  6
CONTINUOUS
 62
    2
 10
147.57591121113927
 20
13.733349386091561
 11
147.6888885765992
 21
13.762873806782579
  0
LINE
  8
_0-1_
  6
CONTINUOUS
 62
    2
 10
147.6888885765992
 20
13.762873806782579
 11
147.80204863095958
 21
13.793214123288578
  0
LINE
  8
_0-1_
  6
CONTINUOUS
 62
    2
 10
147.80204863095958
 20
13.793214123288578
 11
147.91550700010657
 21
13.824886725365559
  0
LINE
  8
_0-1_
  6
CONTINUOUS
 62
    2
 10
147.91550700010657
 20
13.824886725365559
 11
148.02937930992653
 21
13.858408002769409
  0
LINE
  8
_0-1_
  6
CONTINUOUS
 62
    2
 10
148.02937930992653
 20
13.858408002769409
 11
148.14378118630572
 21
13.89429434525681
  0
LINE
  8
_0-1_
  6
CONTINUOUS
 62
    2
 10
148.14378118630572
 20
13.89429434525681
 11
148.21042248461492
 21
13.916395581136783
  0
LINE
  8
_0-1_
  6
CONTINUOUS
 62
    2
 10
148.21042248461492
 20
13.916395581136783
 11
148.34292672390819
 21
13.963378314317424
  0
LINE
  8
_0-1_
  6
CONTINUOUS
 62
    2
 10
148.34292672390819
 20
13.963378314317424
 11
148.56982931500551
 21
14.055518857610366
  0
LINE
  8
_0-1_
  6
CONTINUOUS
 62
    2
 10
148.56982931500551
 20
14.055518857610366
 11
148.78907924339109
 21
14.1636810935467
  0
LINE
  8
_0-1_
  6
CONTINUOUS
 62
    2
 10
148.78907924339109
 20
14.1636810935467
 11
148.99406389550711
 21
14.290104212994493
  0
LINE
  8
_0-1_
  6
CONTINUOUS
 62
    2
 10
148.99406389550711
 20
14.290104212994493
 11
149.17817065779582
 21
14.437027406821926
  0
LINE
  8
_0-1_
  6
CONTINUOUS
 62
    2
 10
149.17817065779582
 20
14.437027406821926
 11
149.3347869166995
 21
14.606689865896897
  0
LINE
  8
_0-1_
  6
CONTINUOUS
 62
    2
 10
149.3347869166995
 20
14.606689865896897
 11
149.41042248461486
 21
14.716395581136794
  0
LINE
  8
_0-1_
  6
CONTINUOUS
 62
    2
 10
149.41042248461486
 20
14.716395581136794
 11
149.43549298536175
 21
14.759580204159704
  0
LINE
  8
_0-1_
  6
CONTINUOUS
 62
    2
 10
149.43549298536175
 20
14.759580204159704
 11
149.47490228183676
 21
14.836612312496584
  0
LINE
  8
_0-1_
  6
CONTINUOUS
 62
    2
 10
149.47490228183676
 20
14.836612312496584
 11
149.51003040384671
 21
14.916423570451684
  0
LINE
  8
_0-1_
  6
CONTINUOUS
 62
    2
 10
149.51003040384671
 20
14.916423570451684
 11
149.54151552770202
 21
14.998454170037064
  0
LINE
  8
_0-1_
  6
CONTINUOUS
 62
    2
 10
149.54151552770202
 20
14.998454170037064
 11
149.56999582971304
 21
15.082144303264954
  0
LINE
  8
_0-1_
  6
CONTINUOUS
 62
    2
 10
149.56999582971304
 20
15.082144303264954
 11
149.59610948619024
 21
15.166934162147356
  0
LINE
  8
_0-1_
  6
CONTINUOUS
 62
    2
 10
149.59610948619024
 20
15.166934162147356
 11
149.6104224846149
 21
15.216395581136794
  0
LINE
  8
_0-1_
  6
CONTINUOUS
 62
    2
 10
149.6104224846149
 20
15.216395581136794
 11
149.64523764955487
 21
15.344622912301872
  0
LINE
  8
_0-1_
  6
CONTINUOUS
 62
    2
 10
149.64523764955487
 20
15.344622912301872
 11
149.69789086275694
 21
15.566707817695317
  0
LINE
  8
_0-1_
  6
CONTINUOUS
 62
    2
 10
149.69789086275694
 20
15.566707817695317
 11
149.74090434593938
 21
15.78986195096229
  0
LINE
  8
_0-1_
  6
CONTINUOUS
 62
    2
 10
149.74090434593938
 20
15.78986195096229
 11
149.77392123500215
 21
16.013851856235192
  0
LINE
  8
_0-1_
  6
CONTINUOUS
 62
    2
 10
149.77392123500215
 20
16.013851856235192
 11
149.79658466584556
 21
16.23844407764642
  0
LINE
  8
_0-1_
  6
CONTINUOUS
 62
    2
 10
149.79658466584556
 20
16.23844407764642
 11
149.80853777436982
 21
16.463405159328431
  0
LINE
  8
_0-1_
  6
CONTINUOUS
 62
    2
 10
149.80853777436982
 20
16.463405159328431
 11
149.81042248461489
 21
16.593959604728468
  0
LINE
  8
_0-1_
  6
CONTINUOUS
 62
    2
 10
149.81042248461489
 20
16.593959604728468
 11
149.80853777436982
 21
16.724514050128562
  0
LINE
  8
_0-1_
  6
CONTINUOUS
 62
    2
 10
149.80853777436982
 20
16.724514050128562
 11
149.79658466584556
 21
16.949475131810516
  0
LINE
  8
_0-1_
  6
CONTINUOUS
 62
    2
 10
149.79658466584556
 20
16.949475131810516
 11
149.77392123500215
 21
17.174067353221631
  0
LINE
  8
_0-1_
  6
CONTINUOUS
 62
    2
 10
149.77392123500215
 20
17.174067353221631
 11
149.74090434593938
 21
17.398057258494532
  0
LINE
  8
_0-1_
  6
CONTINUOUS
 62
    2
 10
149.74090434593938
 20
17.398057258494532
 11
149.69789086275694
 21
17.621211391761619
  0
LINE
  8
_0-1_
  6
CONTINUOUS
 62
    2
 10
149.69789086275694
 20
17.621211391761619
 11
149.64523764955487
 21
17.843296297155007
  0
LINE
  8
_0-1_
  6
CONTINUOUS
 62
    2
 10
149.64523764955487
 20
17.843296297155007
 11
149.6104224846149
 21
17.971523628320085
  0
LINE
  8
_0-1_
  6
CONTINUOUS
 62
    2
 10
149.6104224846149
 20
17.971523628320085
 11
149.59610948619024
 21
18.02098504730958
  0
LINE
  8
_0-1_
  6
CONTINUOUS
 62
    2
 10
149.59610948619024
 20
18.02098504730958
 11
149.56999582971304
 21
18.105774906191868
  0
LINE
  8
_0-1_
  6
CONTINUOUS
 62
    2
 10
149.56999582971304
 20
18.105774906191868
 11
149.54151552770202
 21
18.189465039419758
  0
LINE
  8
_0-1_
  6
CONTINUOUS
 62
    2
 10
149.54151552770202
 20
18.189465039419758
 11
149.51003040384671
 21
18.271495639005309
  0
LINE
  8
_0-1_
  6
CONTINUOUS
 62
    2
 10
149.51003040384671
 20
18.271495639005309
 11
149.47490228183676
 21
18.351306896960352
  0
LINE
  8
_0-1_
  6
CONTINUOUS
 62
    2
 10
149.47490228183676
 20
18.351306896960352
 11
149.43549298536175
 21
18.428339005297119
  0
LINE
  8
_0-1_
  6
CONTINUOUS
 62
    2
 10
149.43549298536175
 20
18.428339005297119
 11
149.41042248461486
 21
18.471523628320085
  0
LINE
  8
_0-1_
  6
CONTINUOUS
 62
    2
 10
149.41042248461486
 20
18.471523628320085
 11
149.3347869166995
 21
18.581229343560096
  0
LINE
  8
_0-1_
  6
CONTINUOUS
 62
    2
 10
149.3347869166995
 20
18.581229343560096
 11
149.17817065779582
 21
18.750891802635067
  0
LINE
  8
_0-1_
  6
CONTINUOUS
 62
    2
 10
149.17817065779582
 20
18.750891802635067
 11
148.99406389550711
 21
18.897814996462387
  0
LINE
  8
_0-1_
  6
CONTINUOUS
 62
    2
 10
148.99406389550711
 20
18.897814996462387
 11
148.78907924339109
 21
19.024238115910123
  0
LINE
  8
_0-1_
  6
CONTINUOUS
 62
    2
 10
148.78907924339109
 20
19.024238115910123
 11
148.56982931500551
 21
19.132400351846513
  0
LINE
  8
_0-1_
  6
CONTINUOUS
 62
    2
 10
148.56982931500551
 20
19.132400351846513
 11
148.34292672390819
 21
19.224540895139455
  0
LINE
  8
_0-1_
  6
CONTINUOUS
 62
    2
 10
148.34292672390819
 20
19.224540895139455
 11
148.21042248461492
 21
19.271523628320097
  0
LINE
  8
_0-1_
  6
CONTINUOUS
 62
    2
 10
148.21042248461492
 20
19.271523628320097
 11
148.14378118630572
 21
19.293624864200012
  0
LINE
  8
_0-1_
  6
CONTINUOUS
 62
    2
 10
148.14378118630572
 20
19.293624864200012
 11
148.02937930992653
 21
19.329511206687528
  0
LINE
  8
_0-1_
  6
CONTINUOUS
 62
    2
 10
148.02937930992653
 20
19.329511206687528
 11
147.91550700010657
 21
19.363032484091491
  0
LINE
  8
_0-1_
  6
CONTINUOUS
 62
    2
 10
147.91550700010657
 20
19.363032484091491
 11
147.80204863095958
 21
19.394705086168301
  0
LINE
  8
_0-1_
  6
CONTINUOUS
 62
    2
 10
147.80204863095958
 20
19.394705086168301
 11
147.6888885765992
 21
19.425045402674243
  0
LINE
  8
_0-1_
  6
CONTINUOUS
 62
    2
 10
147.6888885765992
 20
19.425045402674243
 11
147.57591121113927
 21
19.454569823365262
  0
LINE
  8
_0-1_
  6
CONTINUOUS
 62
    2
 10
147.57591121113927
 20
19.454569823365262
 11
147.51042248461488
 21
19.471523628320085
  0
LINE
  8
_0-1_
  6
CONTINUOUS
 62
    2
 10
151.1104224846149
 20
19.471523628320085
 11
153.14408276667905
 21
15.110325079467998
  0
LINE
  8
_0-1_
  6
CONTINUOUS
 62
    2
 10
155.17774304874325
 20
19.471523628320085
 11
153.14408276667905
 21
15.110325079467998
  0
LINE
  8
_0-1_
  6
CONTINUOUS
 62
    2
 10
149.81042248461489
 20
19.471523628320085
 11
152.49408276667907
 21
13.716395581136794
  0
LINE
  8
_0-1_
  6
CONTINUOUS
 62
    2
 10
153.79408276667908
 20
13.716395581136794
 11
156.47774304874326
 21
19.471523628320085
  0
LINE
  8
_0-1_
  6
CONTINUOUS
 62
    2
 10
157.47774304874326
 20
19.471523628320085
 11
154.79408276667908
 21
13.716395581136794
  0
LINE
  8
_0-1_
  6
CONTINUOUS
 62
    2
 10
158.81317700919021
 20
19.471523628320085
 11
161.49683729125434
 21
13.716395581136794
  0
LINE
  8
_0-1_
  6
CONTINUOUS
 62
    2
 10
138.89008936905702
 20
15.016395581136862
 11
141.63496965421251
 21
15.016395581136862
  0
LINE
  8
_0-1_
  6
CONTINUOUS
 62
    2
 10
156.70028272228058
 20
15.016395581136862
 11
159.5906373356529
 21
15.016395581136862
  0
LINE
  8
_0-1_
  6
CONTINUOUS
 62
    2
 10
157.16659038043559
 20
16.016395581136806
 11
159.12432967749788
 21
16.016395581136806
  0
LINE
  8
_0-1_
  6
CONTINUOUS
 62
    2
 10
163.37338575263738
 20
18.471523628320085
 11
166.34471953372667
 21
13.716395581136794
  0
LINE
  8
_0-1_
  6
CONTINUOUS
 62
    2
 10
166.95214513026218
 20
14.820099331457641
 11
166.95214513026218
 21
19.471523628320085
  0
LINE
  8
_0-1_
  6
CONTINUOUS
 62
    2
 10
168.0521451302622
 20
13.716395581136794
 11
168.0521451302622
 21
19.471523628320085
  0
LINE
  8
_0-1_
  6
CONTINUOUS
 62
    2
 10
164.0456126444264
 20
19.471523628320085
 11
166.95214513026218
 21
14.820099331457641
  0
LINE
  8
_0-1_
  6
CONTINUOUS
 62
    2
 10
162.07338575263736
 20
19.471523628320085
 11
162.07338575263736
 21
13.716395581136794
  0
LINE
  8
_0-1_
  6
CONTINUOUS
 62
    2
 10
147.51042248461488
 20
18.471523628320085
 11
145.51042248461488
 21
18.471523628320085
  0
LINE
  8
_0-1_
  6
CONTINUOUS
 62
    2
 10
145.51042248461488
 20
14.716395581136794
 11
147.51042248461488
 21
14.716395581136794
  0
LINE
  8
_0-1_
  6
CONTINUOUS
 62
    2
 10
159.12432967749788
 20
16.016395581136806
 11
158.14546002896674
 21
18.115588316688672
  0
LINE
  8
_0-1_
  6
CONTINUOUS
 62
    2
 10
157.16659038043559
 20
16.016395581136806
 11
158.14546002896674
 21
18.115588316688672
  0
LINE
  8
_0-1_
  6
CONTINUOUS
 62
    2
 10
156.09408276667909
 20
13.716395581136794
 11
156.70028272228058
 21
15.016395581136862
  0
LINE
  8
_0-1_
  6
CONTINUOUS
 62
    2
 10
160.19683729125438
 20
13.716395581136794
 11
159.5906373356529
 21
15.016395581136862
  0
LINE
  8
_0-1_
  6
CONTINUOUS
 62
    2
 10
163.37338575263738
 20
18.471523628320085
 11
163.37338575263738
 21
13.716395581136794
  0
LINE
  8
_0-1_
  6
CONTINUOUS
 62
    2
 10
136.98388941345553
 20
13.716395581136794
 11
138.28388941345554
 21
13.716395581136794
  0
LINE
  8
_0-1_
  6
CONTINUOUS
 62
    2
 10
142.24116960981405
 20
13.716395581136794
 11
143.54116960981401
 21
13.716395581136794
  0
LINE
  8
_0-1_
  6
CONTINUOUS
 62
    2
 10
140.85750932774988
 20
19.471523628320085
 11
143.54116960981401
 21
13.716395581136794
  0
LINE
  8
_0-1_
  6
CONTINUOUS
 62
    2
 10
140.85750932774988
 20
19.471523628320085
 11
139.66754969551971
 21
19.471523628320085
  0
LINE
  8
_0-1_
  6
CONTINUOUS
 62
    2
 10
144.21042248461492
 20
19.471523628320085
 11
144.21042248461492
 21
13.716395581136794
  0
LINE
  8
_0-1_
  6
CONTINUOUS
 62
    2
 10
145.51042248461488
 20
18.471523628320085
 11
145.51042248461488
 21
14.716395581136794
  0
LINE
  8
_0-1_
  6
CONTINUOUS
 62
    2
 10
144.21042248461492
 20
13.716395581136794
 11
147.51042248461488
 21
13.716395581136794
  0
LINE
  8
_0-1_
  6
CONTINUOUS
 62
    2
 10
147.51042248461488
 20
19.471523628320085
 11
144.21042248461492
 21
19.471523628320085
  0
LINE
  8
_0-1_
  6
CONTINUOUS
 62
    2
 10
151.1104224846149
 20
19.471523628320085
 11
149.81042248461489
 21
19.471523628320085
  0
LINE
  8
_0-1_
  6
CONTINUOUS
 62
    2
 10
152.49408276667907
 20
13.716395581136794
 11
153.79408276667908
 21
13.716395581136794
  0
LINE
  8
_0-1_
  6
CONTINUOUS
 62
    2
 10
156.47774304874326
 20
19.471523628320085
 11
155.17774304874325
 21
19.471523628320085
  0
LINE
  8
_0-1_
  6
CONTINUOUS
 62
    2
 10
154.79408276667908
 20
13.716395581136794
 11
156.09408276667909
 21
13.716395581136794
  0
LINE
  8
_0-1_
  6
CONTINUOUS
 62
    2
 10
160.19683729125438
 20
13.716395581136794
 11
161.49683729125434
 21
13.716395581136794
  0
LINE
  8
_0-1_
  6
CONTINUOUS
 62
    2
 10
162.07338575263736
 20
13.716395581136794
 11
163.37338575263738
 21
13.716395581136794
  0
LINE
  8
_0-1_
  6
CONTINUOUS
 62
    2
 10
166.34471953372667
 20
13.716395581136794
 11
168.0521451302622
 21
13.716395581136794
  0
LINE
  8
_0-1_
  6
CONTINUOUS
 62
    2
 10
168.0521451302622
 20
19.471523628320085
 11
166.95214513026218
 21
19.471523628320085
  0
LINE
  8
_0-1_
  6
CONTINUOUS
 62
    2
 10
164.0456126444264
 20
19.471523628320085
 11
162.07338575263736
 21
19.471523628320085
  0
LINE
  8
_0-1_
  6
CONTINUOUS
 62
    2
 10
158.81317700919021
 20
19.471523628320085
 11
157.47774304874326
 21
19.471523628320085
  0
LINE
  8
_0-1_
  6
CONTINUOUS
 62
    2
 10
137.05622680985169
 20
13.871523628320062
 11
138.35622680985171
 21
13.871523628320062
  0
LINE
  8
_0-1_
  6
CONTINUOUS
 62
    2
 10
142.16883221341789
 20
13.871523628320062
 11
143.46883221341784
 21
13.871523628320062
  0
LINE
  8
_0-1_
  6
CONTINUOUS
 62
    2
 10
144.21042248461492
 20
13.871523628320062
 11
148.07119054141134
 21
13.871523628320062
  0
LINE
  8
_0-1_
  6
CONTINUOUS
 62
    2
 10
152.42174537028291
 20
13.871523628320062
 11
153.86642016307525
 21
13.871523628320062
  0
LINE
  8
_0-1_
  6
CONTINUOUS
 62
    2
 10
154.8664201630753
 20
13.871523628320062
 11
156.16642016307526
 21
13.871523628320062
  0
LINE
  8
_0-1_
  6
CONTINUOUS
 62
    2
 10
160.12449989485822
 20
13.871523628320062
 11
161.42449989485817
 21
13.871523628320062
  0
LINE
  8
_0-1_
  6
CONTINUOUS
 62
    2
 10
162.07338575263736
 20
13.871523628320062
 11
163.37338575263738
 21
13.871523628320062
  0
LINE
  8
_0-1_
  6
CONTINUOUS
 62
    2
 10
166.2477847714203
 20
13.871523628320062
 11
168.0521451302622
 21
13.871523628320062
  0
LINE
  8
_0-1_
  6
CONTINUOUS
 62
    2
 10
137.14948834148271
 20
14.071523628320108
 11
138.44948834148272
 21
14.071523628320108
  0
LINE
  8
_0-1_
  6
CONTINUOUS
 62
    2
 10
142.07557068178687
 20
14.071523628320108
 11
143.37557068178683
 21
14.071523628320108
  0
LINE
  8
_0-1_
  6
CONTINUOUS
 62
    2
 10
144.21042248461492
 20
14.071523628320108
 11
148.6022717363511
 21
14.071523628320108
  0
LINE
  8
_0-1_
  6
CONTINUOUS
 62
    2
 10
152.32848383865189
 20
14.071523628320108
 11
153.95968169470626
 21
14.071523628320108
  0
LINE
  8
_0-1_
  6
CONTINUOUS
 62
    2
 10
154.95968169470626
 20
14.071523628320108
 11
156.25968169470627
 21
14.071523628320108
  0
LINE
  8
_0-1_
  6
CONTINUOUS
 62
    2
 10
160.0312383632272
 20
14.071523628320108
 11
161.33123836322716
 21
14.071523628320108
  0
LINE
  8
_0-1_
  6
CONTINUOUS
 62
    2
 10
162.07338575263736
 20
14.071523628320108
 11
163.37338575263738
 21
14.071523628320108
  0
LINE
  8
_0-1_
  6
CONTINUOUS
 62
    2
 10
166.12281090103846
 20
14.071523628320108
 11
168.0521451302622
 21
14.071523628320108
  0
LINE
  8
_0-1_
  6
CONTINUOUS
 62
    2
 10
137.24274987311372
 20
14.271523628320097
 11
138.54274987311373
 21
14.271523628320097
  0
LINE
  8
_0-1_
  6
CONTINUOUS
 62
    2
 10
141.98230915015586
 20
14.271523628320097
 11
143.28230915015581
 21
14.271523628320097
  0
LINE
  8
_0-1_
  6
CONTINUOUS
 62
    2
 10
144.21042248461492
 20
14.271523628320097
 11
148.96393701126135
 21
14.271523628320097
  0
LINE
  8
_0-1_
  6
CONTINUOUS
 62
    2
 10
152.23522230702088
 20
14.271523628320097
 11
154.05294322633728
 21
14.271523628320097
  0
LINE
  8
_0-1_
  6
CONTINUOUS
 62
    2
 10
155.05294322633728
 20
14.271523628320097
 11
156.35294322633729
 21
14.271523628320097
  0
LINE
  8
_0-1_
  6
CONTINUOUS
 62
    2
 10
159.93797683159619
 20
14.271523628320097
 11
161.23797683159614
 21
14.271523628320097
  0
LINE
  8
_0-1_
  6
CONTINUOUS
 62
    2
 10
162.07338575263736
 20
14.271523628320097
 11
163.37338575263738
 21
14.271523628320097
  0
LINE
  8
_0-1_
  6
CONTINUOUS
 62
    2
 10
165.99783703065657
 20
14.271523628320097
 11
168.0521451302622
 21
14.271523628320097
  0
LINE
  8
_0-1_
  6
CONTINUOUS
 62
    2
 10
137.33601140474468
 20
14.471523628320142
 11
138.63601140474475
 21
14.471523628320142
  0
LINE
  8
_0-1_
  6
CONTINUOUS
 62
    2
 10
141.88904761852484
 20
14.471523628320142
 11
143.18904761852485
 21
14.471523628320142
  0
LINE
  8
_0-1_
  6
CONTINUOUS
 62
    2
 10
144.21042248461492
 20
14.471523628320142
 11
149.21001429124794
 21
14.471523628320142
  0
LINE
  8
_0-1_
  6
CONTINUOUS
 62
    2
 10
152.14196077538986
 20
14.471523628320142
 11
154.14620475796823
 21
14.471523628320142
  0
LINE
  8
_0-1_
  6
CONTINUOUS
 62
    2
 10
155.14620475796823
 20
14.471523628320142
 11
156.44620475796825
 21
14.471523628320142
  0
LINE
  8
_0-1_
  6
CONTINUOUS
 62
    2
 10
159.84471529996517
 20
14.471523628320142
 11
161.14471529996518
 21
14.471523628320142
  0
LINE
  8
_0-1_
  6
CONTINUOUS
 62
    2
 10
162.07338575263736
 20
14.471523628320142
 11
163.37338575263738
 21
14.471523628320142
  0
LINE
  8
_0-1_
  6
CONTINUOUS
 62
    2
 10
165.87286316027473
 20
14.471523628320142
 11
168.0521451302622
 21
14.471523628320142
  0
LINE
  8
_0-1_
  6
CONTINUOUS
 62
    2
 10
137.4292729363757
 20
14.671523628320074
 11
138.72927293637571
 21
14.671523628320074
  0
LINE
  8
_0-1_
  6
CONTINUOUS
 62
    2
 10
141.79578608689383
 20
14.671523628320074
 11
143.09578608689384
 21
14.671523628320074
  0
LINE
  8
_0-1_
  6
CONTINUOUS
 62
    2
 10
144.21042248461492
 20
14.671523628320074
 11
149.37948594108707
 21
14.671523628320074
  0
LINE
  8
_0-1_
  6
CONTINUOUS
 62
    2
 10
152.0486992437589
 20
14.671523628320074
 11
154.23946628959925
 21
14.671523628320074
  0
LINE
  8
_0-1_
  6
CONTINUOUS
 62
    2
 10
155.23946628959925
 20
14.671523628320074
 11
156.53946628959926
 21
14.671523628320074
  0
LINE
  8
_0-1_
  6
CONTINUOUS
 62
    2
 10
159.75145376833416
 20
14.671523628320074
 11
161.05145376833423
 21
14.671523628320074
  0
LINE
  8
_0-1_
  6
CONTINUOUS
 62
    2
 10
162.07338575263736
 20
14.671523628320074
 11
163.37338575263738
 21
14.671523628320074
  0
LINE
  8
_0-1_
  6
CONTINUOUS
 62
    2
 10
165.74788928989284
 20
14.671523628320074
 11
168.0521451302622
 21
14.671523628320074
  0
LINE
  8
_0-1_
  6
CONTINUOUS
 62
    2
 10
137.52253446800671
 20
14.871523628320006
 11
138.82253446800672
 21
14.871523628320006
  0
LINE
  8
_0-1_
  6
CONTINUOUS
 62
    2
 10
141.70252455526281
 20
14.871523628320006
 11
143.00252455526288
 21
14.871523628320006
  0
LINE
  8
_0-1_
  6
CONTINUOUS
 62
    2
 10
144.21042248461492
 20
14.871523628320006
 11
145.51042248461488
 21
14.871523628320006
  0
LINE
  8
_0-1_
  6
CONTINUOUS
 62
    2
 10
147.78329770212878
 20
14.871523628320006
 11
149.49026814616718
 21
14.871523628320006
  0
LINE
  8
_0-1_
  6
CONTINUOUS
 62
    2
 10
151.95543771212789
 20
14.871523628320006
 11
154.33272782123026
 21
14.871523628320006
  0
LINE
  8
_0-1_
  6
CONTINUOUS
 62
    2
 10
155.33272782123026
 20
14.871523628320006
 11
156.63272782123028
 21
14.871523628320006
  0
LINE
  8
_0-1_
  6
CONTINUOUS
 62
    2
 10
159.6581922367032
 20
14.871523628320006
 11
160.95819223670321
 21
14.871523628320006
  0
LINE
  8
_0-1_
  6
CONTINUOUS
 62
    2
 10
162.07338575263736
 20
14.871523628320006
 11
163.37338575263738
 21
14.871523628320006
  0
LINE
  8
_0-1_
  6
CONTINUOUS
 62
    2
 10
165.62291541951095
 20
14.871523628320006
 11
166.92001166320927
 21
14.871523628320006
  0
LINE
  8
_0-1_
  6
CONTINUOUS
 62
    2
 10
166.95214513026218
 20
14.871523628320006
 11
168.0521451302622
 21
14.871523628320006
  0
LINE
  8
_0-1_
  6
CONTINUOUS
 62
    2
 10
137.61579599963773
 20
15.071523628320108
 11
142.90926302363187
 21
15.071523628320108
  0
LINE
  8
_0-1_
  6
CONTINUOUS
 62
    2
 10
144.21042248461492
 20
15.071523628320108
 11
145.51042248461488
 21
15.071523628320108
  0
LINE
  8
_0-1_
  6
CONTINUOUS
 62
    2
 10
148.06770913535559
 20
15.071523628320108
 11
149.5663815442731
 21
15.071523628320108
  0
LINE
  8
_0-1_
  6
CONTINUOUS
 62
    2
 10
151.86217618049687
 20
15.071523628320108
 11
154.42598935286128
 21
15.071523628320108
  0
LINE
  8
_0-1_
  6
CONTINUOUS
 62
    2
 10
155.42598935286128
 20
15.071523628320108
 11
160.8649307050722
 21
15.071523628320108
  0
LINE
  8
_0-1_
  6
CONTINUOUS
 62
    2
 10
162.07338575263736
 20
15.071523628320108
 11
163.37338575263738
 21
15.071523628320108
  0
LINE
  8
_0-1_
  6
CONTINUOUS
 62
    2
 10
165.49794154912911
 20
15.071523628320108
 11
166.79503779282743
 21
15.071523628320108
  0
LINE
  8
_0-1_
  6
CONTINUOUS
 62
    2
 10
166.95214513026218
 20
15.071523628320108
 11
168.0521451302622
 21
15.071523628320108
  0
LINE
  8
_0-1_
  6
CONTINUOUS
 62
    2
 10
137.70905753126874
 20
15.271523628320153
 11
142.81600149200085
 21
15.271523628320153
  0
LINE
  8
_0-1_
  6
CONTINUOUS
 62
    2
 10
144.21042248461492
 20
15.271523628320153
 11
145.51042248461488
 21
15.271523628320153
  0
LINE
  8
_0-1_
  6
CONTINUOUS
 62
    2
 10
148.24948690808696
 20
15.271523628320153
 11
149.62539037046315
 21
15.271523628320153
  0
LINE
  8
_0-1_
  6
CONTINUOUS
 62
    2
 10
151.76891464886592
 20
15.271523628320153
 11
153.06891464886587
 21
15.271523628320153
  0
LINE
  8
_0-1_
  6
CONTINUOUS
 62
    2
 10
153.21925088449228
 20
15.271523628320153
 11
154.51925088449229
 21
15.271523628320153
  0
LINE
  8
_0-1_
  6
CONTINUOUS
 62
    2
 10
155.51925088449229
 20
15.271523628320153
 11
160.77166917344118
 21
15.271523628320153
  0
LINE
  8
_0-1_
  6
CONTINUOUS
 62
    2
 10
162.07338575263736
 20
15.271523628320153
 11
163.37338575263738
 21
15.271523628320153
  0
LINE
  8
_0-1_
  6
CONTINUOUS
 62
    2
 10
165.37296767874727
 20
15.271523628320153
 11
166.67006392244554
 21
15.271523628320153
  0
LINE
  8
_0-1_
  6
CONTINUOUS
 62
    2
 10
166.95214513026218
 20
15.271523628320153
 11
168.0521451302622
 21
15.271523628320153
  0
LINE
  8
_0-1_
  6
CONTINUOUS
 62
    2
 10
137.80231906289976
 20
15.471523628320142
 11
142.72273996036984
 21
15.471523628320142
  0
LINE
  8
_0-1_
  6
CONTINUOUS
 62
    2
 10
144.21042248461492
 20
15.471523628320142
 11
145.51042248461488
 21
15.471523628320142
  0
LINE
  8
_0-1_
  6
CONTINUOUS
 62
    2
 10
148.35787586842281
 20
15.471523628320142
 11
149.67532402775407
 21
15.471523628320142
  0
LINE
  8
_0-1_
  6
CONTINUOUS
 62
    2
 10
151.6756531172349
 20
15.471523628320142
 11
152.97565311723486
 21
15.471523628320142
  0
LINE
  8
_0-1_
  6
CONTINUOUS
 62
    2
 10
153.31251241612324
 20
15.471523628320142
 11
154.61251241612325
 21
15.471523628320142
  0
LINE
  8
_0-1_
  6
CONTINUOUS
 62
    2
 10
155.61251241612325
 20
15.471523628320142
 11
160.67840764181017
 21
15.471523628320142
  0
LINE
  8
_0-1_
  6
CONTINUOUS
 62
    2
 10
162.07338575263736
 20
15.471523628320142
 11
163.37338575263738
 21
15.471523628320142
  0
LINE
  8
_0-1_
  6
CONTINUOUS
 62
    2
 10
165.24799380836538
 20
15.471523628320142
 11
166.5450900520637
 21
15.471523628320142
  0
LINE
  8
_0-1_
  6
CONTINUOUS
 62
    2
 10
166.95214513026218
 20
15.471523628320142
 11
168.0521451302622
 21
15.471523628320142
  0
LINE
  8
_0-1_
  6
CONTINUOUS
 62
    2
 10
137.89558059453071
 20
15.671523628320074
 11
142.62947842873882
 21
15.671523628320074
  0
LINE
  8
_0-1_
  6
CONTINUOUS
 62
    2
 10
144.21042248461492
 20
15.671523628320074
 11
145.51042248461488
 21
15.671523628320074
  0
LINE
  8
_0-1_
  6
CONTINUOUS
 62
    2
 10
148.42570409933779
 20
15.671523628320074
 11
149.71809435637613
 21
15.671523628320074
  0
LINE
  8
_0-1_
  6
CONTINUOUS
 62
    2
 10
151.58239158560389
 20
15.671523628320074
 11
152.8823915856039
 21
15.671523628320074
  0
LINE
  8
_0-1_
  6
CONTINUOUS
 62
    2
 10
153.40577394775426
 20
15.671523628320074
 11
154.70577394775427
 21
15.671523628320074
  0
LINE
  8
_0-1_
  6
CONTINUOUS
 62
    2
 10
155.70577394775427
 20
15.671523628320074
 11
160.58514611017915
 21
15.671523628320074
  0
LINE
  8
_0-1_
  6
CONTINUOUS
 62
    2
 10
162.07338575263736
 20
15.671523628320074
 11
163.37338575263738
 21
15.671523628320074
  0
LINE
  8
_0-1_
  6
CONTINUOUS
 62
    2
 10
165.12301993798354
 20
15.671523628320074
 11
166.42011618168181
 21
15.671523628320074
  0
LINE
  8
_0-1_
  6
CONTINUOUS
 62
    2
 10
166.95214513026218
 20
15.671523628320074
 11
168.0521451302622
 21
15.671523628320074
  0
LINE
  8
_0-1_
  6
CONTINUOUS
 62
    2
 10
137.98884212616173
 20
15.871523628320062
 11
142.53621689710781
 21
15.871523628320062
  0
LINE
  8
_0-1_
  6
CONTINUOUS
 62
    2
 10
144.21042248461492
 20
15.871523628320062
 11
145.51042248461488
 21
15.871523628320062
  0
LINE
  8
_0-1_
  6
CONTINUOUS
 62
    2
 10
148.46705047909239
 20
15.871523628320062
 11
149.75294156046789
 21
15.871523628320062
  0
LINE
  8
_0-1_
  6
CONTINUOUS
 62
    2
 10
151.48913005397287
 20
15.871523628320062
 11
152.78913005397288
 21
15.871523628320062
  0
LINE
  8
_0-1_
  6
CONTINUOUS
 62
    2
 10
153.49903547938527
 20
15.871523628320062
 11
154.79903547938522
 21
15.871523628320062
  0
LINE
  8
_0-1_
  6
CONTINUOUS
 62
    2
 10
155.79903547938528
 20
15.871523628320062
 11
160.49188457854819
 21
15.871523628320062
  0
LINE
  8
_0-1_
  6
CONTINUOUS
 62
    2
 10
162.07338575263736
 20
15.871523628320062
 11
163.37338575263738
 21
15.871523628320062
  0
LINE
  8
_0-1_
  6
CONTINUOUS
 62
    2
 10
164.99804606760165
 20
15.871523628320062
 11
166.29514231129997
 21
15.871523628320062
  0
LINE
  8
_0-1_
  6
CONTINUOUS
 62
    2
 10
166.95214513026218
 20
15.871523628320062
 11
168.0521451302622
 21
15.871523628320062
  0
LINE
  8
_0-1_
  6
CONTINUOUS
 62
    2
 10
138.08210365779269
 20
16.071523628320108
 11
139.3821036577927
 21
16.071523628320108
  0
LINE
  8
_0-1_
  6
CONTINUOUS
 62
    2
 10
141.14295536547684
 20
16.071523628320108
 11
142.44295536547685
 21
16.071523628320108
  0
LINE
  8
_0-1_
  6
CONTINUOUS
 62
    2
 10
144.21042248461492
 20
16.071523628320108
 11
145.51042248461488
 21
16.071523628320108
  0
LINE
  8
_0-1_
  6
CONTINUOUS
 62
    2
 10
148.49136978556726
 20
16.071523628320108
 11
149.77974084981361
 21
16.071523628320108
  0
LINE
  8
_0-1_
  6
CONTINUOUS
 62
    2
 10
151.39586852234186
 20
16.071523628320108
 11
152.69586852234193
 21
16.071523628320108
  0
LINE
  8
_0-1_
  6
CONTINUOUS
 62
    2
 10
153.59229701101629
 20
16.071523628320108
 11
154.89229701101624
 21
16.071523628320108
  0
LINE
  8
_0-1_
  6
CONTINUOUS
 62
    2
 10
155.89229701101624
 20
16.071523628320108
 11
157.19229701101625
 21
16.071523628320108
  0
LINE
  8
_0-1_
  6
CONTINUOUS
 62
    2
 10
159.09862304691717
 20
16.071523628320108
 11
160.39862304691718
 21
16.071523628320108
  0
LINE
  8
_0-1_
  6
CONTINUOUS
 62
    2
 10
162.07338575263736
 20
16.071523628320108
 11
163.37338575263738
 21
16.071523628320108
  0
LINE
  8
_0-1_
  6
CONTINUOUS
 62
    2
 10
164.87307219721981
 20
16.071523628320108
 11
166.17016844091808
 21
16.071523628320108
  0
LINE
  8
_0-1_
  6
CONTINUOUS
 62
    2
 10
166.95214513026218
 20
16.071523628320108
 11
168.0521451302622
 21
16.071523628320108
  0
LINE
  8
_0-1_
  6
CONTINUOUS
 62
    2
 10
138.1753651894237
 20
16.27152362832021
 11
139.47536518942371
 21
16.27152362832021
  0
LINE
  8
_0-1_
  6
CONTINUOUS
 62
    2
 10
141.04969383384582
 20
16.27152362832021
 11
142.34969383384583
 21
16.27152362832021
  0
LINE
  8
_0-1_
  6
CONTINUOUS
 62
    2
 10
144.21042248461492
 20
16.27152362832021
 11
145.51042248461488
 21
16.27152362832021
  0
LINE
  8
_0-1_
  6
CONTINUOUS
 62
    2
 10
148.5043336832008
 20
16.27152362832021
 11
149.79834231857456
 21
16.27152362832021
  0
LINE
  8
_0-1_
  6
CONTINUOUS
 62
    2
 10
151.30260699071084
 20
16.27152362832021
 11
152.60260699071091
 21
16.27152362832021
  0
LINE
  8
_0-1_
  6
CONTINUOUS
 62
    2
 10
153.6855585426473
 20
16.27152362832021
 11
154.98555854264725
 21
16.27152362832021
  0
LINE
  8
_0-1_
  6
CONTINUOUS
 62
    2
 10
155.98555854264725
 20
16.27152362832021
 11
157.28555854264727
 21
16.27152362832021
  0
LINE
  8
_0-1_
  6
CONTINUOUS
 62
    2
 10
159.00536151528621
 20
16.27152362832021
 11
160.30536151528622
 21
16.27152362832021
  0
LINE
  8
_0-1_
  6
CONTINUOUS
 62
    2
 10
162.07338575263736
 20
16.27152362832021
 11
163.37338575263738
 21
16.27152362832021
  0
LINE
  8
_0-1_
  6
CONTINUOUS
 62
    2
 10
164.74809832683792
 20
16.27152362832021
 11
166.04519457053624
 21
16.27152362832021
  0
LINE
  8
_0-1_
  6
CONTINUOUS
 62
    2
 10
166.95214513026218
 20
16.27152362832021
 11
168.0521451302622
 21
16.27152362832021
  0
LINE
  8
_0-1_
  6
CONTINUOUS
 62
    2
 10
138.26862672105472
 20
16.471523628320085
 11
139.56862672105467
 21
16.471523628320085
  0
LINE
  8
_0-1_
  6
CONTINUOUS
 62
    2
 10
140.95643230221481
 20
16.471523628320085
 11
142.25643230221488
 21
16.471523628320085
  0
LINE
  8
_0-1_
  6
CONTINUOUS
 62
    2
 10
144.21042248461492
 20
16.471523628320085
 11
145.51042248461488
 21
16.471523628320085
  0
LINE
  8
_0-1_
  6
CONTINUOUS
 62
    2
 10
148.50977059802534
 20
16.471523628320085
 11
149.80865497422184
 21
16.471523628320085
  0
LINE
  8
_0-1_
  6
CONTINUOUS
 62
    2
 10
151.20934545907988
 20
16.471523628320085
 11
152.5093454590799
 21
16.471523628320085
  0
LINE
  8
_0-1_
  6
CONTINUOUS
 62
    2
 10
153.77882007427826
 20
16.471523628320085
 11
155.07882007427827
 21
16.471523628320085
  0
LINE
  8
_0-1_
  6
CONTINUOUS
 62
    2
 10
156.07882007427827
 20
16.471523628320085
 11
157.37882007427822
 21
16.471523628320085
  0
LINE
  8
_0-1_
  6
CONTINUOUS
 62
    2
 10
158.9120999836552
 20
16.471523628320085
 11
160.21209998365521
 21
16.471523628320085
  0
LINE
  8
_0-1_
  6
CONTINUOUS
 62
    2
 10
162.07338575263736
 20
16.471523628320085
 11
163.37338575263738
 21
16.471523628320085
  0
LINE
  8
_0-1_
  6
CONTINUOUS
 62
    2
 10
164.62312445645608
 20
16.471523628320085
 11
165.92022070015435
 21
16.471523628320085
  0
LINE
  8
_0-1_
  6
CONTINUOUS
 62
    2
 10
166.95214513026218
 20
16.471523628320085
 11
168.0521451302622
 21
16.471523628320085
  0
LINE
  8
_0-1_
  6
CONTINUOUS
 62
    2
 10
138.36188825268573
 20
16.671523628320131
 11
139.66188825268569
 21
16.671523628320131
  0
LINE
  8
_0-1_
  6
CONTINUOUS
 62
    2
 10
140.86317077058385
 20
16.671523628320131
 11
142.16317077058386
 21
16.671523628320131
  0
LINE
  8
_0-1_
  6
CONTINUOUS
 62
    2
 10
144.21042248461492
 20
16.671523628320131
 11
145.51042248461488
 21
16.671523628320131
  0
LINE
  8
_0-1_
  6
CONTINUOUS
 62
    2
 10
148.51000951002771
 20
16.671523628320131
 11
149.8093027547622
 21
16.671523628320131
  0
LINE
  8
_0-1_
  6
CONTINUOUS
 62
    2
 10
151.11608392744893
 20
16.671523628320131
 11
152.41608392744888
 21
16.671523628320131
  0
LINE
  8
_0-1_
  6
CONTINUOUS
 62
    2
 10
153.87208160590927
 20
16.671523628320131
 11
155.17208160590928
 21
16.671523628320131
  0
LINE
  8
_0-1_
  6
CONTINUOUS
 62
    2
 10
156.17208160590928
 20
16.671523628320131
 11
157.47208160590924
 21
16.671523628320131
  0
LINE
  8
_0-1_
  6
CONTINUOUS
 62
    2
 10
158.81883845202424
 20
16.671523628320131
 11
160.11883845202419
 21
16.671523628320131
  0
LINE
  8
_0-1_
  6
CONTINUOUS
 62
    2
 10
162.07338575263736
 20
16.671523628320131
 11
163.37338575263738
 21
16.671523628320131
  0
LINE
  8
_0-1_
  6
CONTINUOUS
 62
    2
 10
164.49815058607419
 20
16.671523628320131
 11
165.79524682977251
 21
16.671523628320131
  0
LINE
  8
_0-1_
  6
CONTINUOUS
 62
    2
 10
166.95214513026218
 20
16.671523628320131
 11
168.0521451302622
 21
16.671523628320131
  0
LINE
  8
_0-1_
  6
CONTINUOUS
 62
    2
 10
138.45514978431675
 20
16.871523628320119
 11
139.7551497843167
 21
16.871523628320119
  0
LINE
  8
_0-1_
  6
CONTINUOUS
 62
    2
 10
140.76990923895289
 20
16.871523628320119
 11
142.06990923895285
 21
16.871523628320119
  0
LINE
  8
_0-1_
  6
CONTINUOUS
 62
    2
 10
144.21042248461492
 20
16.871523628320119
 11
145.51042248461488
 21
16.871523628320119
  0
LINE
  8
_0-1_
  6
CONTINUOUS
 62
    2
 10
148.50568375214669
 20
16.871523628320119
 11
149.80072655018341
 21
16.871523628320119
  0
LINE
  8
_0-1_
  6
CONTINUOUS
 62
    2
 10
151.02282239581791
 20
16.871523628320119
 11
152.32282239581787
 21
16.871523628320119
  0
LINE
  8
_0-1_
  6
CONTINUOUS
 62
    2
 10
153.96534313754023
 20
16.871523628320119
 11
155.26534313754024
 21
16.871523628320119
  0
LINE
  8
_0-1_
  6
CONTINUOUS
 62
    2
 10
156.2653431375403
 20
16.871523628320119
 11
157.56534313754025
 21
16.871523628320119
  0
LINE
  8
_0-1_
  6
CONTINUOUS
 62
    2
 10
158.72557692039322
 20
16.871523628320119
 11
160.02557692039318
 21
16.871523628320119
  0
LINE
  8
_0-1_
  6
CONTINUOUS
 62
    2
 10
162.07338575263736
 20
16.871523628320119
 11
163.37338575263738
 21
16.871523628320119
  0
LINE
  8
_0-1_
  6
CONTINUOUS
 62
    2
 10
164.3731767156923
 20
16.871523628320119
 11
165.67027295939062
 21
16.871523628320119
  0
LINE
  8
_0-1_
  6
CONTINUOUS
 62
    2
 10
166.95214513026218
 20
16.871523628320119
 11
168.0521451302622
 21
16.871523628320119
  0
LINE
  8
_0-1_
  6
CONTINUOUS
 62
    2
 10
138.5484113159477
 20
17.071523628319994
 11
139.84841131594771
 21
17.071523628319994
  0
LINE
  8
_0-1_
  6
CONTINUOUS
 62
    2
 10
140.67664770732188
 20
17.071523628319994
 11
141.97664770732183
 21
17.071523628319994
  0
LINE
  8
_0-1_
  6
CONTINUOUS
 62
    2
 10
144.21042248461492
 20
17.071523628319994
 11
145.51042248461488
 21
17.071523628319994
  0
LINE
  8
_0-1_
  6
CONTINUOUS
 62
    2
 10
148.49516319288426
 20
17.071523628319994
 11
149.78426884456377
 21
17.071523628319994
  0
LINE
  8
_0-1_
  6
CONTINUOUS
 62
    2
 10
150.9295608641869
 20
17.071523628319994
 11
152.22956086418691
 21
17.071523628319994
  0
LINE
  8
_0-1_
  6
CONTINUOUS
 62
    2
 10
154.05860466917125
 20
17.071523628319994
 11
155.35860466917126
 21
17.071523628319994
  0
LINE
  8
_0-1_
  6
CONTINUOUS
 62
    2
 10
156.35860466917126
 20
17.071523628319994
 11
157.65860466917127
 21
17.071523628319994
  0
LINE
  8
_0-1_
  6
CONTINUOUS
 62
    2
 10
158.63231538876221
 20
17.071523628319994
 11
159.93231538876222
 21
17.071523628319994
  0
LINE
  8
_0-1_
  6
CONTINUOUS
 62
    2
 10
162.07338575263736
 20
17.071523628319994
 11
163.37338575263738
 21
17.071523628319994
  0
LINE
  8
_0-1_
  6
CONTINUOUS
 62
    2
 10
164.24820284531046
 20
17.071523628319994
 11
165.54529908900878
 21
17.071523628319994
  0
LINE
  8
_0-1_
  6
CONTINUOUS
 62
    2
 10
166.95214513026218
 20
17.071523628319994
 11
168.0521451302622
 21
17.071523628319994
  0
LINE
  8
_0-1_
  6
CONTINUOUS
 62
    2
 10
138.64167284757872
 20
17.27152362832021
 11
139.94167284757873
 21
17.27152362832021
  0
LINE
  8
_0-1_
  6
CONTINUOUS
 62
    2
 10
140.58338617569086
 20
17.27152362832021
 11
141.88338617569082
 21
17.27152362832021
  0
LINE
  8
_0-1_
  6
CONTINUOUS
 62
    2
 10
144.21042248461492
 20
17.27152362832021
 11
145.51042248461488
 21
17.27152362832021
  0
LINE
  8
_0-1_
  6
CONTINUOUS
 62
    2
 10
148.47472837038407
 20
17.27152362832021
 11
149.75955584197482
 21
17.27152362832021
  0
LINE
  8
_0-1_
  6
CONTINUOUS
 62
    2
 10
150.83629933255588
 20
17.27152362832021
 11
152.13629933255589
 21
17.27152362832021
  0
LINE
  8
_0-1_
  6
CONTINUOUS
 62
    2
 10
154.15186620080226
 20
17.27152362832021
 11
155.45186620080227
 21
17.27152362832021
  0
LINE
  8
_0-1_
  6
CONTINUOUS
 62
    2
 10
156.45186620080227
 20
17.27152362832021
 11
157.75186620080228
 21
17.27152362832021
  0
LINE
  8
_0-1_
  6
CONTINUOUS
 62
    2
 10
158.53905385713119
 20
17.27152362832021
 11
159.8390538571312
 21
17.27152362832021
  0
LINE
  8
_0-1_
  6
CONTINUOUS
 62
    2
 10
162.07338575263736
 20
17.27152362832021
 11
163.37338575263738
 21
17.27152362832021
  0
LINE
  8
_0-1_
  6
CONTINUOUS
 62
    2
 10
164.12322897492862
 20
17.27152362832021
 11
165.42032521862689
 21
17.27152362832021
  0
LINE
  8
_0-1_
  6
CONTINUOUS
 62
    2
 10
166.95214513026218
 20
17.27152362832021
 11
168.0521451302622
 21
17.27152362832021
  0
LINE
  8
_0-1_
  6
CONTINUOUS
 62
    2
 10
138.73493437920968
 20
17.471523628320085
 11
140.03493437920974
 21
17.471523628320085
  0
LINE
  8
_0-1_
  6
CONTINUOUS
 62
    2
 10
140.49012464405985
 20
17.471523628320085
 11
141.79012464405986
 21
17.471523628320085
  0
LINE
  8
_0-1_
  6
CONTINUOUS
 62
    2
 10
144.21042248461492
 20
17.471523628320085
 11
145.51042248461488
 21
17.471523628320085
  0
LINE
  8
_0-1_
  6
CONTINUOUS
 62
    2
 10
148.43918052930235
 20
17.471523628320085
 11
149.72674353064679
 21
17.471523628320085
  0
LINE
  8
_0-1_
  6
CONTINUOUS
 62
    2
 10
150.74303780092487
 20
17.471523628320085
 11
152.04303780092488
 21
17.471523628320085
  0
LINE
  8
_0-1_
  6
CONTINUOUS
 62
    2
 10
154.24512773243328
 20
17.471523628320085
 11
155.54512773243323
 21
17.471523628320085
  0
LINE
  8
_0-1_
  6
CONTINUOUS
 62
    2
 10
156.54512773243323
 20
17.471523628320085
 11
157.8451277324333
 21
17.471523628320085
  0
LINE
  8
_0-1_
  6
CONTINUOUS
 62
    2
 10
158.44579232550018
 20
17.471523628320085
 11
159.74579232550019
 21
17.471523628320085
  0
LINE
  8
_0-1_
  6
CONTINUOUS
 62
    2
 10
162.07338575263736
 20
17.471523628320085
 11
163.37338575263738
 21
17.471523628320085
  0
LINE
  8
_0-1_
  6
CONTINUOUS
 62
    2
 10
163.99825510454673
 20
17.471523628320085
 11
165.29535134824505
 21
17.471523628320085
  0
LINE
  8
_0-1_
  6
CONTINUOUS
 62
    2
 10
166.95214513026218
 20
17.471523628320085
 11
168.0521451302622
 21
17.471523628320085
  0
LINE
  8
_0-1_
  6
CONTINUOUS
 62
    2
 10
138.82819591084069
 20
17.671523628320131
 11
140.12819591084076
 21
17.671523628320131
  0
LINE
  8
_0-1_
  6
CONTINUOUS
 62
    2
 10
140.39686311242883
 20
17.671523628320131
 11
141.69686311242884
 21
17.671523628320131
  0
LINE
  8
_0-1_
  6
CONTINUOUS
 62
    2
 10
144.21042248461492
 20
17.671523628320131
 11
145.51042248461488
 21
17.671523628320131
  0
LINE
  8
_0-1_
  6
CONTINUOUS
 62
    2
 10
148.37911436717388
 20
17.671523628320131
 11
149.68596253780623
 21
17.671523628320131
  0
LINE
  8
_0-1_
  6
CONTINUOUS
 62
    2
 10
150.64977626929385
 20
17.671523628320131
 11
151.94977626929392
 21
17.671523628320131
  0
LINE
  8
_0-1_
  6
CONTINUOUS
 62
    2
 10
154.33838926406429
 20
17.671523628320131
 11
155.63838926406424
 21
17.671523628320131
  0
LINE
  8
_0-1_
  6
CONTINUOUS
 62
    2
 10
156.63838926406424
 20
17.671523628320131
 11
157.93838926406426
 21
17.671523628320131
  0
LINE
  8
_0-1_
  6
CONTINUOUS
 62
    2
 10
158.35253079386916
 20
17.671523628320131
 11
159.65253079386918
 21
17.671523628320131
  0
LINE
  8
_0-1_
  6
CONTINUOUS
 62
    2
 10
162.07338575263736
 20
17.671523628320131
 11
163.37338575263738
 21
17.671523628320131
  0
LINE
  8
_0-1_
  6
CONTINUOUS
 62
    2
 10
163.87328123416484
 20
17.671523628320131
 11
165.17037747786316
 21
17.671523628320131
  0
LINE
  8
_0-1_
  6
CONTINUOUS
 62
    2
 10
166.95214513026218
 20
17.671523628320131
 11
168.0521451302622
 21
17.671523628320131
  0
LINE
  8
_0-1_
  6
CONTINUOUS
 62
    2
 10
138.92145744247171
 20
17.871523628320119
 11
140.22145744247172
 21
17.871523628320119
  0
LINE
  8
_0-1_
  6
CONTINUOUS
 62
    2
 10
140.30360158079782
 20
17.871523628320119
 11
141.60360158079789
 21
17.871523628320119
  0
LINE
  8
_0-1_
  6
CONTINUOUS
 62
    2
 10
144.21042248461492
 20
17.871523628320119
 11
145.51042248461488
 21
17.871523628320119
  0
LINE
  8
_0-1_
  6
CONTINUOUS
 62
    2
 10
148.28128373486419
 20
17.871523628320119
 11
149.63757361115216
 21
17.871523628320119
  0
LINE
  8
_0-1_
  6
CONTINUOUS
 62
    2
 10
150.55651473766289
 20
17.871523628320119
 11
151.85651473766291
 21
17.871523628320119
  0
LINE
  8
_0-1_
  6
CONTINUOUS
 62
    2
 10
154.43165079569525
 20
17.871523628320119
 11
155.73165079569526
 21
17.871523628320119
  0
LINE
  8
_0-1_
  6
CONTINUOUS
 62
    2
 10
156.73165079569526
 20
17.871523628320119
 11
158.03165079569521
 21
17.871523628320119
  0
LINE
  8
_0-1_
  6
CONTINUOUS
 62
    2
 10
158.25926926223821
 20
17.871523628320119
 11
159.55926926223822
 21
17.871523628320119
  0
LINE
  8
_0-1_
  6
CONTINUOUS
 62
    2
 10
162.07338575263736
 20
17.871523628320119
 11
163.37338575263738
 21
17.871523628320119
  0
LINE
  8
_0-1_
  6
CONTINUOUS
 62
    2
 10
163.748307363783
 20
17.871523628320119
 11
165.04540360748132
 21
17.871523628320119
  0
LINE
  8
_0-1_
  6
CONTINUOUS
 62
    2
 10
166.95214513026218
 20
17.871523628320119
 11
168.0521451302622
 21
17.871523628320119
  0
LINE
  8
_0-1_
  6
CONTINUOUS
 62
    2
 10
139.01471897410272
 20
18.071523628319994
 11
141.51034004916687
 21
18.071523628319994
  0
LINE
  8
_0-1_
  6
CONTINUOUS
 62
    2
 10
144.21042248461492
 20
18.071523628319994
 11
145.51042248461488
 21
18.071523628319994
  0
LINE
  8
_0-1_
  6
CONTINUOUS
 62
    2
 10
148.11515556765954
 20
18.071523628319994
 11
149.58054456886697
 21
18.071523628319994
  0
LINE
  8
_0-1_
  6
CONTINUOUS
 62
    2
 10
150.46325320603188
 20
18.071523628319994
 11
151.76325320603189
 21
18.071523628319994
  0
LINE
  8
_0-1_
  6
CONTINUOUS
 62
    2
 10
154.52491232732626
 20
18.071523628319994
 11
155.82491232732627
 21
18.071523628319994
  0
LINE
  8
_0-1_
  6
CONTINUOUS
 62
    2
 10
156.82491232732627
 20
18.071523628319994
 11
158.12491232732623
 21
18.071523628319994
  0
LINE
  8
_0-1_
  6
CONTINUOUS
 62
    2
 10
158.16600773060719
 20
18.071523628319994
 11
159.4660077306072
 21
18.071523628319994
  0
LINE
  8
_0-1_
  6
CONTINUOUS
 62
    2
 10
162.07338575263736
 20
18.071523628319994
 11
163.37338575263738
 21
18.071523628319994
  0
LINE
  8
_0-1_
  6
CONTINUOUS
 62
    2
 10
163.62333349340111
 20
18.071523628319994
 11
164.92042973709943
 21
18.071523628319994
  0
LINE
  8
_0-1_
  6
CONTINUOUS
 62
    2
 10
166.95214513026218
 20
18.071523628319994
 11
168.0521451302622
 21
18.071523628319994
  0
LINE
  8
_0-1_
  6
CONTINUOUS
 62
    2
 10
139.10798050573374
 20
18.271523628320153
 11
141.41707851753586
 21
18.271523628320153
  0
LINE
  8
_0-1_
  6
CONTINUOUS
 62
    2
 10
144.21042248461492
 20
18.271523628320153
 11
145.51042248461488
 21
18.271523628320153
  0
LINE
  8
_0-1_
  6
CONTINUOUS
 62
    2
 10
147.85577503336333
 20
18.271523628320153
 11
149.51001808463144
 21
18.271523628320153
  0
LINE
  8
_0-1_
  6
CONTINUOUS
 62
    2
 10
150.36999167440092
 20
18.271523628320153
 11
151.66999167440088
 21
18.271523628320153
  0
LINE
  8
_0-1_
  6
CONTINUOUS
 62
    2
 10
154.61817385895728
 20
18.271523628320153
 11
155.91817385895729
 21
18.271523628320153
  0
LINE
  8
_0-1_
  6
CONTINUOUS
 62
    2
 10
156.91817385895729
 20
18.271523628320153
 11
159.37274619897619
 21
18.271523628320153
  0
LINE
  8
_0-1_
  6
CONTINUOUS
 62
    2
 10
162.07338575263736
 20
18.271523628320153
 11
163.37338575263738
 21
18.271523628320153
  0
LINE
  8
_0-1_
  6
CONTINUOUS
 62
    2
 10
163.49835962301927
 20
18.271523628320153
 11
164.79545586671759
 21
18.271523628320153
  0
LINE
  8
_0-1_
  6
CONTINUOUS
 62
    2
 10
166.95214513026218
 20
18.271523628320153
 11
168.0521451302622
 21
18.271523628320153
  0
LINE
  8
_0-1_
  6
CONTINUOUS
 62
    2
 10
139.20124203736475
 20
18.471523628320085
 11
141.32381698590484
 21
18.471523628320085
  0
LINE
  8
_0-1_
  6
CONTINUOUS
 62
    2
 10
144.21042248461492
 20
18.471523628320085
 11
145.51042248461488
 21
18.471523628320085
  0
LINE
  8
_0-1_
  6
CONTINUOUS
 62
    2
 10
147.51042248461488
 20
18.471523628320085
 11
149.41042248461486
 21
18.471523628320085
  0
LINE
  8
_0-1_
  6
CONTINUOUS
 62
    2
 10
150.27673014276991
 20
18.471523628320085
 11
151.57673014276986
 21
18.471523628320085
  0
LINE
  8
_0-1_
  6
CONTINUOUS
 62
    2
 10
154.71143539058824
 20
18.471523628320085
 11
156.01143539058825
 21
18.471523628320085
  0
LINE
  8
_0-1_
  6
CONTINUOUS
 62
    2
 10
157.01143539058825
 20
18.471523628320085
 11
159.27948466734517
 21
18.471523628320085
  0
LINE
  8
_0-1_
  6
CONTINUOUS
 62
    2
 10
162.07338575263736
 20
18.471523628320085
 11
163.37338575263738
 21
18.471523628320085
  0
LINE
  8
_0-1_
  6
CONTINUOUS
 62
    2
 10
163.37338575263738
 20
18.471523628320085
 11
164.6704819963357
 21
18.471523628320085
  0
LINE
  8
_0-1_
  6
CONTINUOUS
 62
    2
 10
166.95214513026218
 20
18.471523628320085
 11
168.0521451302622
 21
18.471523628320085
  0
LINE
  8
_0-1_
  6
CONTINUOUS
 62
    2
 10
139.29450356899571
 20
18.671523628320131
 11
141.23055545427383
 21
18.671523628320131
  0
LINE
  8
_0-1_
  6
CONTINUOUS
 62
    2
 10
144.21042248461492
 20
18.671523628320131
 11
149.25143581382969
 21
18.671523628320131
  0
LINE
  8
_0-1_
  6
CONTINUOUS
 62
    2
 10
150.18346861113889
 20
18.671523628320131
 11
151.4834686111389
 21
18.671523628320131
  0
LINE
  8
_0-1_
  6
CONTINUOUS
 62
    2
 10
154.80469692221925
 20
18.671523628320131
 11
156.10469692221926
 21
18.671523628320131
  0
LINE
  8
_0-1_
  6
CONTINUOUS
 62
    2
 10
157.10469692221926
 20
18.671523628320131
 11
159.18622313571416
 21
18.671523628320131
  0
LINE
  8
_0-1_
  6
CONTINUOUS
 62
    2
 10
162.07338575263736
 20
18.671523628320131
 11
164.54550812595386
 21
18.671523628320131
  0
LINE
  8
_0-1_
  6
CONTINUOUS
 62
    2
 10
166.95214513026218
 20
18.671523628320131
 11
168.0521451302622
 21
18.671523628320131
  0
LINE
  8
_0-1_
  6
CONTINUOUS
 62
    2
 10
139.38776510062672
 20
18.871523628320062
 11
141.13729392264281
 21
18.871523628320062
  0
LINE
  8
_0-1_
  6
CONTINUOUS
 62
    2
 10
144.21042248461492
 20
18.871523628320062
 11
149.02700912722128
 21
18.871523628320062
  0
LINE
  8
_0-1_
  6
CONTINUOUS
 62
    2
 10
150.09020707950788
 20
18.871523628320062
 11
151.39020707950789
 21
18.871523628320062
  0
LINE
  8
_0-1_
  6
CONTINUOUS
 62
    2
 10
154.89795845385026
 20
18.871523628320062
 11
156.19795845385028
 21
18.871523628320062
  0
LINE
  8
_0-1_
  6
CONTINUOUS
 62
    2
 10
157.19795845385028
 20
18.871523628320062
 11
159.0929616040832
 21
18.871523628320062
  0
LINE
  8
_0-1_
  6
CONTINUOUS
 62
    2
 10
162.07338575263736
 20
18.871523628320062
 11
164.42053425557197
 21
18.871523628320062
  0
LINE
  8
_0-1_
  6
CONTINUOUS
 62
    2
 10
166.95214513026218
 20
18.871523628320062
 11
168.0521451302622
 21
18.871523628320062
  0
LINE
  8
_0-1_
  6
CONTINUOUS
 62
    2
 10
139.48102663225768
 20
19.071523628319994
 11
141.04403239101185
 21
19.071523628319994
  0
LINE
  8
_0-1_
  6
CONTINUOUS
 62
    2
 10
144.21042248461492
 20
19.071523628319994
 11
148.69322929058831
 21
19.071523628319994
  0
LINE
  8
_0-1_
  6
CONTINUOUS
 62
    2
 10
149.99694554787686
 20
19.071523628319994
 11
151.29694554787693
 21
19.071523628319994
  0
LINE
  8
_0-1_
  6
CONTINUOUS
 62
    2
 10
154.99121998548128
 20
19.071523628319994
 11
156.29121998548123
 21
19.071523628319994
  0
LINE
  8
_0-1_
  6
CONTINUOUS
 62
    2
 10
157.29121998548123
 20
19.071523628319994
 11
158.99970007245219
 21
19.071523628319994
  0
LINE
  8
_0-1_
  6
CONTINUOUS
 62
    2
 10
162.07338575263736
 20
19.071523628319994
 11
164.29556038519013
 21
19.071523628319994
  0
LINE
  8
_0-1_
  6
CONTINUOUS
 62
    2
 10
166.95214513026218
 20
19.071523628319994
 11
168.0521451302622
 21
19.071523628319994
  0
LINE
  8
_0-1_
  6
CONTINUOUS
 62
    2
 10
139.5742881638887
 20
19.271523628320097
 11
140.95077085938084
 21
19.271523628320097
  0
LINE
  8
_0-1_
  6
CONTINUOUS
 62
    2
 10
144.21042248461492
 20
19.271523628320097
 11
148.21042248461492
 21
19.271523628320097
  0
LINE
  8
_0-1_
  6
CONTINUOUS
 62
    2
 10
149.9036840162459
 20
19.271523628320097
 11
151.20368401624592
 21
19.271523628320097
  0
LINE
  8
_0-1_
  6
CONTINUOUS
 62
    2
 10
155.08448151711229
 20
19.271523628320097
 11
156.38448151711225
 21
19.271523628320097
  0
LINE
  8
_0-1_
  6
CONTINUOUS
 62
    2
 10
157.38448151711225
 20
19.271523628320097
 11
158.90643854082123
 21
19.271523628320097
  0
LINE
  8
_0-1_
  6
CONTINUOUS
 62
    2
 10
162.07338575263736
 20
19.271523628320097
 11
164.17058651480824
 21
19.271523628320097
  0
LINE
  8
_0-1_
  6
CONTINUOUS
 62
    2
 10
166.95214513026218
 20
19.271523628320097
 11
168.0521451302622
 21
19.271523628320097
  0
LINE
  8
_0-1_
  6
CONTINUOUS
 62
    2
 10
139.66754969551971
 20
19.471523628320085
 11
140.85750932774988
 21
19.471523628320085
  0
LINE
  8
_0-1_
  6
CONTINUOUS
 62
    2
 10
144.21042248461492
 20
19.471523628320085
 11
147.51042248461488
 21
19.471523628320085
  0
LINE
  8
_0-1_
  6
CONTINUOUS
 62
    2
 10
149.81042248461489
 20
19.471523628320085
 11
151.1104224846149
 21
19.471523628320085
  0
LINE
  8
_0-1_
  6
CONTINUOUS
 62
    2
 10
155.17774304874325
 20
19.471523628320085
 11
156.47774304874326
 21
19.471523628320085
  0
LINE
  8
_0-1_
  6
CONTINUOUS
 62
    2
 10
157.47774304874326
 20
19.471523628320085
 11
158.81317700919021
 21
19.471523628320085
  0
LINE
  8
_0-1_
  6
CONTINUOUS
 62
    2
 10
162.07338575263736
 20
19.471523628320085
 11
164.0456126444264
 21
19.471523628320085
  0
LINE
  8
_0-1_
  6
CONTINUOUS
 62
    2
 10
166.95214513026218
 20
19.471523628320085
 11
168.0521451302622
 21
19.471523628320085
  0
LINE
  8
_0-1_
  6
CONTINUOUS
 62
    2
 10
137.00959604403624
 20
13.771523628320153
 11
138.3095960440362
 21
13.771523628320153
  0
LINE
  8
_0-1_
  6
CONTINUOUS
 62
    2
 10
142.21546297923334
 20
13.771523628320153
 11
143.51546297923335
 21
13.771523628320153
  0
LINE
  8
_0-1_
  6
CONTINUOUS
 62
    2
 10
144.21042248461492
 20
13.771523628320153
 11
147.72114975209462
 21
13.771523628320153
  0
LINE
  8
_0-1_
  6
CONTINUOUS
 62
    2
 10
152.46837613609841
 20
13.771523628320153
 11
153.8197893972598
 21
13.771523628320153
  0
LINE
  8
_0-1_
  6
CONTINUOUS
 62
    2
 10
154.8197893972598
 20
13.771523628320153
 11
156.11978939725975
 21
13.771523628320153
  0
LINE
  8
_0-1_
  6
CONTINUOUS
 62
    2
 10
160.17113066067373
 20
13.771523628320153
 11
161.47113066067368
 21
13.771523628320153
  0
LINE
  8
_0-1_
  6
CONTINUOUS
 62
    2
 10
162.07338575263736
 20
13.771523628320153
 11
163.37338575263738
 21
13.771523628320153
  0
LINE
  8
_0-1_
  6
CONTINUOUS
 62
    2
 10
166.31027170661122
 20
13.771523628320153
 11
168.0521451302622
 21
13.771523628320153
  0
LINE
  8
_0-1_
  6
CONTINUOUS
 62
    2
 10
137.1028575756672
 20
13.971523628320085
 11
138.40285757566721
 21
13.971523628320085
  0
LINE
  8
_0-1_
  6
CONTINUOUS
 62
    2
 10
142.12220144760238
 20
13.971523628320085
 11
143.42220144760233
 21
13.971523628320085
  0
LINE
  8
_0-1_
  6
CONTINUOUS
 62
    2
 10
144.21042248461492
 20
13.971523628320085
 11
148.36298513453232
 21
13.971523628320085
  0
LINE
  8
_0-1_
  6
CONTINUOUS
 62
    2
 10
152.3751146044674
 20
13.971523628320085
 11
153.91305092889075
 21
13.971523628320085
  0
LINE
  8
_0-1_
  6
CONTINUOUS
 62
    2
 10
154.91305092889075
 20
13.971523628320085
 11
156.21305092889077
 21
13.971523628320085
  0
LINE
  8
_0-1_
  6
CONTINUOUS
 62
    2
 10
160.07786912904271
 20
13.971523628320085
 11
161.37786912904267
 21
13.971523628320085
  0
LINE
  8
_0-1_
  6
CONTINUOUS
 62
    2
 10
162.07338575263736
 20
13.971523628320085
 11
163.37338575263738
 21
13.971523628320085
  0
LINE
  8
_0-1_
  6
CONTINUOUS
 62
    2
 10
166.18529783622938
 20
13.971523628320085
 11
168.0521451302622
 21
13.971523628320085
  0
LINE
  8
_0-1_
  6
CONTINUOUS
 62
    2
 10
137.19611910729822
 20
14.171523628320074
 11
138.49611910729823
 21
14.171523628320074
  0
LINE
  8
_0-1_
  6
CONTINUOUS
 62
    2
 10
142.02893991597136
 20
14.171523628320074
 11
143.32893991597132
 21
14.171523628320074
  0
LINE
  8
_0-1_
  6
CONTINUOUS
 62
    2
 10
144.21042248461492
 20
14.171523628320074
 11
148.80179526613483
 21
14.171523628320074
  0
LINE
  8
_0-1_
  6
CONTINUOUS
 62
    2
 10
152.28185307283638
 20
14.171523628320074
 11
154.00631246052177
 21
14.171523628320074
  0
LINE
  8
_0-1_
  6
CONTINUOUS
 62
    2
 10
155.00631246052177
 20
14.171523628320074
 11
156.30631246052178
 21
14.171523628320074
  0
LINE
  8
_0-1_
  6
CONTINUOUS
 62
    2
 10
159.9846075974117
 20
14.171523628320074
 11
161.28460759741165
 21
14.171523628320074
  0
LINE
  8
_0-1_
  6
CONTINUOUS
 62
    2
 10
162.07338575263736
 20
14.171523628320074
 11
163.37338575263738
 21
14.171523628320074
  0
LINE
  8
_0-1_
  6
CONTINUOUS
 62
    2
 10
166.06032396584749
 20
14.171523628320074
 11
168.0521451302622
 21
14.171523628320074
  0
LINE
  8
_0-1_
  6
CONTINUOUS
 62
    2
 10
137.28938063892923
 20
14.371523628320062
 11
138.58938063892924
 21
14.371523628320062
  0
LINE
  8
_0-1_
  6
CONTINUOUS
 62
    2
 10
141.93567838434035
 20
14.371523628320062
 11
143.23567838434036
 21
14.371523628320062
  0
LINE
  8
_0-1_
  6
CONTINUOUS
 62
    2
 10
144.21042248461492
 20
14.371523628320062
 11
149.09608907310195
 21
14.371523628320062
  0
LINE
  8
_0-1_
  6
CONTINUOUS
 62
    2
 10
152.18859154120537
 20
14.371523628320062
 11
154.09957399215273
 21
14.371523628320062
  0
LINE
  8
_0-1_
  6
CONTINUOUS
 62
    2
 10
155.09957399215273
 20
14.371523628320062
 11
156.3995739921528
 21
14.371523628320062
  0
LINE
  8
_0-1_
  6
CONTINUOUS
 62
    2
 10
159.89134606578068
 20
14.371523628320062
 11
161.19134606578069
 21
14.371523628320062
  0
LINE
  8
_0-1_
  6
CONTINUOUS
 62
    2
 10
162.07338575263736
 20
14.371523628320062
 11
163.37338575263738
 21
14.371523628320062
  0
LINE
  8
_0-1_
  6
CONTINUOUS
 62
    2
 10
165.93535009546565
 20
14.371523628320062
 11
168.0521451302622
 21
14.371523628320062
  0
LINE
  8
_0-1_
  6
CONTINUOUS
 62
    2
 10
137.38264217056019
 20
14.571523628320108
 11
138.6826421705602
 21
14.571523628320108
  0
LINE
  8
_0-1_
  6
CONTINUOUS
 62
    2
 10
141.84241685270933
 20
14.571523628320108
 11
143.14241685270935
 21
14.571523628320108
  0
LINE
  8
_0-1_
  6
CONTINUOUS
 62
    2
 10
144.21042248461492
 20
14.571523628320108
 11
149.30232478807648
 21
14.571523628320108
  0
LINE
  8
_0-1_
  6
CONTINUOUS
 62
    2
 10
152.09533000957435
 20
14.571523628320108
 11
154.19283552378374
 21
14.571523628320108
  0
LINE
  8
_0-1_
  6
CONTINUOUS
 62
    2
 10
155.19283552378374
 20
14.571523628320108
 11
156.49283552378375
 21
14.571523628320108
  0
LINE
  8
_0-1_
  6
CONTINUOUS
 62
    2
 10
159.79808453414967
 20
14.571523628320108
 11
161.09808453414968
 21
14.571523628320108
  0
LINE
  8
_0-1_
  6
CONTINUOUS
 62
    2
 10
162.07338575263736
 20
14.571523628320108
 11
163.37338575263738
 21
14.571523628320108
  0
LINE
  8
_0-1_
  6
CONTINUOUS
 62
    2
 10
165.81037622508381
 20
14.571523628320108
 11
168.0521451302622
 21
14.571523628320108
  0
LINE
  8
_0-1_
  6
CONTINUOUS
 62
    2
 10
137.4759037021912
 20
14.771523628320097
 11
138.77590370219121
 21
14.771523628320097
  0
LINE
  8
_0-1_
  6
CONTINUOUS
 62
    2
 10
141.74915532107832
 20
14.771523628320097
 11
143.04915532107833
 21
14.771523628320097
  0
LINE
  8
_0-1_
  6
CONTINUOUS
 62
    2
 10
144.21042248461492
 20
14.771523628320097
 11
145.51042248461488
 21
14.771523628320097
  0
LINE
  8
_0-1_
  6
CONTINUOUS
 62
    2
 10
147.61026730244896
 20
14.771523628320097
 11
149.4416031899741
 21
14.771523628320097
  0
LINE
  8
_0-1_
  6
CONTINUOUS
 62
    2
 10
152.00206847794334
 20
14.771523628320097
 11
154.28609705541476
 21
14.771523628320097
  0
LINE
  8
_0-1_
  6
CONTINUOUS
 62
    2
 10
155.28609705541476
 20
14.771523628320097
 11
156.58609705541477
 21
14.771523628320097
  0
LINE
  8
_0-1_
  6
CONTINUOUS
 62
    2
 10
159.70482300251865
 20
14.771523628320097
 11
161.00482300251872
 21
14.771523628320097
  0
LINE
  8
_0-1_
  6
CONTINUOUS
 62
    2
 10
162.07338575263736
 20
14.771523628320097
 11
163.37338575263738
 21
14.771523628320097
  0
LINE
  8
_0-1_
  6
CONTINUOUS
 62
    2
 10
165.68540235470192
 20
14.771523628320097
 11
168.0521451302622
 21
14.771523628320097
  0
LINE
  8
_0-1_
  6
CONTINUOUS
 62
    2
 10
137.56916523382222
 20
14.971523628320142
 11
138.86916523382223
 21
14.971523628320142
  0
LINE
  8
_0-1_
  6
CONTINUOUS
 62
    2
 10
141.65589378944736
 20
14.971523628320142
 11
142.95589378944737
 21
14.971523628320142
  0
LINE
  8
_0-1_
  6
CONTINUOUS
 62
    2
 10
144.21042248461492
 20
14.971523628320142
 11
145.51042248461488
 21
14.971523628320142
  0
LINE
  8
_0-1_
  6
CONTINUOUS
 62
    2
 10
147.93810109712132
 20
14.971523628320142
 11
149.53117900150642
 21
14.971523628320142
  0
LINE
  8
_0-1_
  6
CONTINUOUS
 62
    2
 10
151.90880694631238
 20
14.971523628320142
 11
154.37935858704577
 21
14.971523628320142
  0
LINE
  8
_0-1_
  6
CONTINUOUS
 62
    2
 10
155.37935858704577
 20
14.971523628320142
 11
156.67935858704573
 21
14.971523628320142
  0
LINE
  8
_0-1_
  6
CONTINUOUS
 62
    2
 10
159.61156147088769
 20
14.971523628320142
 11
160.9115614708877
 21
14.971523628320142
  0
LINE
  8
_0-1_
  6
CONTINUOUS
 62
    2
 10
162.07338575263736
 20
14.971523628320142
 11
163.37338575263738
 21
14.971523628320142
  0
LINE
  8
_0-1_
  6
CONTINUOUS
 62
    2
 10
165.56042848432003
 20
14.971523628320142
 11
166.85752472801835
 21
14.971523628320142
  0
LINE
  8
_0-1_
  6
CONTINUOUS
 62
    2
 10
166.95214513026218
 20
14.971523628320142
 11
168.0521451302622
 21
14.971523628320142
  0
LINE
  8
_0-1_
  6
CONTINUOUS
 62
    2
 10
137.66242676545323
 20
15.171523628320074
 11
142.86263225781636
 21
15.171523628320074
  0
LINE
  8
_0-1_
  6
CONTINUOUS
 62
    2
 10
144.21042248461492
 20
15.171523628320074
 11
145.51042248461488
 21
15.171523628320074
  0
LINE
  8
_0-1_
  6
CONTINUOUS
 62
    2
 10
148.17113767318318
 20
15.171523628320074
 11
149.59743757227113
 21
15.171523628320074
  0
LINE
  8
_0-1_
  6
CONTINUOUS
 62
    2
 10
151.81554541468137
 20
15.171523628320074
 11
153.11554541468138
 21
15.171523628320074
  0
LINE
  8
_0-1_
  6
CONTINUOUS
 62
    2
 10
153.17262011867678
 20
15.171523628320074
 11
154.47262011867679
 21
15.171523628320074
  0
LINE
  8
_0-1_
  6
CONTINUOUS
 62
    2
 10
155.47262011867679
 20
15.171523628320074
 11
160.81829993925669
 21
15.171523628320074
  0
LINE
  8
_0-1_
  6
CONTINUOUS
 62
    2
 10
162.07338575263736
 20
15.171523628320074
 11
163.37338575263738
 21
15.171523628320074
  0
LINE
  8
_0-1_
  6
CONTINUOUS
 62
    2
 10
165.43545461393819
 20
15.171523628320074
 11
166.73255085763645
 21
15.171523628320074
  0
LINE
  8
_0-1_
  6
CONTINUOUS
 62
    2
 10
166.95214513026218
 20
15.171523628320074
 11
168.0521451302622
 21
15.171523628320074
  0
LINE
  8
_0-1_
  6
CONTINUOUS
 62
    2
 10
137.75568829708425
 20
15.371523628320062
 11
142.76937072618534
 21
15.371523628320062
  0
LINE
  8
_0-1_
  6
CONTINUOUS
 62
    2
 10
144.21042248461492
 20
15.371523628320062
 11
145.51042248461488
 21
15.371523628320062
  0
LINE
  8
_0-1_
  6
CONTINUOUS
 62
    2
 10
148.3087170576548
 20
15.371523628320062
 11
149.65161543166164
 21
15.371523628320062
  0
LINE
  8
_0-1_
  6
CONTINUOUS
 62
    2
 10
151.72228388305041
 20
15.371523628320062
 11
153.02228388305036
 21
15.371523628320062
  0
LINE
  8
_0-1_
  6
CONTINUOUS
 62
    2
 10
153.26588165030773
 20
15.371523628320062
 11
154.56588165030774
 21
15.371523628320062
  0
LINE
  8
_0-1_
  6
CONTINUOUS
 62
    2
 10
155.5658816503078
 20
15.371523628320062
 11
160.72503840762568
 21
15.371523628320062
  0
LINE
  8
_0-1_
  6
CONTINUOUS
 62
    2
 10
162.07338575263736
 20
15.371523628320062
 11
163.37338575263738
 21
15.371523628320062
  0
LINE
  8
_0-1_
  6
CONTINUOUS
 62
    2
 10
165.3104807435563
 20
15.371523628320062
 11
166.60757698725462
 21
15.371523628320062
  0
LINE
  8
_0-1_
  6
CONTINUOUS
 62
    2
 10
166.95214513026218
 20
15.371523628320062
 11
168.0521451302622
 21
15.371523628320062
  0
LINE
  8
_0-1_
  6
CONTINUOUS
 62
    2
 10
137.84894982871521
 20
15.571523628320108
 11
142.67610919455433
 21
15.571523628320108
  0
LINE
  8
_0-1_
  6
CONTINUOUS
 62
    2
 10
144.21042248461492
 20
15.571523628320108
 11
145.51042248461488
 21
15.571523628320108
  0
LINE
  8
_0-1_
  6
CONTINUOUS
 62
    2
 10
148.39567101827356
 20
15.571523628320108
 11
149.69881912156302
 21
15.571523628320108
  0
LINE
  8
_0-1_
  6
CONTINUOUS
 62
    2
 10
151.62902235141939
 20
15.571523628320108
 11
152.92902235141935
 21
15.571523628320108
  0
LINE
  8
_0-1_
  6
CONTINUOUS
 62
    2
 10
153.35914318193875
 20
15.571523628320108
 11
154.65914318193876
 21
15.571523628320108
  0
LINE
  8
_0-1_
  6
CONTINUOUS
 62
    2
 10
155.65914318193876
 20
15.571523628320108
 11
160.63177687599466
 21
15.571523628320108
  0
LINE
  8
_0-1_
  6
CONTINUOUS
 62
    2
 10
162.07338575263736
 20
15.571523628320108
 11
163.37338575263738
 21
15.571523628320108
  0
LINE
  8
_0-1_
  6
CONTINUOUS
 62
    2
 10
165.18550687317446
 20
15.571523628320108
 11
166.48260311687278
 21
15.571523628320108
  0
LINE
  8
_0-1_
  6
CONTINUOUS
 62
    2
 10
166.95214513026218
 20
15.571523628320108
 11
168.0521451302622
 21
15.571523628320108
  0
LINE
  8
_0-1_
  6
CONTINUOUS
 62
    2
 10
137.94221136034622
 20
15.771523628320153
 11
142.58284766292331
 21
15.771523628320153
  0
LINE
  8
_0-1_
  6
CONTINUOUS
 62
    2
 10
144.21042248461492
 20
15.771523628320153
 11
145.51042248461488
 21
15.771523628320153
  0
LINE
  8
_0-1_
  6
CONTINUOUS
 62
    2
 10
148.44993981015614
 20
15.771523628320153
 11
149.73736959118929
 21
15.771523628320153
  0
LINE
  8
_0-1_
  6
CONTINUOUS
 62
    2
 10
151.53576081978838
 20
15.771523628320153
 11
152.83576081978839
 21
15.771523628320153
  0
LINE
  8
_0-1_
  6
CONTINUOUS
 62
    2
 10
153.45240471356976
 20
15.771523628320153
 11
154.75240471356977
 21
15.771523628320153
  0
LINE
  8
_0-1_
  6
CONTINUOUS
 62
    2
 10
155.75240471356977
 20
15.771523628320153
 11
160.53851534436365
 21
15.771523628320153
  0
LINE
  8
_0-1_
  6
CONTINUOUS
 62
    2
 10
162.07338575263736
 20
15.771523628320153
 11
163.37338575263738
 21
15.771523628320153
  0
LINE
  8
_0-1_
  6
CONTINUOUS
 62
    2
 10
165.06053300279257
 20
15.771523628320153
 11
166.35762924649089
 21
15.771523628320153
  0
LINE
  8
_0-1_
  6
CONTINUOUS
 62
    2
 10
166.95214513026218
 20
15.771523628320153
 11
168.0521451302622
 21
15.771523628320153
  0
LINE
  8
_0-1_
  6
CONTINUOUS
 62
    2
 10
138.03547289197718
 20
15.971523628320142
 11
142.48958613129236
 21
15.971523628320142
  0
LINE
  8
_0-1_
  6
CONTINUOUS
 62
    2
 10
144.21042248461492
 20
15.971523628320142
 11
145.51042248461488
 21
15.971523628320142
  0
LINE
  8
_0-1_
  6
CONTINUOUS
 62
    2
 10
148.48291593616051
 20
15.971523628320142
 11
149.76768190736999
 21
15.971523628320142
  0
LINE
  8
_0-1_
  6
CONTINUOUS
 62
    2
 10
151.44249928815736
 20
15.971523628320142
 11
152.74249928815743
 21
15.971523628320142
  0
LINE
  8
_0-1_
  6
CONTINUOUS
 62
    2
 10
153.54566624520078
 20
15.971523628320142
 11
154.84566624520073
 21
15.971523628320142
  0
LINE
  8
_0-1_
  6
CONTINUOUS
 62
    2
 10
155.84566624520073
 20
15.971523628320142
 11
160.44525381273269
 21
15.971523628320142
  0
LINE
  8
_0-1_
  6
CONTINUOUS
 62
    2
 10
162.07338575263736
 20
15.971523628320142
 11
163.37338575263738
 21
15.971523628320142
  0
LINE
  8
_0-1_
  6
CONTINUOUS
 62
    2
 10
164.93555913241073
 20
15.971523628320142
 11
166.23265537610899
 21
15.971523628320142
  0
LINE
  8
_0-1_
  6
CONTINUOUS
 62
    2
 10
166.95214513026218
 20
15.971523628320142
 11
168.0521451302622
 21
15.971523628320142
  0
LINE
  8
_0-1_
  6
CONTINUOUS
 62
    2
 10
138.12873442360819
 20
16.171523628320131
 11
139.42873442360826
 21
16.171523628320131
  0
LINE
  8
_0-1_
  6
CONTINUOUS
 62
    2
 10
141.09632459966133
 20
16.171523628320131
 11
142.39632459966134
 21
16.171523628320131
  0
LINE
  8
_0-1_
  6
CONTINUOUS
 62
    2
 10
144.21042248461492
 20
16.171523628320131
 11
145.51042248461488
 21
16.171523628320131
  0
LINE
  8
_0-1_
  6
CONTINUOUS
 62
    2
 10
148.49982363497406
 20
16.171523628320131
 11
149.7898317740233
 21
16.171523628320131
  0
LINE
  8
_0-1_
  6
CONTINUOUS
 62
    2
 10
151.34923775652635
 20
16.171523628320131
 11
152.64923775652642
 21
16.171523628320131
  0
LINE
  8
_0-1_
  6
CONTINUOUS
 62
    2
 10
153.63892777683179
 20
16.171523628320131
 11
154.93892777683175
 21
16.171523628320131
  0
LINE
  8
_0-1_
  6
CONTINUOUS
 62
    2
 10
155.93892777683175
 20
16.171523628320131
 11
157.23892777683176
 21
16.171523628320131
  0
LINE
  8
_0-1_
  6
CONTINUOUS
 62
    2
 10
159.05199228110166
 20
16.171523628320131
 11
160.35199228110167
 21
16.171523628320131
  0
LINE
  8
_0-1_
  6
CONTINUOUS
 62
    2
 10
162.07338575263736
 20
16.171523628320131
 11
163.37338575263738
 21
16.171523628320131
  0
LINE
  8
_0-1_
  6
CONTINUOUS
 62
    2
 10
164.81058526202884
 20
16.171523628320131
 11
166.10768150572716
 21
16.171523628320131
  0
LINE
  8
_0-1_
  6
CONTINUOUS
 62
    2
 10
166.95214513026218
 20
16.171523628320131
 11
168.0521451302622
 21
16.171523628320131
  0
LINE
  8
_0-1_
  6
CONTINUOUS
 62
    2
 10
138.22199595523921
 20
16.371523628320119
 11
139.52199595523922
 21
16.371523628320119
  0
LINE
  8
_0-1_
  6
CONTINUOUS
 62
    2
 10
141.00306306803031
 20
16.371523628320119
 11
142.30306306803038
 21
16.371523628320119
  0
LINE
  8
_0-1_
  6
CONTINUOUS
 62
    2
 10
144.21042248461492
 20
16.371523628320119
 11
145.51042248461488
 21
16.371523628320119
  0
LINE
  8
_0-1_
  6
CONTINUOUS
 62
    2
 10
148.5073423976898
 20
16.371523628320119
 11
149.8036557303144
 21
16.371523628320119
  0
LINE
  8
_0-1_
  6
CONTINUOUS
 62
    2
 10
151.25597622489539
 20
16.371523628320119
 11
152.5559762248954
 21
16.371523628320119
  0
LINE
  8
_0-1_
  6
CONTINUOUS
 62
    2
 10
153.73218930846275
 20
16.371523628320119
 11
155.03218930846276
 21
16.371523628320119
  0
LINE
  8
_0-1_
  6
CONTINUOUS
 62
    2
 10
156.03218930846276
 20
16.371523628320119
 11
157.33218930846277
 21
16.371523628320119
  0
LINE
  8
_0-1_
  6
CONTINUOUS
 62
    2
 10
158.9587307494707
 20
16.371523628320119
 11
160.25873074947071
 21
16.371523628320119
  0
LINE
  8
_0-1_
  6
CONTINUOUS
 62
    2
 10
162.07338575263736
 20
16.371523628320119
 11
163.37338575263738
 21
16.371523628320119
  0
LINE
  8
_0-1_
  6
CONTINUOUS
 62
    2
 10
164.685611391647
 20
16.371523628320119
 11
165.98270763534526
 21
16.371523628320119
  0
LINE
  8
_0-1_
  6
CONTINUOUS
 62
    2
 10
166.95214513026218
 20
16.371523628320119
 11
168.0521451302622
 21
16.371523628320119
  0
LINE
  8
_0-1_
  6
CONTINUOUS
 62
    2
 10
138.31525748687022
 20
16.571523628319994
 11
139.61525748687023
 21
16.571523628319994
  0
LINE
  8
_0-1_
  6
CONTINUOUS
 62
    2
 10
140.9098015363993
 20
16.571523628319994
 11
142.20980153639937
 21
16.571523628319994
  0
LINE
  8
_0-1_
  6
CONTINUOUS
 62
    2
 10
144.21042248461492
 20
16.571523628319994
 11
145.51042248461488
 21
16.571523628319994
  0
LINE
  8
_0-1_
  6
CONTINUOUS
 62
    2
 10
148.51030302861369
 20
16.571523628319994
 11
149.81009859434471
 21
16.571523628319994
  0
LINE
  8
_0-1_
  6
CONTINUOUS
 62
    2
 10
151.16271469326438
 20
16.571523628319994
 11
152.46271469326439
 21
16.571523628319994
  0
LINE
  8
_0-1_
  6
CONTINUOUS
 62
    2
 10
153.82545084009377
 20
16.571523628319994
 11
155.12545084009378
 21
16.571523628319994
  0
LINE
  8
_0-1_
  6
CONTINUOUS
 62
    2
 10
156.12545084009378
 20
16.571523628319994
 11
157.42545084009379
 21
16.571523628319994
  0
LINE
  8
_0-1_
  6
CONTINUOUS
 62
    2
 10
158.86546921783969
 20
16.571523628319994
 11
160.1654692178397
 21
16.571523628319994
  0
LINE
  8
_0-1_
  6
CONTINUOUS
 62
    2
 10
162.07338575263736
 20
16.571523628319994
 11
163.37338575263738
 21
16.571523628319994
  0
LINE
  8
_0-1_
  6
CONTINUOUS
 62
    2
 10
164.56063752126511
 20
16.571523628319994
 11
165.85773376496343
 21
16.571523628319994
  0
LINE
  8
_0-1_
  6
CONTINUOUS
 62
    2
 10
166.95214513026218
 20
16.571523628319994
 11
168.0521451302622
 21
16.571523628319994
  0
LINE
  8
_0-1_
  6
CONTINUOUS
 62
    2
 10
138.40851901850124
 20
16.77152362832021
 11
139.70851901850119
 21
16.77152362832021
  0
LINE
  8
_0-1_
  6
CONTINUOUS
 62
    2
 10
140.81654000476834
 20
16.77152362832021
 11
142.11654000476835
 21
16.77152362832021
  0
LINE
  8
_0-1_
  6
CONTINUOUS
 62
    2
 10
144.21042248461492
 20
16.77152362832021
 11
145.51042248461488
 21
16.77152362832021
  0
LINE
  8
_0-1_
  6
CONTINUOUS
 62
    2
 10
148.50869246663569
 20
16.77152362832021
 11
149.80603996192326
 21
16.77152362832021
  0
LINE
  8
_0-1_
  6
CONTINUOUS
 62
    2
 10
151.06945316163342
 20
16.77152362832021
 11
152.36945316163337
 21
16.77152362832021
  0
LINE
  8
_0-1_
  6
CONTINUOUS
 62
    2
 10
153.91871237172478
 20
16.77152362832021
 11
155.21871237172479
 21
16.77152362832021
  0
LINE
  8
_0-1_
  6
CONTINUOUS
 62
    2
 10
156.21871237172479
 20
16.77152362832021
 11
157.51871237172475
 21
16.77152362832021
  0
LINE
  8
_0-1_
  6
CONTINUOUS
 62
    2
 10
158.77220768620873
 20
16.77152362832021
 11
160.07220768620869
 21
16.77152362832021
  0
LINE
  8
_0-1_
  6
CONTINUOUS
 62
    2
 10
162.07338575263736
 20
16.77152362832021
 11
163.37338575263738
 21
16.77152362832021
  0
LINE
  8
_0-1_
  6
CONTINUOUS
 62
    2
 10
164.43566365088327
 20
16.77152362832021
 11
165.73275989458153
 21
16.77152362832021
  0
LINE
  8
_0-1_
  6
CONTINUOUS
 62
    2
 10
166.95214513026218
 20
16.77152362832021
 11
168.0521451302622
 21
16.77152362832021
  0
LINE
  8
_0-1_
  6
CONTINUOUS
 62
    2
 10
138.50178055013225
 20
16.971523628320085
 11
139.80178055013221
 21
16.971523628320085
  0
LINE
  8
_0-1_
  6
CONTINUOUS
 62
    2
 10
140.72327847313738
 20
16.971523628320085
 11
142.02327847313734
 21
16.971523628320085
  0
LINE
  8
_0-1_
  6
CONTINUOUS
 62
    2
 10
144.21042248461492
 20
16.971523628320085
 11
145.51042248461488
 21
16.971523628320085
  0
LINE
  8
_0-1_
  6
CONTINUOUS
 62
    2
 10
148.5026750376577
 20
16.971523628320085
 11
149.79435976877346
 21
16.971523628320085
  0
LINE
  8
_0-1_
  6
CONTINUOUS
 62
    2
 10
150.9761916300024
 20
16.971523628320085
 11
152.27619163000236
 21
16.971523628320085
  0
LINE
  8
_0-1_
  6
CONTINUOUS
 62
    2
 10
154.01197390335574
 20
16.971523628320085
 11
155.31197390335575
 21
16.971523628320085
  0
LINE
  8
_0-1_
  6
CONTINUOUS
 62
    2
 10
156.31197390335581
 20
16.971523628320085
 11
157.61197390335576
 21
16.971523628320085
  0
LINE
  8
_0-1_
  6
CONTINUOUS
 62
    2
 10
158.67894615457772
 20
16.971523628320085
 11
159.97894615457767
 21
16.971523628320085
  0
LINE
  8
_0-1_
  6
CONTINUOUS
 62
    2
 10
162.07338575263736
 20
16.971523628320085
 11
163.37338575263738
 21
16.971523628320085
  0
LINE
  8
_0-1_
  6
CONTINUOUS
 62
    2
 10
164.31068978050138
 20
16.971523628320085
 11
165.6077860241997
 21
16.971523628320085
  0
LINE
  8
_0-1_
  6
CONTINUOUS
 62
    2
 10
166.95214513026218
 20
16.971523628320085
 11
168.0521451302622
 21
16.971523628320085
  0
LINE
  8
_0-1_
  6
CONTINUOUS
 62
    2
 10
138.59504208176321
 20
17.171523628320131
 11
139.89504208176322
 21
17.171523628320131
  0
LINE
  8
_0-1_
  6
CONTINUOUS
 62
    2
 10
140.63001694150637
 20
17.171523628320131
 11
141.93001694150632
 21
17.171523628320131
  0
LINE
  8
_0-1_
  6
CONTINUOUS
 62
    2
 10
144.21042248461492
 20
17.171523628320131
 11
145.51042248461488
 21
17.171523628320131
  0
LINE
  8
_0-1_
  6
CONTINUOUS
 62
    2
 10
148.48670934347751
 20
17.171523628320131
 11
149.77417792035408
 21
17.171523628320131
  0
LINE
  8
_0-1_
  6
CONTINUOUS
 62
    2
 10
150.88293009837139
 20
17.171523628320131
 11
152.1829300983714
 21
17.171523628320131
  0
LINE
  8
_0-1_
  6
CONTINUOUS
 62
    2
 10
154.10523543498675
 20
17.171523628320131
 11
155.40523543498676
 21
17.171523628320131
  0
LINE
  8
_0-1_
  6
CONTINUOUS
 62
    2
 10
156.40523543498676
 20
17.171523628320131
 11
157.70523543498678
 21
17.171523628320131
  0
LINE
  8
_0-1_
  6
CONTINUOUS
 62
    2
 10
158.5856846229467
 20
17.171523628320131
 11
159.88568462294671
 21
17.171523628320131
  0
LINE
  8
_0-1_
  6
CONTINUOUS
 62
    2
 10
162.07338575263736
 20
17.171523628320131
 11
163.37338575263738
 21
17.171523628320131
  0
LINE
  8
_0-1_
  6
CONTINUOUS
 62
    2
 10
164.18571591011954
 20
17.171523628320131
 11
165.4828121538178
 21
17.171523628320131
  0
LINE
  8
_0-1_
  6
CONTINUOUS
 62
    2
 10
166.95214513026218
 20
17.171523628320131
 11
168.0521451302622
 21
17.171523628320131
  0
LINE
  8
_0-1_
  6
CONTINUOUS
 62
    2
 10
138.68830361339423
 20
17.371523628320119
 11
139.98830361339424
 21
17.371523628320119
  0
LINE
  8
_0-1_
  6
CONTINUOUS
 62
    2
 10
140.53675540987535
 20
17.371523628320119
 11
141.83675540987537
 21
17.371523628320119
  0
LINE
  8
_0-1_
  6
CONTINUOUS
 62
    2
 10
144.21042248461492
 20
17.371523628320119
 11
145.51042248461488
 21
17.371523628320119
  0
LINE
  8
_0-1_
  6
CONTINUOUS
 62
    2
 10
148.45761770144782
 20
17.371523628320119
 11
149.74481549507277
 21
17.371523628320119
  0
LINE
  8
_0-1_
  6
CONTINUOUS
 62
    2
 10
150.78966856674037
 20
17.371523628320119
 11
152.08966856674039
 21
17.371523628320119
  0
LINE
  8
_0-1_
  6
CONTINUOUS
 62
    2
 10
154.19849696661777
 20
17.371523628320119
 11
155.49849696661772
 21
17.371523628320119
  0
LINE
  8
_0-1_
  6
CONTINUOUS
 62
    2
 10
156.49849696661772
 20
17.371523628320119
 11
157.79849696661779
 21
17.371523628320119
  0
LINE
  8
_0-1_
  6
CONTINUOUS
 62
    2
 10
158.49242309131569
 20
17.371523628320119
 11
159.7924230913157
 21
17.371523628320119
  0
LINE
  8
_0-1_
  6
CONTINUOUS
 62
    2
 10
162.07338575263736
 20
17.371523628320119
 11
163.37338575263738
 21
17.371523628320119
  0
LINE
  8
_0-1_
  6
CONTINUOUS
 62
    2
 10
164.06074203973765
 20
17.371523628320119
 11
165.35783828343597
 21
17.371523628320119
  0
LINE
  8
_0-1_
  6
CONTINUOUS
 62
    2
 10
166.95214513026218
 20
17.371523628320119
 11
168.0521451302622
 21
17.371523628320119
  0
LINE
  8
_0-1_
  6
CONTINUOUS
 62
    2
 10
138.78156514502518
 20
17.571523628320108
 11
140.08156514502525
 21
17.571523628320108
  0
LINE
  8
_0-1_
  6
CONTINUOUS
 62
    2
 10
140.44349387824434
 20
17.571523628320108
 11
141.74349387824435
 21
17.571523628320108
  0
LINE
  8
_0-1_
  6
CONTINUOUS
 62
    2
 10
144.21042248461492
 20
17.571523628320108
 11
145.51042248461488
 21
17.571523628320108
  0
LINE
  8
_0-1_
  6
CONTINUOUS
 62
    2
 10
148.40914744823812
 20
17.571523628320108
 11
149.70746829583368
 21
17.571523628320108
  0
LINE
  8
_0-1_
  6
CONTINUOUS
 62
    2
 10
150.69640703510936
 20
17.571523628320108
 11
151.99640703510937
 21
17.571523628320108
  0
LINE
  8
_0-1_
  6
CONTINUOUS
 62
    2
 10
154.29175849824878
 20
17.571523628320108
 11
155.59175849824874
 21
17.571523628320108
  0
LINE
  8
_0-1_
  6
CONTINUOUS
 62
    2
 10
156.59175849824874
 20
17.571523628320108
 11
157.89175849824881
 21
17.571523628320108
  0
LINE
  8
_0-1_
  6
CONTINUOUS
 62
    2
 10
158.39916155968467
 20
17.571523628320108
 11
159.69916155968468
 21
17.571523628320108
  0
LINE
  8
_0-1_
  6
CONTINUOUS
 62
    2
 10
162.07338575263736
 20
17.571523628320108
 11
163.37338575263738
 21
17.571523628320108
  0
LINE
  8
_0-1_
  6
CONTINUOUS
 62
    2
 10
163.93576816935575
 20
17.571523628320108
 11
165.23286441305407
 21
17.571523628320108
  0
LINE
  8
_0-1_
  6
CONTINUOUS
 62
    2
 10
166.95214513026218
 20
17.571523628320108
 11
168.0521451302622
 21
17.571523628320108
  0
LINE
  8
_0-1_
  6
CONTINUOUS
 62
    2
 10
138.8748266766562
 20
17.77152362832021
 11
140.17482667665621
 21
17.77152362832021
  0
LINE
  8
_0-1_
  6
CONTINUOUS
 62
    2
 10
140.35023234661332
 20
17.77152362832021
 11
141.65023234661334
 21
17.77152362832021
  0
LINE
  8
_0-1_
  6
CONTINUOUS
 62
    2
 10
144.21042248461492
 20
17.77152362832021
 11
145.51042248461488
 21
17.77152362832021
  0
LINE
  8
_0-1_
  6
CONTINUOUS
 62
    2
 10
148.33077557602786
 20
17.77152362832021
 11
149.66225394171374
 21
17.77152362832021
  0
LINE
  8
_0-1_
  6
CONTINUOUS
 62
    2
 10
150.6031455034784
 20
17.77152362832021
 11
151.90314550347841
 21
17.77152362832021
  0
LINE
  8
_0-1_
  6
CONTINUOUS
 62
    2
 10
154.3850200298798
 20
17.77152362832021
 11
155.68502002987975
 21
17.77152362832021
  0
LINE
  8
_0-1_
  6
CONTINUOUS
 62
    2
 10
156.68502002987975
 20
17.77152362832021
 11
157.98502002987976
 21
17.77152362832021
  0
LINE
  8
_0-1_
  6
CONTINUOUS
 62
    2
 10
158.30590002805371
 20
17.77152362832021
 11
159.60590002805372
 21
17.77152362832021
  0
LINE
  8
_0-1_
  6
CONTINUOUS
 62
    2
 10
162.07338575263736
 20
17.77152362832021
 11
163.37338575263738
 21
17.77152362832021
  0
LINE
  8
_0-1_
  6
CONTINUOUS
 62
    2
 10
163.81079429897392
 20
17.77152362832021
 11
165.10789054267224
 21
17.77152362832021
  0
LINE
  8
_0-1_
  6
CONTINUOUS
 62
    2
 10
166.95214513026218
 20
17.77152362832021
 11
168.0521451302622
 21
17.77152362832021
  0
LINE
  8
_0-1_
  6
CONTINUOUS
 62
    2
 10
138.96808820828721
 20
17.971523628320085
 11
141.55697081498238
 21
17.971523628320085
  0
LINE
  8
_0-1_
  6
CONTINUOUS
 62
    2
 10
144.21042248461492
 20
17.971523628320085
 11
145.51042248461488
 21
17.971523628320085
  0
LINE
  8
_0-1_
  6
CONTINUOUS
 62
    2
 10
148.21042248461492
 20
17.971523628320085
 11
149.6104224846149
 21
17.971523628320085
  0
LINE
  8
_0-1_
  6
CONTINUOUS
 62
    2
 10
150.50988397184739
 20
17.971523628320085
 11
151.8098839718474
 21
17.971523628320085
  0
LINE
  8
_0-1_
  6
CONTINUOUS
 62
    2
 10
154.47828156151076
 20
17.971523628320085
 11
155.77828156151077
 21
17.971523628320085
  0
LINE
  8
_0-1_
  6
CONTINUOUS
 62
    2
 10
156.77828156151077
 20
17.971523628320085
 11
158.07828156151072
 21
17.971523628320085
  0
LINE
  8
_0-1_
  6
CONTINUOUS
 62
    2
 10
158.2126384964227
 20
17.971523628320085
 11
159.51263849642271
 21
17.971523628320085
  0
LINE
  8
_0-1_
  6
CONTINUOUS
 62
    2
 10
162.07338575263736
 20
17.971523628320085
 11
163.37338575263738
 21
17.971523628320085
  0
LINE
  8
_0-1_
  6
CONTINUOUS
 62
    2
 10
163.68582042859208
 20
17.971523628320085
 11
164.98291667229034
 21
17.971523628320085
  0
LINE
  8
_0-1_
  6
CONTINUOUS
 62
    2
 10
166.95214513026218
 20
17.971523628320085
 11
168.0521451302622
 21
17.971523628320085
  0
LINE
  8
_0-1_
  6
CONTINUOUS
 62
    2
 10
139.06134973991823
 20
18.171523628320131
 11
141.46370928335136
 21
18.171523628320131
  0
LINE
  8
_0-1_
  6
CONTINUOUS
 62
    2
 10
144.21042248461492
 20
18.171523628320131
 11
145.51042248461488
 21
18.171523628320131
  0
LINE
  8
_0-1_
  6
CONTINUOUS
 62
    2
 10
147.99797245751529
 20
18.171523628320131
 11
149.54762110773771
 21
18.171523628320131
  0
LINE
  8
_0-1_
  6
CONTINUOUS
 62
    2
 10
150.41662244021637
 20
18.171523628320131
 11
151.71662244021638
 21
18.171523628320131
  0
LINE
  8
_0-1_
  6
CONTINUOUS
 62
    2
 10
154.57154309314177
 20
18.171523628320131
 11
155.87154309314178
 21
18.171523628320131
  0
LINE
  8
_0-1_
  6
CONTINUOUS
 62
    2
 10
156.87154309314178
 20
18.171523628320131
 11
159.4193769647917
 21
18.171523628320131
  0
LINE
  8
_0-1_
  6
CONTINUOUS
 62
    2
 10
162.07338575263736
 20
18.171523628320131
 11
163.37338575263738
 21
18.171523628320131
  0
LINE
  8
_0-1_
  6
CONTINUOUS
 62
    2
 10
163.56084655821019
 20
18.171523628320131
 11
164.85794280190851
 21
18.171523628320131
  0
LINE
  8
_0-1_
  6
CONTINUOUS
 62
    2
 10
166.95214513026218
 20
18.171523628320131
 11
168.0521451302622
 21
18.171523628320131
  0
LINE
  8
_0-1_
  6
CONTINUOUS
 62
    2
 10
139.15461127154924
 20
18.371523628320062
 11
141.37044775172035
 21
18.371523628320062
  0
LINE
  8
_0-1_
  6
CONTINUOUS
 62
    2
 10
144.21042248461492
 20
18.371523628320062
 11
145.51042248461488
 21
18.371523628320062
  0
LINE
  8
_0-1_
  6
CONTINUOUS
 62
    2
 10
147.69008800934853
 20
18.371523628320062
 11
149.46455948871949
 21
18.371523628320062
  0
LINE
  8
_0-1_
  6
CONTINUOUS
 62
    2
 10
150.32336090858541
 20
18.371523628320062
 11
151.62336090858537
 21
18.371523628320062
  0
LINE
  8
_0-1_
  6
CONTINUOUS
 62
    2
 10
154.66480462477273
 20
18.371523628320062
 11
155.9648046247728
 21
18.371523628320062
  0
LINE
  8
_0-1_
  6
CONTINUOUS
 62
    2
 10
156.96480462477274
 20
18.371523628320062
 11
159.32611543316068
 21
18.371523628320062
  0
LINE
  8
_0-1_
  6
CONTINUOUS
 62
    2
 10
162.07338575263736
 20
18.371523628320062
 11
163.37338575263738
 21
18.371523628320062
  0
LINE
  8
_0-1_
  6
CONTINUOUS
 62
    2
 10
163.43587268782835
 20
18.371523628320062
 11
164.73296893152661
 21
18.371523628320062
  0
LINE
  8
_0-1_
  6
CONTINUOUS
 62
    2
 10
166.95214513026218
 20
18.371523628320062
 11
168.0521451302622
 21
18.371523628320062
  0
LINE
  8
_0-1_
  6
CONTINUOUS
 62
    2
 10
139.24787280318026
 20
18.571523628320108
 11
141.27718622008933
 21
18.571523628320108
  0
LINE
  8
_0-1_
  6
CONTINUOUS
 62
    2
 10
144.21042248461492
 20
18.571523628320108
 11
149.3414784302874
 21
18.571523628320108
  0
LINE
  8
_0-1_
  6
CONTINUOUS
 62
    2
 10
150.2300993769544
 20
18.571523628320108
 11
151.53009937695435
 21
18.571523628320108
  0
LINE
  8
_0-1_
  6
CONTINUOUS
 62
    2
 10
154.75806615640374
 20
18.571523628320108
 11
156.05806615640375
 21
18.571523628320108
  0
LINE
  8
_0-1_
  6
CONTINUOUS
 62
    2
 10
157.05806615640375
 20
18.571523628320108
 11
159.23285390152967
 21
18.571523628320108
  0
LINE
  8
_0-1_
  6
CONTINUOUS
 62
    2
 10
162.07338575263736
 20
18.571523628320108
 11
164.60799506114478
 21
18.571523628320108
  0
LINE
  8
_0-1_
  6
CONTINUOUS
 62
    2
 10
166.95214513026218
 20
18.571523628320108
 11
168.0521451302622
 21
18.571523628320108
  0
LINE
  8
_0-1_
  6
CONTINUOUS
 62
    2
 10
139.34113433481122
 20
18.771523628320153
 11
141.18392468845832
 21
18.771523628320153
  0
LINE
  8
_0-1_
  6
CONTINUOUS
 62
    2
 10
144.21042248461492
 20
18.771523628320153
 11
149.15231729504194
 21
18.771523628320153
  0
LINE
  8
_0-1_
  6
CONTINUOUS
 62
    2
 10
150.13683784532338
 20
18.771523628320153
 11
151.4368378453234
 21
18.771523628320153
  0
LINE
  8
_0-1_
  6
CONTINUOUS
 62
    2
 10
154.85132768803476
 20
18.771523628320153
 11
156.15132768803477
 21
18.771523628320153
  0
LINE
  8
_0-1_
  6
CONTINUOUS
 62
    2
 10
157.15132768803477
 20
18.771523628320153
 11
159.13959236989865
 21
18.771523628320153
  0
LINE
  8
_0-1_
  6
CONTINUOUS
 62
    2
 10
162.07338575263736
 20
18.771523628320153
 11
164.48302119076288
 21
18.771523628320153
  0
LINE
  8
_0-1_
  6
CONTINUOUS
 62
    2
 10
166.95214513026218
 20
18.771523628320153
 11
168.0521451302622
 21
18.771523628320153
  0
LINE
  8
_0-1_
  6
CONTINUOUS
 62
    2
 10
139.43439586644217
 20
18.971523628320085
 11
141.09066315682736
 21
18.971523628320085
  0
LINE
  8
_0-1_
  6
CONTINUOUS
 62
    2
 10
144.21042248461492
 20
18.971523628320085
 11
148.87455143350422
 21
18.971523628320085
  0
LINE
  8
_0-1_
  6
CONTINUOUS
 62
    2
 10
150.04357631369237
 20
18.971523628320085
 11
151.34357631369238
 21
18.971523628320085
  0
LINE
  8
_0-1_
  6
CONTINUOUS
 62
    2
 10
154.94458921966577
 20
18.971523628320085
 11
156.24458921966573
 21
18.971523628320085
  0
LINE
  8
_0-1_
  6
CONTINUOUS
 62
    2
 10
157.24458921966573
 20
18.971523628320085
 11
159.04633083826769
 21
18.971523628320085
  0
LINE
  8
_0-1_
  6
CONTINUOUS
 62
    2
 10
162.07338575263736
 20
18.971523628320085
 11
164.35804732038105
 21
18.971523628320085
  0
LINE
  8
_0-1_
  6
CONTINUOUS
 62
    2
 10
166.95214513026218
 20
18.971523628320085
 11
168.0521451302622
 21
18.971523628320085
  0
LINE
  8
_0-1_
  6
CONTINUOUS
 62
    2
 10
139.52765739807319
 20
19.171523628320017
 11
140.99740162519635
 21
19.171523628320017
  0
LINE
  8
_0-1_
  6
CONTINUOUS
 62
    2
 10
144.21042248461492
 20
19.171523628320017
 11
148.47348548538594
 21
19.171523628320017
  0
LINE
  8
_0-1_
  6
CONTINUOUS
 62
    2
 10
149.95031478206135
 20
19.171523628320017
 11
151.25031478206142
 21
19.171523628320017
  0
LINE
  8
_0-1_
  6
CONTINUOUS
 62
    2
 10
155.03785075129679
 20
19.171523628320017
 11
156.33785075129674
 21
19.171523628320017
  0
LINE
  8
_0-1_
  6
CONTINUOUS
 62
    2
 10
157.33785075129674
 20
19.171523628320017
 11
158.95306930663668
 21
19.171523628320017
  0
LINE
  8
_0-1_
  6
CONTINUOUS
 62
    2
 10
162.07338575263736
 20
19.171523628320017
 11
164.23307344999915
 21
19.171523628320017
  0
LINE
  8
_0-1_
  6
CONTINUOUS
 62
    2
 10
166.95214513026218
 20
19.171523628320017
 11
168.0521451302622
 21
19.171523628320017
  0
LINE
  8
_0-1_
  6
CONTINUOUS
 62
    2
 10
139.6209189297042
 20
19.371523628320062
 11
140.90414009356539
 21
19.371523628320062
  0
LINE
  8
_0-1_
  6
CONTINUOUS
 62
    2
 10
144.21042248461492
 20
19.371523628320062
 11
147.8850898157516
 21
19.371523628320062
  0
LINE
  8
_0-1_
  6
CONTINUOUS
 62
    2
 10
149.8570532504304
 20
19.371523628320062
 11
151.15705325043041
 21
19.371523628320062
  0
LINE
  8
_0-1_
  6
CONTINUOUS
 62
    2
 10
155.1311122829278
 20
19.371523628320062
 11
156.43111228292776
 21
19.371523628320062
  0
LINE
  8
_0-1_
  6
CONTINUOUS
 62
    2
 10
157.43111228292776
 20
19.371523628320062
 11
158.85980777500572
 21
19.371523628320062
  0
LINE
  8
_0-1_
  6
CONTINUOUS
 62
    2
 10
162.07338575263736
 20
19.371523628320062
 11
164.10809957961732
 21
19.371523628320062
  0
LINE
  8
_0-1_
  6
CONTINUOUS
 62
    2
 10
166.95214513026218
 20
19.371523628320062
 11
168.0521451302622
 21
19.371523628320062
  0
LINE
  8
_0-1_
  6
CONTINUOUS
 62
    7
 10
126.1766597049351
 20
13.840458346444734
 11
130.38050950713313
 21
13.840458346444734
  0
LINE
  8
_0-1_
  6
CONTINUOUS
 62
    7
 10
126.1766597049351
 20
13.940458346444757
 11
130.38050950713313
 21
13.940458346444757
  0
LINE
  8
_0-1_
  6
CONTINUOUS
 62
    7
 10
126.1766597049351
 20
14.040458346444666
 11
130.38050950713313
 21
14.040458346444666
  0
LINE
  8
_0-1_
  6
CONTINUOUS
 62
    7
 10
126.1766597049351
 20
14.140458346444632
 11
130.38050950713313
 21
14.140458346444632
  0
LINE
  8
_0-1_
  6
CONTINUOUS
 62
    7
 10
126.1766597049351
 20
14.240458346444655
 11
130.38050950713313
 21
14.240458346444655
  0
LINE
  8
_0-1_
  6
CONTINUOUS
 62
    7
 10
126.1766597049351
 20
14.340458346444677
 11
130.38050950713313
 21
14.340458346444677
  0
LINE
  8
_0-1_
  6
CONTINUOUS
 62
    7
 10
126.1766597049351
 20
14.440458346444757
 11
130.38050950713313
 21
14.440458346444757
  0
LINE
  8
_0-1_
  6
CONTINUOUS
 62
    7
 10
126.1766597049351
 20
14.540458346444666
 11
130.38050950713313
 21
14.540458346444666
  0
LINE
  8
_0-1_
  6
CONTINUOUS
 62
    7
 10
126.1766597049351
 20
14.640458346444632
 11
130.38050950713313
 21
14.640458346444632
  0
LINE
  8
_0-1_
  6
CONTINUOUS
 62
    7
 10
126.1766597049351
 20
14.740458346444541
 11
130.38050950713313
 21
14.740458346444541
  0
LINE
  8
_0-1_
  6
CONTINUOUS
 62
    7
 10
126.1766597049351
 20
14.840458346444677
 11
130.38050950713313
 21
14.840458346444677
  0
LINE
  8
_0-1_
  6
CONTINUOUS
 62
    7
 10
126.1766597049351
 20
14.940458346444586
 11
130.38050950713313
 21
14.940458346444586
  0
LINE
  8
_0-1_
  6
CONTINUOUS
 62
    7
 10
126.1766597049351
 20
15.040458346444666
 11
130.38050950713313
 21
15.040458346444666
  0
LINE
  8
_0-1_
  6
CONTINUOUS
 62
    7
 10
126.1766597049351
 20
15.140458346444632
 11
130.38050950713313
 21
15.140458346444632
  0
LINE
  8
_0-1_
  6
CONTINUOUS
 62
    7
 10
126.1766597049351
 20
15.240458346444541
 11
130.38050950713313
 21
15.240458346444541
  0
LINE
  8
_0-1_
  6
CONTINUOUS
 62
    7
 10
126.1766597049351
 20
15.340458346444677
 11
130.38050950713313
 21
15.340458346444677
  0
LINE
  8
_0-1_
  6
CONTINUOUS
 62
    7
 10
126.1766597049351
 20
15.440458346444586
 11
130.38050950713313
 21
15.440458346444586
  0
LINE
  8
_0-1_
  6
CONTINUOUS
 62
    7
 10
126.1766597049351
 20
15.540458346444609
 11
130.38050950713313
 21
15.540458346444609
  0
LINE
  8
_0-1_
  6
CONTINUOUS
 62
    7
 10
126.1766597049351
 20
15.640458346444518
 11
130.38050950713313
 21
15.640458346444518
  0
LINE
  8
_0-1_
  6
CONTINUOUS
 62
    7
 10
126.1766597049351
 20
15.740458346444541
 11
130.38050950713313
 21
15.740458346444541
  0
LINE
  8
_0-1_
  6
CONTINUOUS
 62
    7
 10
126.1766597049351
 20
15.840458346444564
 11
130.38050950713313
 21
15.840458346444564
  0
LINE
  8
_0-1_
  6
CONTINUOUS
 62
    7
 10
126.1766597049351
 20
15.940458346444586
 11
130.38050950713313
 21
15.940458346444586
  0
LINE
  8
_0-1_
  6
CONTINUOUS
 62
    7
 10
126.1766597049351
 20
16.040458346444609
 11
130.38050950713313
 21
16.040458346444609
  0
LINE
  8
_0-1_
  6
CONTINUOUS
 62
    7
 10
126.1766597049351
 20
16.140458346444518
 11
130.38050950713313
 21
16.140458346444518
  0
LINE
  8
_0-1_
  6
CONTINUOUS
 62
    7
 10
126.1766597049351
 20
16.240458346444541
 11
130.38050950713313
 21
16.240458346444541
  0
LINE
  8
_0-1_
  6
CONTINUOUS
 62
    7
 10
126.1766597049351
 20
16.34045834644445
 11
130.38050950713313
 21
16.34045834644445
  0
LINE
  8
_0-1_
  6
CONTINUOUS
 62
    7
 10
126.1766597049351
 20
16.440458346444586
 11
130.38050950713313
 21
16.440458346444586
  0
LINE
  8
_0-1_
  6
CONTINUOUS
 62
    7
 10
126.1766597049351
 20
16.540458346444495
 11
130.38050950713313
 21
16.540458346444495
  0
LINE
  8
_0-1_
  6
CONTINUOUS
 62
    7
 10
126.1766597049351
 20
16.640458346444461
 11
130.38050950713313
 21
16.640458346444461
  0
LINE
  8
_0-1_
  6
CONTINUOUS
 62
    7
 10
126.1766597049351
 20
16.740458346444541
 11
130.38050950713313
 21
16.740458346444541
  0
LINE
  8
_0-1_
  6
CONTINUOUS
 62
    7
 10
126.1766597049351
 20
16.840458346444564
 11
130.38050950713313
 21
16.840458346444564
  0
LINE
  8
_0-1_
  6
CONTINUOUS
 62
    7
 10
126.1766597049351
 20
16.940458346444473
 11
130.38050950713313
 21
16.940458346444473
  0
LINE
  8
_0-1_
  6
CONTINUOUS
 62
    7
 10
126.1766597049351
 20
17.040458346444495
 11
130.38050950713313
 21
17.040458346444495
  0
LINE
  8
_0-1_
  6
CONTINUOUS
 62
    7
 10
126.1766597049351
 20
17.140458346444461
 11
130.38050950713313
 21
17.140458346444461
  0
LINE
  8
_0-1_
  6
CONTINUOUS
 62
    7
 10
126.1766597049351
 20
17.240458346444541
 11
130.38050950713313
 21
17.240458346444541
  0
LINE
  8
_0-1_
  6
CONTINUOUS
 62
    7
 10
126.1766597049351
 20
17.340458346444564
 11
130.38050950713313
 21
17.340458346444564
  0
LINE
  8
_0-1_
  6
CONTINUOUS
 62
    7
 10
126.1766597049351
 20
17.440458346444473
 11
130.38050950713313
 21
17.440458346444473
  0
LINE
  8
_0-1_
  6
CONTINUOUS
 62
    7
 10
126.1766597049351
 20
17.540458346444495
 11
130.38050950713313
 21
17.540458346444495
  0
LINE
  8
_0-1_
  6
CONTINUOUS
 62
    7
 10
126.1766597049351
 20
17.640458346444461
 11
130.38050950713313
 21
17.640458346444461
  0
LINE
  8
_0-1_
  6
CONTINUOUS
 62
    7
 10
126.1766597049351
 20
17.740458346444541
 11
130.38050950713313
 21
17.740458346444541
  0
LINE
  8
_0-1_
  6
CONTINUOUS
 62
    7
 10
126.1766597049351
 20
17.84045834644445
 11
130.38050950713313
 21
17.84045834644445
  0
LINE
  8
_0-1_
  6
CONTINUOUS
 62
    7
 10
126.1766597049351
 20
17.940458346444473
 11
130.38050950713313
 21
17.940458346444473
  0
LINE
  8
_0-1_
  6
CONTINUOUS
 62
    7
 10
135.65782224885095
 20
22.640458346444603
 11
137.12138001067194
 21
22.640458346444603
  0
LINE
  8
_0-1_
  6
CONTINUOUS
 62
    7
 10
135.38552382456635
 20
22.840458346444535
 11
137.39367843495654
 21
22.840458346444535
  0
LINE
  8
_0-1_
  6
CONTINUOUS
 62
    7
 10
135.20602935793193
 20
23.040458346444581
 11
137.57317290159097
 21
23.040458346444581
  0
LINE
  8
_0-1_
  6
CONTINUOUS
 62
    7
 10
135.08058889019537
 20
23.240458346444512
 11
137.69861336932752
 21
23.240458346444512
  0
LINE
  8
_0-1_
  6
CONTINUOUS
 62
    7
 10
134.99454416045899
 20
23.440458346444643
 11
137.7846580990639
 21
23.440458346444643
  0
LINE
  8
_0-1_
  6
CONTINUOUS
 62
    7
 10
134.94085862266854
 20
23.64045834644449
 11
137.83834363685435
 21
23.64045834644449
  0
LINE
  8
_0-1_
  6
CONTINUOUS
 62
    7
 10
134.91599135912236
 20
23.840458346444535
 11
137.86321090040053
 21
23.840458346444535
  0
LINE
  8
_0-1_
  6
CONTINUOUS
 62
    7
 10
134.91848024404624
 20
24.040458346444495
 11
137.86072201547665
 21
24.040458346444495
  0
LINE
  8
_0-1_
  6
CONTINUOUS
 62
    7
 10
134.94846700531292
 20
24.240458346444512
 11
137.83073525421003
 21
24.240458346444512
  0
LINE
  8
_0-1_
  6
CONTINUOUS
 62
    7
 10
135.00774061982833
 20
24.440458346444444
 11
137.77146163969462
 21
24.440458346444444
  0
LINE
  8
_0-1_
  6
CONTINUOUS
 62
    7
 10
135.10033413911458
 20
24.640458346444518
 11
137.67886812040831
 21
24.640458346444518
  0
LINE
  8
_0-1_
  6
CONTINUOUS
 62
    7
 10
135.23423093911458
 20
24.840458346444535
 11
137.54497132040831
 21
24.840458346444535
  0
LINE
  8
_0-1_
  6
CONTINUOUS
 62
    7
 10
135.42650654370061
 20
25.040458346444495
 11
137.35269571582228
 21
25.040458346444495
  0
LINE
  8
_0-1_
  6
CONTINUOUS
 62
    7
 10
135.72610878921603
 20
25.240458346444399
 11
137.05309347030686
 21
25.240458346444399
  0
LINE
  8
_0-1_
  6
CONTINUOUS
 62
    7
 10
137.78781321793679
 20
23.449695253712264
 11
137.78781321793679
 21
24.394575960490585
  0
LINE
  8
_0-1_
  6
CONTINUOUS
 62
    7
 10
137.5878132179368
 20
23.060460074906842
 11
137.5878132179368
 21
24.783811139296006
  0
LINE
  8
_0-1_
  6
CONTINUOUS
 62
    7
 10
137.38781321793681
 20
22.835043358002054
 11
137.38781321793681
 21
25.009227856200852
  0
LINE
  8
_0-1_
  6
CONTINUOUS
 62
    7
 10
137.18781321793682
 20
22.680743488017725
 11
137.18781321793682
 21
25.163527726185123
  0
LINE
  8
_0-1_
  6
CONTINUOUS
 62
    7
 10
136.98781321793683
 20
22.572936130154886
 11
136.98781321793683
 21
25.271335084047962
  0
LINE
  8
_0-1_
  6
CONTINUOUS
 62
    7
 10
136.78781321793679
 20
22.501000826771246
 11
136.78781321793679
 21
25.343270387431659
  0
LINE
  8
_0-1_
  6
CONTINUOUS
 62
    7
 10
136.5878132179368
 20
22.459634701416121
 11
136.5878132179368
 21
25.384636512786784
  0
LINE
  8
_0-1_
  6
CONTINUOUS
 62
    7
 10
136.38781321793681
 20
22.446265106548054
 11
136.38781321793681
 21
25.398006107654851
  0
LINE
  8
_0-1_
  6
CONTINUOUS
 62
    7
 10
135.09076345091523
 20
19.402456392823467
 11
135.13264902317314
 21
19.444341965081264
  0
LINE
  8
_0-1_
  6
CONTINUOUS
 62
    7
 10
134.80792073844043
 20
19.402456392823694
 11
135.02912140513195
 21
19.62365705951521
  0
LINE
  8
_0-1_
  6
CONTINUOUS
 62
    7
 10
134.52507802596506
 20
19.402456392823353
 11
134.92559378709086
 21
19.802972153949042
  0
LINE
  8
_0-1_
  6
CONTINUOUS
 62
    7
 10
134.24223531349026
 20
19.402456392823467
 11
134.82206616904966
 21
19.982287248382846
  0
LINE
  8
_0-1_
  6
CONTINUOUS
 62
    7
 10
133.95939260101494
 20
19.40245639282324
 11
134.71853855100858
 21
20.161602342816906
  0
LINE
  8
_0-1_
  6
CONTINUOUS
 62
    7
 10
133.67654988854207
 20
19.402456392823467
 11
134.615010932968
 21
20.340917437249601
  0
LINE
  8
_0-1_
  6
CONTINUOUS
 62
    7
 10
133.3937071760667
 20
19.402456392823353
 11
134.51148331492686
 21
20.52023253168332
  0
LINE
  8
_0-1_
  6
CONTINUOUS
 62
    7
 10
133.11086446359189
 20
19.402456392823467
 11
134.40795569688567
 21
20.699547626117237
  0
LINE
  8
_0-1_
  6
CONTINUOUS
 62
    7
 10
132.82802175111652
 20
19.402456392823183
 11
134.30442807884458
 21
20.87886272055124
  0
LINE
  8
_0-1_
  6
CONTINUOUS
 62
    7
 10
132.54517903864371
 20
19.402456392823467
 11
134.20090046080406
 21
21.058177814983907
  0
LINE
  8
_0-1_
  6
CONTINUOUS
 62
    7
 10
132.26233632616834
 20
19.40245639282324
 11
134.09737284276298
 21
21.237492909417739
  0
LINE
  8
_0-1_
  6
CONTINUOUS
 62
    7
 10
131.97949361369353
 20
19.402456392823467
 11
133.99384522472172
 21
21.4168080038516
  0
LINE
  8
_0-1_
  6
CONTINUOUS
 62
    7
 10
131.69665090121873
 20
19.402456392823694
 11
133.89031760668053
 21
21.596123098285318
  0
LINE
  8
_0-1_
  6
CONTINUOUS
 62
    7
 10
131.41380818874336
 20
19.402456392823353
 11
133.78678998863944
 21
21.775438192719349
  0
LINE
  8
_0-1_
  6
CONTINUOUS
 62
    7
 10
131.13096547627049
 20
19.402456392823694
 11
133.68326237059898
 21
21.954753287152045
  0
LINE
  8
_0-1_
  6
CONTINUOUS
 62
    7
 10
130.86872825614842
 20
19.423061885176651
 11
133.57973475255778
 21
22.134068381585877
  0
LINE
  8
_0-1_
  6
CONTINUOUS
 62
    7
 10
131.25509858666373
 20
20.092274928166859
 11
133.47620713451659
 21
22.313383476019794
  0
LINE
  8
_0-1_
  6
CONTINUOUS
 62
    7
 10
131.64146891718042
 20
20.761487971158658
 11
133.37267951647533
 21
22.492698570453541
  0
LINE
  8
_0-1_
  6
CONTINUOUS
 62
    7
 10
132.0278392476946
 20
21.430701014146081
 11
133.26915189843498
 21
22.672013664886435
  0
LINE
  8
_0-1_
  6
CONTINUOUS
 62
    7
 10
132.41420957821089
 20
22.09991405713734
 11
133.16562428039384
 21
22.851328759320296
  0
LINE
  8
_0-1_
  6
CONTINUOUS
 62
    7
 10
132.80057990872632
 20
22.769127100127804
 11
133.06209666235259
 21
23.0306438537541
  0
LINE
  8
_0-1_
  6
CONTINUOUS
 62
    7
 10
130.89778411246289
 20
19.473388104570915
 11
130.96871582421096
 21
19.402456392822899
  0
LINE
  8
_0-1_
  6
CONTINUOUS
 62
    7
 10
131.00131173050414
 20
19.652703199004748
 11
131.25155853668582
 21
19.402456392823012
  0
LINE
  8
_0-1_
  6
CONTINUOUS
 62
    7
 10
131.10483934854534
 20
19.832018293438551
 11
131.53440124916062
 21
19.40245639282324
  0
LINE
  8
_0-1_
  6
CONTINUOUS
 62
    7
 10
131.2083669665858
 20
20.011333387871247
 11
131.81724396163401
 21
19.402456392823012
  0
LINE
  8
_0-1_
  6
CONTINUOUS
 62
    7
 10
131.31189458462688
 20
20.190648482305193
 11
132.10008667410932
 21
19.402456392822785
  0
LINE
  8
_0-1_
  6
CONTINUOUS
 62
    7
 10
131.41542220266814
 20
20.369963576739025
 11
132.38292938658418
 21
19.402456392822955
  0
LINE
  8
_0-1_
  6
CONTINUOUS
 62
    7
 10
131.51894982070928
 20
20.549278671172857
 11
132.66577209905898
 21
19.402456392823183
  0
LINE
  8
_0-1_
  6
CONTINUOUS
 62
    7
 10
131.62247743875054
 20
20.728593765606576
 11
132.94861481153384
 21
19.402456392823467
  0
LINE
  8
_0-1_
  6
CONTINUOUS
 62
    7
 10
131.72600505679088
 20
20.907908860039527
 11
133.23145752400768
 21
19.402456392822728
  0
LINE
  8
_0-1_
  6
CONTINUOUS
 62
    7
 10
131.82953267483214
 20
21.08722395447333
 11
133.51430023648254
 21
19.402456392822955
  0
LINE
  8
_0-1_
  6
CONTINUOUS
 62
    7
 10
131.93306029287334
 20
21.266539048907049
 11
133.79714294895734
 21
19.402456392823183
  0
LINE
  8
_0-1_
  6
CONTINUOUS
 62
    7
 10
132.03658791091448
 20
21.445854143340995
 11
134.07998566143215
 21
19.402456392823353
  0
LINE
  8
_0-1_
  6
CONTINUOUS
 62
    7
 10
132.14011552895494
 20
21.62516923777369
 11
134.36282837390559
 21
19.402456392823183
  0
LINE
  8
_0-1_
  6
CONTINUOUS
 62
    7
 10
132.24364314699608
 20
21.804484332207636
 11
134.6456710863809
 21
19.402456392822899
  0
LINE
  8
_0-1_
  6
CONTINUOUS
 62
    7
 10
132.34717076503733
 20
21.983799426641355
 11
134.9285137988557
 21
19.402456392823012
  0
LINE
  8
_0-1_
  6
CONTINUOUS
 62
    7
 10
132.45069838307842
 20
22.163114521075329
 11
135.08234935063876
 21
19.531463553515096
  0
LINE
  8
_0-1_
  6
CONTINUOUS
 62
    7
 10
132.55422600111967
 20
22.342429615509133
 11
134.69597902012339
 21
20.20067659650536
  0
LINE
  8
_0-1_
  6
CONTINUOUS
 62
    7
 10
132.65775361916008
 20
22.521744709941942
 11
134.30960868960778
 21
20.869889639494119
  0
LINE
  8
_0-1_
  6
CONTINUOUS
 62
    7
 10
132.76128123720127
 20
22.701059804375774
 11
133.92323835909281
 21
21.539102682484327
  0
LINE
  8
_0-1_
  6
CONTINUOUS
 62
    7
 10
132.86480885524236
 20
22.880374898809634
 11
133.53686802857624
 21
22.208315725475842
  0
LINE
  8
_0-1_
  6
CONTINUOUS
 62
    7
 10
132.96833647328361
 20
23.059689993243552
 11
133.1504976980608
 21
22.877528768466192
  0
LINE
  8
_0-1_
  6
CONTINUOUS
 62
    7
 10
130.28781321793679
 20
13.819895418957401
 11
130.28781321793679
 21
18.029664629699312
  0
LINE
  8
_0-1_
  6
CONTINUOUS
 62
    7
 10
130.18781321793682
 20
13.819895418957401
 11
130.18781321793682
 21
18.029664629699312
  0
LINE
  8
_0-1_
  6
CONTINUOUS
 62
    7
 10
130.08781321793685
 20
13.819895418957401
 11
130.08781321793685
 21
18.029664629699312
  0
LINE
  8
_0-1_
  6
CONTINUOUS
 62
    7
 10
129.98781321793678
 20
13.819895418957401
 11
129.98781321793683
 21
18.029664629699312
  0
LINE
  8
_0-1_
  6
CONTINUOUS
 62
    7
 10
129.88781321793681
 20
13.819895418957401
 11
129.88781321793681
 21
18.029664629699312
  0
LINE
  8
_0-1_
  6
CONTINUOUS
 62
    7
 10
129.78781321793679
 20
13.819895418957401
 11
129.78781321793679
 21
18.029664629699312
  0
LINE
  8
_0-1_
  6
CONTINUOUS
 62
    7
 10
129.68781321793682
 20
13.819895418957401
 11
129.68781321793682
 21
18.029664629699312
  0
LINE
  8
_0-1_
  6
CONTINUOUS
 62
    7
 10
129.5878132179368
 20
13.819895418957401
 11
129.5878132179368
 21
18.029664629699312
  0
LINE
  8
_0-1_
  6
CONTINUOUS
 62
    7
 10
129.48781321793683
 20
13.819895418957401
 11
129.48781321793683
 21
18.029664629699312
  0
LINE
  8
_0-1_
  6
CONTINUOUS
 62
    7
 10
129.38781321793681
 20
13.819895418957401
 11
129.38781321793681
 21
18.029664629699312
  0
LINE
  8
_0-1_
  6
CONTINUOUS
 62
    7
 10
129.28781321793679
 20
13.819895418957401
 11
129.28781321793679
 21
18.029664629699312
  0
LINE
  8
_0-1_
  6
CONTINUOUS
 62
    7
 10
129.18781321793676
 20
13.819895418957401
 11
129.18781321793676
 21
18.029664629699312
  0
LINE
  8
_0-1_
  6
CONTINUOUS
 62
    7
 10
129.08781321793685
 20
13.819895418957401
 11
129.08781321793685
 21
18.029664629699312
  0
LINE
  8
_0-1_
  6
CONTINUOUS
 62
    7
 10
128.98781321793683
 20
13.819895418957401
 11
128.98781321793683
 21
18.029664629699312
  0
LINE
  8
_0-1_
  6
CONTINUOUS
 62
    7
 10
128.88781321793681
 20
13.819895418957401
 11
128.88781321793681
 21
18.029664629699312
  0
LINE
  8
_0-1_
  6
CONTINUOUS
 62
    7
 10
128.78781321793679
 20
13.819895418957401
 11
128.78781321793679
 21
18.029664629699312
  0
LINE
  8
_0-1_
  6
CONTINUOUS
 62
    7
 10
128.68781321793682
 20
13.819895418957401
 11
128.68781321793682
 21
18.029664629699312
  0
LINE
  8
_0-1_
  6
CONTINUOUS
 62
    7
 10
128.5878132179368
 20
13.819895418957401
 11
128.5878132179368
 21
18.029664629699312
  0
LINE
  8
_0-1_
  6
CONTINUOUS
 62
    7
 10
128.48781321793683
 20
13.819895418957401
 11
128.48781321793683
 21
18.029664629699312
  0
LINE
  8
_0-1_
  6
CONTINUOUS
 62
    7
 10
128.38781321793681
 20
13.819895418957401
 11
128.38781321793681
 21
18.029664629699312
  0
LINE
  8
_0-1_
  6
CONTINUOUS
 62
    7
 10
128.28781321793679
 20
13.819895418957401
 11
128.28781321793679
 21
18.029664629699312
  0
LINE
  8
_0-1_
  6
CONTINUOUS
 62
    7
 10
128.18781321793682
 20
13.819895418957401
 11
128.18781321793682
 21
18.029664629699312
  0
LINE
  8
_0-1_
  6
CONTINUOUS
 62
    7
 10
128.0878132179368
 20
13.819895418957401
 11
128.0878132179368
 21
18.029664629699312
  0
LINE
  8
_0-1_
  6
CONTINUOUS
 62
    7
 10
127.98781321793683
 20
13.819895418957401
 11
127.98781321793683
 21
18.029664629699312
  0
LINE
  8
_0-1_
  6
CONTINUOUS
 62
    7
 10
127.88781321793681
 20
13.819895418957401
 11
127.88781321793681
 21
18.029664629699312
  0
LINE
  8
_0-1_
  6
CONTINUOUS
 62
    7
 10
127.78781321793679
 20
13.819895418957401
 11
127.78781321793679
 21
18.029664629699312
  0
LINE
  8
_0-1_
  6
CONTINUOUS
 62
    7
 10
127.68781321793682
 20
13.819895418957401
 11
127.68781321793682
 21
18.029664629699312
  0
LINE
  8
_0-1_
  6
CONTINUOUS
 62
    7
 10
127.58781321793685
 20
13.819895418957401
 11
127.58781321793685
 21
18.029664629699312
  0
LINE
  8
_0-1_
  6
CONTINUOUS
 62
    7
 10
127.48781321793683
 20
13.819895418957401
 11
127.48781321793683
 21
18.029664629699312
  0
LINE
  8
_0-1_
  6
CONTINUOUS
 62
    7
 10
127.38781321793681
 20
13.819895418957401
 11
127.38781321793681
 21
18.029664629699312
  0
LINE
  8
_0-1_
  6
CONTINUOUS
 62
    7
 10
127.28781321793679
 20
13.819895418957401
 11
127.28781321793679
 21
18.029664629699312
  0
LINE
  8
_0-1_
  6
CONTINUOUS
 62
    7
 10
127.18781321793682
 20
13.819895418957401
 11
127.18781321793682
 21
18.029664629699312
  0
LINE
  8
_0-1_
  6
CONTINUOUS
 62
    7
 10
127.0878132179368
 20
13.819895418957401
 11
127.0878132179368
 21
18.029664629699312
  0
LINE
  8
_0-1_
  6
CONTINUOUS
 62
    7
 10
126.98781321793683
 20
13.819895418957401
 11
126.98781321793683
 21
18.029664629699312
  0
LINE
  8
_0-1_
  6
CONTINUOUS
 62
    7
 10
126.88781321793681
 20
13.819895418957401
 11
126.88781321793681
 21
18.029664629699312
  0
LINE
  8
_0-1_
  6
CONTINUOUS
 62
    7
 10
126.78781321793684
 20
13.819895418957401
 11
126.78781321793684
 21
18.029664629699312
  0
LINE
  8
_0-1_
  6
CONTINUOUS
 62
    7
 10
126.68781321793676
 20
13.819895418957401
 11
126.68781321793676
 21
18.029664629699312
  0
LINE
  8
_0-1_
  6
CONTINUOUS
 62
    7
 10
126.5878132179368
 20
13.819895418957401
 11
126.5878132179368
 21
18.029664629699312
  0
LINE
  8
_0-1_
  6
CONTINUOUS
 62
    7
 10
126.48781321793683
 20
13.819895418957401
 11
126.48781321793683
 21
18.029664629699312
  0
LINE
  8
_0-1_
  6
CONTINUOUS
 62
    7
 10
126.38781321793681
 20
13.819895418957401
 11
126.38781321793681
 21
18.029664629699312
  0
LINE
  8
_0-1_
  6
CONTINUOUS
 62
    7
 10
126.28781321793679
 20
13.819895418957401
 11
126.28781321793679
 21
18.029664629699312
  0
LINE
  8
_0-1_
  6
CONTINUOUS
 62
    7
 10
126.18781321793682
 20
13.819895418957401
 11
126.18781321793682
 21
18.029664629699312
  0
LINE
  8
_0-1_
  6
CONTINUOUS
 62
    4
 10
128.48756076542122
 20
21.106798012640326
 11
122.79740237527949
 21
13.69797953731296
  0
LINE
  8
_0-1_
  6
CONTINUOUS
 62
    4
 10
122.79740237527949
 20
13.69797953731296
 11
122.23999910440841
 21
13.465728174449907
  0
LINE
  8
_0-1_
  6
CONTINUOUS
 62
    4
 10
122.23999910440841
 20
13.465728174449907
 11
121.72904610610999
 21
13.279927084159681
  0
LINE
  8
_0-1_
  6
CONTINUOUS
 62
    4
 10
121.72904610610999
 20
13.279927084159681
 11
121.45034447067451
 21
13.535403583308778
  0
LINE
  8
_0-1_
  6
CONTINUOUS
 62
    4
 10
121.45034447067451
 20
13.535403583308778
 11
121.21809310781157
 21
13.860555491316916
  0
LINE
  8
_0-1_
  6
CONTINUOUS
 62
    4
 10
121.21809310781157
 20
13.860555491316916
 11
121.03229201752117
 21
14.487634171046807
  0
LINE
  8
_0-1_
  6
CONTINUOUS
 62
    4
 10
121.03229201752117
 20
14.487634171046807
 11
121.21809310781157
 21
15.068262578204212
  0
LINE
  8
_0-1_
  6
CONTINUOUS
 62
    4
 10
121.21809310781157
 20
15.068262578204212
 11
121.91484719640033
 21
16.066943438514784
  0
LINE
  8
_0-1_
  6
CONTINUOUS
 62
    4
 10
121.91484719640033
 20
16.066943438514784
 11
127.16372799710257
 21
23.173835142120424
  0
LINE
  8
_0-1_
  6
CONTINUOUS
 62
    4
 10
127.16372799710257
 20
23.173835142120424
 11
127.16372799710257
 21
23.68478814041876
  0
LINE
  8
_0-1_
  6
CONTINUOUS
 62
    4
 10
127.16372799710257
 20
23.68478814041876
 11
127.30307881482031
 21
24.009940048426898
  0
LINE
  8
_0-1_
  6
CONTINUOUS
 62
    4
 10
127.30307881482031
 20
24.009940048426898
 11
127.67468099540099
 21
24.427992501580206
  0
LINE
  8
_0-1_
  6
CONTINUOUS
 62
    4
 10
127.67468099540099
 20
24.427992501580206
 11
127.79080667683246
 21
24.544118183011534
  0
LINE
  8
_0-1_
  6
CONTINUOUS
 62
    4
 10
127.79080667683246
 20
24.544118183011534
 11
127.99983290340913
 21
24.846044954733458
  0
LINE
  8
_0-1_
  6
CONTINUOUS
 62
    4
 10
127.99983290340913
 20
24.846044954733458
 11
128.34820994770348
 21
24.892495227306
  0
LINE
  8
_0-1_
  6
CONTINUOUS
 62
    4
 10
128.34820994770348
 20
24.892495227306
 11
128.9520634911471
 21
25.008620908737527
  0
LINE
  8
_0-1_
  6
CONTINUOUS
 62
    4
 10
128.9520634911471
 20
25.008620908737527
 11
129.18431485401004
 21
24.985395772451199
  0
LINE
  8
_0-1_
  6
CONTINUOUS
 62
    4
 10
129.18431485401004
 20
24.985395772451199
 11
129.67204271602219
 21
24.82281981844713
  0
LINE
  8
_0-1_
  6
CONTINUOUS
 62
    4
 10
129.67204271602219
 20
24.82281981844713
 11
129.85784380631253
 21
24.590568455584304
  0
LINE
  8
_0-1_
  6
CONTINUOUS
 62
    4
 10
129.85784380631253
 20
24.590568455584304
 11
130.36879680461095
 21
23.9170395032817
  0
LINE
  8
_0-1_
  6
CONTINUOUS
 62
    4
 10
130.36879680461095
 20
23.9170395032817
 11
131.94810607207887
 21
21.292599102930609
  0
LINE
  8
_0-1_
  6
CONTINUOUS
 62
    4
 10
133.06696887286444
 20
19.40245639282324
 11
135.31484055389365
 21
15.52210202747159
  0
LINE
  8
_0-1_
  6
CONTINUOUS
 62
    4
 10
135.31484055389365
 20
15.52210202747159
 11
135.53039478630217
 21
14.967819715563962
  0
LINE
  8
_0-1_
  6
CONTINUOUS
 62
    4
 10
135.53039478630217
 20
14.967819715563962
 11
135.43801440098423
 21
14.690678559610262
  0
LINE
  8
_0-1_
  6
CONTINUOUS
 62
    4
 10
135.43801440098423
 20
14.690678559610262
 11
135.16087324503047
 21
14.305760287452188
  0
LINE
  8
_0-1_
  6
CONTINUOUS
 62
    4
 10
135.16087324503047
 20
14.305760287452188
 11
134.08310208298792
 21
13.982428938839405
  0
LINE
  8
_0-1_
  6
CONTINUOUS
 62
    4
 10
134.08310208298792
 20
13.982428938839405
 11
133.43643938576241
 21
13.75147797554456
  0
LINE
  8
_0-1_
  6
CONTINUOUS
 62
    4
 10
133.43643938576241
 20
13.75147797554456
 11
132.86676034296852
 21
13.982428938839405
  0
LINE
  8
_0-1_
  6
CONTINUOUS
 62
    4
 10
132.86676034296852
 20
13.982428938839405
 11
131.98914668244817
 21
14.92162952290505
  0
LINE
  8
_0-1_
  6
CONTINUOUS
 62
    4
 10
131.98914668244817
 20
14.92162952290505
 11
131.95835322067552
 21
15.429721642153652
  0
LINE
  8
_0-1_
  6
CONTINUOUS
 62
    4
 10
131.95835322067552
 20
15.429721642153652
 11
128.48756076542122
 21
21.106798012640326
  0
LINE
  8
_0-1_
  6
CONTINUOUS
 62
    4
 10
135.05282028082405
 20
14.273344398190773
 11
135.35536858060317
 21
14.575892697970005
  0
LINE
  8
_0-1_
  6
CONTINUOUS
 62
    4
 10
134.64875926300442
 20
14.152126092844412
 11
135.51193105414023
 21
15.015297883980281
  0
LINE
  8
_0-1_
  6
CONTINUOUS
 62
    4
 10
134.24469824518297
 20
14.030907787497938
 11
135.43273509464717
 21
15.218944636962192
  0
LINE
  8
_0-1_
  6
CONTINUOUS
 62
    4
 10
133.81908479575054
 20
13.888137050540536
 11
135.35353913515405
 21
15.422591389944159
  0
LINE
  8
_0-1_
  6
CONTINUOUS
 62
    4
 10
133.41021465563028
 20
13.762109622895423
 11
135.26178808289671
 21
15.61368305016174
  0
LINE
  8
_0-1_
  6
CONTINUOUS
 62
    4
 10
133.20896118713983
 20
13.843698866878128
 11
135.15803960515746
 21
15.792777284895806
  0
LINE
  8
_0-1_
  6
CONTINUOUS
 62
    4
 10
133.00770771864813
 20
13.925288110861402
 11
135.05429112741763
 21
15.971871519630952
  0
LINE
  8
_0-1_
  6
CONTINUOUS
 62
    4
 10
132.82581960565841
 20
14.026242710346821
 11
134.95054264967769
 21
16.150965754366098
  0
LINE
  8
_0-1_
  6
CONTINUOUS
 62
    4
 10
132.68919219370014
 20
14.172458010863522
 11
134.84679417193774
 21
16.33005998910113
  0
LINE
  8
_0-1_
  6
CONTINUOUS
 62
    4
 10
132.55256478174186
 20
14.318673311380167
 11
134.74304569419792
 21
16.509154223836333
  0
LINE
  8
_0-1_
  6
CONTINUOUS
 62
    4
 10
132.4159373697845
 20
14.464888611896129
 11
134.63929721645866
 21
16.688248458570229
  0
LINE
  8
_0-1_
  6
CONTINUOUS
 62
    4
 10
132.27930995782617
 20
14.61110391241283
 11
134.53554873871877
 21
16.867342693305375
  0
LINE
  8
_0-1_
  6
CONTINUOUS
 62
    4
 10
132.1426825458679
 20
14.757319212929644
 11
134.43180026097878
 21
17.046436928040464
  0
LINE
  8
_0-1_
  6
CONTINUOUS
 62
    4
 10
132.00605513390963
 20
14.903534513446232
 11
134.32805178323883
 21
17.22553116277561
  0
LINE
  8
_0-1_
  6
CONTINUOUS
 62
    4
 10
131.97498443950252
 20
15.155306531512394
 11
134.22430330549969
 21
17.404625397509619
  0
LINE
  8
_0-1_
  6
CONTINUOUS
 62
    4
 10
131.95882199878963
 20
15.421986803274535
 11
134.1205548277598
 21
17.583719632244708
  0
LINE
  8
_0-1_
  6
CONTINUOUS
 62
    4
 10
131.85415241514653
 20
15.600159932106465
 11
134.01680635001986
 21
17.762813866979798
  0
LINE
  8
_0-1_
  6
CONTINUOUS
 62
    4
 10
131.74683907570289
 20
15.775689305137917
 11
133.91305787227986
 21
17.941908101714887
  0
LINE
  8
_0-1_
  6
CONTINUOUS
 62
    4
 10
131.63952573625943
 20
15.951218678169482
 11
133.80930939453998
 21
18.121002336449976
  0
LINE
  8
_0-1_
  6
CONTINUOUS
 62
    4
 10
131.53221239681648
 20
16.126748051199741
 11
133.70556091680078
 21
18.300096571184042
  0
LINE
  8
_0-1_
  6
CONTINUOUS
 62
    4
 10
131.42489905737295
 20
16.302277424231249
 11
133.60181243906089
 21
18.479190805919131
  0
LINE
  8
_0-1_
  6
CONTINUOUS
 62
    4
 10
131.31758571792932
 20
16.477806797262645
 11
133.49806396132095
 21
18.658285040654278
  0
LINE
  8
_0-1_
  6
CONTINUOUS
 62
    4
 10
131.21027237848568
 20
16.653336170294097
 11
133.39431548358101
 21
18.83737927538931
  0
LINE
  8
_0-1_
  6
CONTINUOUS
 62
    4
 10
131.10295903904284
 20
16.828865543324468
 11
133.29056700584181
 21
19.016473510123319
  0
LINE
  8
_0-1_
  6
CONTINUOUS
 62
    4
 10
130.99564569959938
 20
17.004394916356091
 11
133.18681852810192
 21
19.195567744858636
  0
LINE
  8
_0-1_
  6
CONTINUOUS
 62
    4
 10
130.8883323601558
 20
17.179924289387429
 11
133.08307005036198
 21
19.374661979593611
  0
LINE
  8
_0-1_
  6
CONTINUOUS
 62
    4
 10
130.78101902071217
 20
17.355453662418824
 11
132.82802175111652
 21
19.402456392823183
  0
LINE
  8
_0-1_
  6
CONTINUOUS
 62
    4
 10
130.67370568126927
 20
17.530983035449083
 11
132.54517903864371
 21
19.402456392823467
  0
LINE
  8
_0-1_
  6
CONTINUOUS
 62
    4
 10
130.56639234182575
 20
17.706512408480705
 11
132.26233632616834
 21
19.40245639282324
  0
LINE
  8
_0-1_
  6
CONTINUOUS
 62
    4
 10
130.45907900238217
 20
17.8820417815121
 11
131.97949361369353
 21
19.402456392823467
  0
LINE
  8
_0-1_
  6
CONTINUOUS
 62
    4
 10
130.35176566293865
 20
18.057571154543496
 11
131.69665090121873
 21
19.402456392823694
  0
LINE
  8
_0-1_
  6
CONTINUOUS
 62
    4
 10
130.24445232349507
 20
18.233100527575061
 11
131.41380818874336
 21
19.402456392823353
  0
LINE
  8
_0-1_
  6
CONTINUOUS
 62
    4
 10
130.13713898405217
 20
18.408629900605376
 11
131.13096547627049
 21
19.402456392823694
  0
LINE
  8
_0-1_
  6
CONTINUOUS
 62
    4
 10
130.02982564460865
 20
18.584159273636885
 11
130.86872825614842
 21
19.423061885176651
  0
LINE
  8
_0-1_
  6
CONTINUOUS
 62
    4
 10
129.92251230516507
 20
18.75968864666828
 11
131.25509858666373
 21
20.092274928166859
  0
LINE
  8
_0-1_
  6
CONTINUOUS
 62
    4
 10
129.81519896572144
 20
18.935218019699619
 11
131.64146891718042
 21
20.761487971158658
  0
LINE
  8
_0-1_
  6
CONTINUOUS
 62
    4
 10
129.70788562627854
 20
19.110747392730048
 11
131.92617748632892
 21
21.329039252780291
  0
LINE
  8
_0-1_
  6
CONTINUOUS
 62
    4
 10
129.60057228683507
 20
19.286276765761613
 11
131.81991613578577
 21
21.5056206147122
  0
LINE
  8
_0-1_
  6
CONTINUOUS
 62
    4
 10
129.4932589473915
 20
19.461806138792952
 11
131.71365478524257
 21
21.682201976644137
  0
LINE
  8
_0-1_
  6
CONTINUOUS
 62
    4
 10
129.38594560794786
 20
19.637335511824432
 11
131.60739343469942
 21
21.858783338575932
  0
LINE
  8
_0-1_
  6
CONTINUOUS
 62
    4
 10
129.27863226850428
 20
19.812864884855941
 11
131.50113208415638
 21
22.035364700507813
  0
LINE
  8
_0-1_
  6
CONTINUOUS
 62
    4
 10
129.1713189290615
 20
19.988394257886313
 11
131.39487073361397
 21
22.21194606243867
  0
LINE
  8
_0-1_
  6
CONTINUOUS
 62
    4
 10
122.45567515367941
 20
13.555593194979281
 11
123.45738231339425
 21
14.557300354694064
  0
LINE
  8
_0-1_
  6
CONTINUOUS
 62
    4
 10
129.06400558961792
 20
20.163923630917623
 11
131.28860938307088
 21
22.388527424370693
  0
LINE
  8
_0-1_
  6
CONTINUOUS
 62
    4
 10
121.99323502997032
 20
13.375995783745054
 11
124.39382102361424
 21
15.77658177738914
  0
LINE
  8
_0-1_
  6
CONTINUOUS
 62
    4
 10
128.95669225017429
 20
20.339453003949103
 11
131.18234803252773
 21
22.565108786302545
  0
LINE
  8
_0-1_
  6
CONTINUOUS
 62
    4
 10
121.6691908948751
 20
13.334794361124921
 11
125.3302597338365
 21
16.995863200086376
  0
LINE
  8
_0-1_
  6
CONTINUOUS
 62
    4
 10
128.84937891073071
 20
20.514982376980583
 11
131.07608668198452
 21
22.741690148234426
  0
LINE
  8
_0-1_
  6
CONTINUOUS
 62
    4
 10
121.52162078401949
 20
13.470066962742692
 11
126.26669844405114
 21
18.215144622774289
  0
LINE
  8
_0-1_
  6
CONTINUOUS
 62
    4
 10
128.74206557128787
 20
20.690511750010984
 11
130.96982533144222
 21
22.918271510165283
  0
LINE
  8
_0-1_
  6
CONTINUOUS
 62
    4
 10
121.38941539627285
 20
13.620704287471028
 11
127.20313715427426
 21
19.434426045472378
  0
LINE
  8
_0-1_
  6
CONTINUOUS
 62
    4
 10
128.63475223184435
 20
20.866041123042521
 11
130.86356398089902
 21
23.094852872097164
  0
LINE
  8
_0-1_
  6
CONTINUOUS
 62
    4
 10
121.27156426607496
 20
13.785695869748054
 11
128.13957586449521
 21
20.653707468168278
  0
LINE
  8
_0-1_
  6
CONTINUOUS
 62
    4
 10
128.52743889240071
 20
21.041570496073803
 11
130.75730263035598
 21
23.271434234029073
  0
LINE
  8
_0-1_
  6
CONTINUOUS
 62
    4
 10
121.18277609463581
 20
13.979750410783993
 11
130.65104127981283
 21
23.44801559596101
  0
LINE
  8
_0-1_
  6
CONTINUOUS
 62
    4
 10
121.11812633178465
 20
14.197943360407919
 11
130.54477992926968
 21
23.624596957892834
  0
LINE
  8
_0-1_
  6
CONTINUOUS
 62
    4
 10
121.05347656893355
 20
14.416136310030026
 11
130.43851857872733
 21
23.801178319823777
  0
LINE
  8
_0-1_
  6
CONTINUOUS
 62
    4
 10
121.12177921754289
 20
14.767281671114404
 11
130.32684161622251
 21
23.972344069793991
  0
LINE
  8
_0-1_
  6
CONTINUOUS
 62
    4
 10
121.39849855931868
 20
15.326843725365222
 11
130.20483103437044
 21
24.133176200416898
  0
LINE
  8
_0-1_
  6
CONTINUOUS
 62
    4
 10
122.081781069253
 20
16.292968947774625
 11
130.08282045251849
 21
24.294008331039919
  0
LINE
  8
_0-1_
  6
CONTINUOUS
 62
    4
 10
122.88081173198697
 20
17.374842322981863
 11
129.96080987066728
 21
24.45484046166203
  0
LINE
  8
_0-1_
  6
CONTINUOUS
 62
    4
 10
123.67984239472946
 20
18.456715698199218
 11
129.83822218222451
 21
24.615095485694269
  0
LINE
  8
_0-1_
  6
CONTINUOUS
 62
    4
 10
124.47887305747065
 20
19.538589073415437
 11
129.71251431001338
 21
24.772230325958105
  0
LINE
  8
_0-1_
  6
CONTINUOUS
 62
    4
 10
125.27790372021428
 20
20.6204624486341
 11
129.52820649652614
 21
24.870765224945842
  0
LINE
  8
_0-1_
  6
CONTINUOUS
 62
    4
 10
126.07693438295439
 20
21.702335823849268
 11
129.31607446216992
 21
24.941475903064799
  0
LINE
  8
_0-1_
  6
CONTINUOUS
 62
    4
 10
126.87596504569171
 20
22.784209199059688
 11
129.08689373134933
 21
24.995137884717366
  0
LINE
  8
_0-1_
  6
CONTINUOUS
 62
    4
 10
127.16372799710285
 20
23.354814862946
 11
128.78550322188164
 21
24.976590087724674
  0
LINE
  8
_0-1_
  6
CONTINUOUS
 62
    4
 10
127.16372799710274
 20
23.637657575420832
 11
128.43531700643672
 21
24.909246584754811
  0
LINE
  8
_0-1_
  6
CONTINUOUS
 62
    4
 10
127.79859344221268
 20
24.555365733005743
 11
128.10303262709937
 21
24.85980491789249
  0
LINE
  8
_0-1_
  6
CONTINUOUS
 62
    4
 10
121.21008588916851
 20
13.887579854235526
 11
121.79408731174198
 21
13.303578431662061
  0
LINE
  8
_0-1_
  6
CONTINUOUS
 62
    4
 10
121.09099422075849
 20
14.289514235120578
 11
122.00150530089024
 21
13.379003154988766
  0
LINE
  8
_0-1_
  6
CONTINUOUS
 62
    4
 10
121.06706170959058
 20
14.596289458763465
 11
122.20892329003846
 21
13.454427878315585
  0
LINE
  8
_0-1_
  6
CONTINUOUS
 62
    4
 10
121.13562963988761
 20
14.81056424094146
 11
122.40974023521113
 21
13.536453645617883
  0
LINE
  8
_0-1_
  6
CONTINUOUS
 62
    4
 10
121.20419757018402
 20
15.024839023118318
 11
122.60939391460403
 21
13.619642678698199
  0
LINE
  8
_0-1_
  6
CONTINUOUS
 62
    4
 10
121.31077404743951
 20
15.201105258337805
 11
122.80456879607783
 21
13.707310509699425
  0
LINE
  8
_0-1_
  6
CONTINUOUS
 62
    4
 10
121.42701077859368
 20
15.367711239658718
 11
122.92743486798634
 21
13.867287150266009
  0
LINE
  8
_0-1_
  6
CONTINUOUS
 62
    4
 10
121.5432475097478
 20
15.534317220979574
 11
123.05030093989484
 21
14.027263790832592
  0
LINE
  8
_0-1_
  6
CONTINUOUS
 62
    4
 10
121.65948424090124
 20
15.700923202299407
 11
123.1731670118026
 21
14.187240431397981
  0
LINE
  8
_0-1_
  6
CONTINUOUS
 62
    4
 10
121.7757209720553
 20
15.86752918362032
 11
123.29603308371094
 21
14.347217071964621
  0
LINE
  8
_0-1_
  6
CONTINUOUS
 62
    4
 10
121.89195770320936
 20
16.034135164941347
 11
123.4188991556195
 21
14.507193712531205
  0
LINE
  8
_0-1_
  6
CONTINUOUS
 62
    4
 10
122.0113411019089
 20
16.197594478716894
 11
123.54176522752795
 21
14.667170353097845
  0
LINE
  8
_0-1_
  6
CONTINUOUS
 62
    4
 10
122.13149608878666
 20
16.360282204312227
 11
123.66463129943571
 21
14.827146993663234
  0
LINE
  8
_0-1_
  6
CONTINUOUS
 62
    4
 10
122.25165107566517
 20
16.522969929908754
 11
123.7874973713441
 21
14.987123634229818
  0
LINE
  8
_0-1_
  6
CONTINUOUS
 62
    4
 10
122.37180606254367
 20
16.685657655505395
 11
123.91036344325255
 21
15.147100274796287
  0
LINE
  8
_0-1_
  6
CONTINUOUS
 62
    4
 10
122.49196104942206
 20
16.848345381101865
 11
124.03322951516111
 21
15.30707691536287
  0
LINE
  8
_0-1_
  6
CONTINUOUS
 62
    4
 10
122.61211603630062
 20
17.011033106698449
 11
124.15609558706961
 21
15.467053555929454
  0
LINE
  8
_0-1_
  6
CONTINUOUS
 62
    4
 10
122.73227102317838
 20
17.173720832293895
 11
124.27896165897732
 21
15.62703019649507
  0
LINE
  8
_0-1_
  6
CONTINUOUS
 62
    4
 10
122.85242601005683
 20
17.336408557890479
 11
124.40182773088571
 21
15.787006837061654
  0
LINE
  8
_0-1_
  6
CONTINUOUS
 62
    4
 10
122.97258099693528
 20
17.499096283487063
 11
124.52469380279422
 21
15.946983477628066
  0
LINE
  8
_0-1_
  6
CONTINUOUS
 62
    4
 10
123.09273598381378
 20
17.661784009083533
 11
124.64755987470272
 21
16.10696011819465
  0
LINE
  8
_0-1_
  6
CONTINUOUS
 62
    4
 10
123.21289097069155
 20
17.82447173467898
 11
124.77042594661043
 21
16.266936758760096
  0
LINE
  8
_0-1_
  6
CONTINUOUS
 62
    4
 10
123.33304595756999
 20
17.987159460275564
 11
124.89329201851882
 21
16.426913399326679
  0
LINE
  8
_0-1_
  6
CONTINUOUS
 62
    4
 10
123.4532009444485
 20
18.149847185872147
 11
125.01615809042733
 21
16.586890039893262
  0
LINE
  8
_0-1_
  6
CONTINUOUS
 62
    4
 10
123.573355931327
 20
18.312534911468731
 11
125.13902416233589
 21
16.746866680459846
  0
LINE
  8
_0-1_
  6
CONTINUOUS
 62
    4
 10
123.6935109182055
 20
18.475222637065201
 11
125.26189023424433
 21
16.906843321026429
  0
LINE
  8
_0-1_
  6
CONTINUOUS
 62
    4
 10
123.81366590508327
 20
18.637910362660648
 11
125.38475630615204
 21
17.066819961591875
  0
LINE
  8
_0-1_
  6
CONTINUOUS
 62
    4
 10
123.93382089196172
 20
18.800598088257232
 11
125.50762237806043
 21
17.226796602158458
  0
LINE
  8
_0-1_
  6
CONTINUOUS
 62
    4
 10
124.05397587884022
 20
18.963285813853815
 11
125.63048844996899
 21
17.386773242725042
  0
LINE
  8
_0-1_
  6
CONTINUOUS
 62
    4
 10
124.17413086571867
 20
19.125973539450172
 11
125.7533545218775
 21
17.546749883291511
  0
LINE
  8
_0-1_
  6
CONTINUOUS
 62
    4
 10
124.29428585259643
 20
19.288661265045903
 11
125.87622059378515
 21
17.706726523857071
  0
LINE
  8
_0-1_
  6
CONTINUOUS
 62
    4
 10
124.41444083947493
 20
19.451348990642202
 11
125.9990866656936
 21
17.866703164423654
  0
LINE
  8
_0-1_
  6
CONTINUOUS
 62
    4
 10
124.53459582635338
 20
19.6140367162389
 11
126.1219527376021
 21
18.026679804990238
  0
LINE
  8
_0-1_
  6
CONTINUOUS
 62
    4
 10
124.65475081323189
 20
19.776724441835484
 11
126.2448188095106
 21
18.186656445556707
  0
LINE
  8
_0-1_
  6
CONTINUOUS
 62
    4
 10
124.77490580011039
 20
19.939412167431811
 11
126.36768488141905
 21
18.346633086123234
  0
LINE
  8
_0-1_
  6
CONTINUOUS
 62
    4
 10
124.89506078698815
 20
20.102099893027372
 11
126.49055095332676
 21
18.506609726688851
  0
LINE
  8
_0-1_
  6
CONTINUOUS
 62
    4
 10
125.0152157738666
 20
20.26478761862387
 11
126.61341702523521
 21
18.66658636725532
  0
LINE
  8
_0-1_
  6
CONTINUOUS
 62
    4
 10
125.1353707607451
 20
20.427475344220426
 11
126.73628309714371
 21
18.826563007821903
  0
LINE
  8
_0-1_
  6
CONTINUOUS
 62
    4
 10
125.25552574762355
 20
20.59016306981701
 11
126.85914916905222
 21
18.986539648388373
  0
LINE
  8
_0-1_
  6
CONTINUOUS
 62
    4
 10
125.37568073450132
 20
20.752850795412542
 11
126.98201524095987
 21
19.146516288954047
  0
LINE
  8
_0-1_
  6
CONTINUOUS
 62
    4
 10
125.49583572137982
 20
20.91553852100904
 11
127.10488131286832
 21
19.30649292952063
  0
LINE
  8
_0-1_
  6
CONTINUOUS
 62
    4
 10
125.61599070825832
 20
21.078226246605595
 11
127.22774738477682
 21
19.466469570087042
  0
LINE
  8
_0-1_
  6
CONTINUOUS
 62
    4
 10
125.73614569513677
 20
21.240913972202094
 11
127.35061345668532
 21
19.626446210653455
  0
LINE
  8
_0-1_
  6
CONTINUOUS
 62
    4
 10
131.98487033006245
 20
14.992189337276443
 11
133.08181508227023
 21
13.89524458506861
  0
LINE
  8
_0-1_
  6
CONTINUOUS
 62
    4
 10
125.85630068201533
 20
21.403601697798678
 11
127.47347952859377
 21
19.78642285122001
  0
LINE
  8
_0-1_
  6
CONTINUOUS
 62
    4
 10
131.96662241312794
 20
15.293279966686043
 11
133.48948097834648
 21
13.770421401467502
  0
LINE
  8
_0-1_
  6
CONTINUOUS
 62
    4
 10
125.97645566889298
 20
21.566289423394238
 11
127.59634560050148
 21
19.946399491785684
  0
LINE
  8
_0-1_
  6
CONTINUOUS
 62
    4
 10
131.71503536763362
 20
15.827709724653573
 11
133.69789139806358
 21
13.844853694223673
  0
LINE
  8
_0-1_
  6
CONTINUOUS
 62
    4
 10
126.09661065577154
 20
21.728977148990595
 11
127.71921167240998
 21
20.106376132352182
  0
LINE
  8
_0-1_
  6
CONTINUOUS
 62
    4
 10
131.27008431409831
 20
16.555503490663853
 11
133.90630181778198
 21
13.919285986980242
  0
LINE
  8
_0-1_
  6
CONTINUOUS
 62
    4
 10
126.21676564264999
 20
21.891664874587178
 11
127.84207774431843
 21
20.266352772918736
  0
LINE
  8
_0-1_
  6
CONTINUOUS
 62
    4
 10
130.82513326056312
 20
17.283297256674075
 11
134.11610169484163
 21
13.992328822395621
  0
LINE
  8
_0-1_
  6
CONTINUOUS
 62
    4
 10
126.33692062952849
 20
22.054352600183677
 11
127.96494381622693
 21
20.42632941348532
  0
LINE
  8
_0-1_
  6
CONTINUOUS
 62
    4
 10
130.38018220702452
 20
18.011091022687708
 11
134.33367301212996
 21
14.057600217582205
  0
LINE
  8
_0-1_
  6
CONTINUOUS
 62
    4
 10
126.4570756164062
 20
22.217040325779209
 11
128.08780988813459
 21
20.58630605405088
  0
LINE
  8
_0-1_
  6
CONTINUOUS
 62
    4
 10
129.93523115349177
 20
18.738884788693724
 11
134.55124432941739
 21
14.122871612768051
  0
LINE
  8
_0-1_
  6
CONTINUOUS
 62
    4
 10
126.5772306032847
 20
22.379728051375764
 11
128.21067596004309
 21
20.746282694617491
  0
LINE
  8
_0-1_
  6
CONTINUOUS
 62
    4
 10
129.49028009995658
 20
19.466678554703833
 11
134.76881564670578
 21
14.188143007954693
  0
LINE
  8
_0-1_
  6
CONTINUOUS
 62
    4
 10
126.69738559016321
 20
22.542415776972263
 11
128.33354203195154
 21
20.906259335183933
  0
LINE
  8
_0-1_
  6
CONTINUOUS
 62
    4
 10
129.04532904642133
 20
20.194472320714226
 11
134.98638696399411
 21
14.253414403141392
  0
LINE
  8
_0-1_
  6
CONTINUOUS
 62
    4
 10
126.81754057704165
 20
22.705103502568846
 11
128.4564081038601
 21
21.066235975750516
  0
LINE
  8
_0-1_
  6
CONTINUOUS
 62
    4
 10
128.60037799288597
 20
20.922266086724477
 11
135.18431952057244
 21
14.338324559038085
  0
LINE
  8
_0-1_
  6
CONTINUOUS
 62
    4
 10
126.93769556392016
 20
22.867791228165316
 11
135.30271879556193
 21
14.50276799652363
  0
LINE
  8
_0-1_
  6
CONTINUOUS
 62
    4
 10
127.05785055079787
 20
23.030478953760877
 11
135.42111807055056
 21
14.667211434008152
  0
LINE
  8
_0-1_
  6
CONTINUOUS
 62
    4
 10
127.16372799710308
 20
23.207444219930636
 11
130.89778411246289
 21
19.473388104570915
  0
LINE
  8
_0-1_
  6
CONTINUOUS
 62
    4
 10
130.96871582421096
 20
19.402456392822899
 11
135.498634215094
 21
14.872538001939859
  0
LINE
  8
_0-1_
  6
CONTINUOUS
 62
    4
 10
127.16372799710268
 20
23.490286932406008
 11
131.00131173050414
 21
19.652703199004748
  0
LINE
  8
_0-1_
  6
CONTINUOUS
 62
    4
 10
131.25155853668582
 20
19.402456392823012
 11
135.4312490596206
 21
15.222765869888292
  0
LINE
  8
_0-1_
  6
CONTINUOUS
 62
    4
 10
127.19023044844135
 20
23.746627193542423
 11
131.10483934854534
 21
19.832018293438551
  0
LINE
  8
_0-1_
  6
CONTINUOUS
 62
    4
 10
131.53440124916062
 20
19.40245639282324
 11
135.17726100255641
 21
15.759596639427457
  0
LINE
  8
_0-1_
  6
CONTINUOUS
 62
    4
 10
127.2750832621831
 20
23.944617092274058
 11
131.2083669665858
 21
20.011333387871247
  0
LINE
  8
_0-1_
  6
CONTINUOUS
 62
    4
 10
131.81724396163401
 20
19.402456392823012
 11
134.78779645897589
 21
16.431903895481184
  0
LINE
  8
_0-1_
  6
CONTINUOUS
 62
    4
 10
127.39226667537787
 20
24.110276391554208
 11
131.31189458462688
 21
20.190648482305193
  0
LINE
  8
_0-1_
  6
CONTINUOUS
 62
    4
 10
132.10008667410932
 20
19.402456392822785
 11
134.39833191539253
 21
17.104211151539687
  0
LINE
  8
_0-1_
  6
CONTINUOUS
 62
    4
 10
127.52536912830732
 20
24.260016651099846
 11
131.41542220266814
 21
20.369963576739025
  0
LINE
  8
_0-1_
  6
CONTINUOUS
 62
    4
 10
132.38292938658418
 20
19.402456392822955
 11
134.00886737180917
 21
17.776518407597962
  0
LINE
  8
_0-1_
  6
CONTINUOUS
 62
    4
 10
127.65847158123671
 20
24.409756910645456
 11
131.51894982070928
 21
20.549278671172857
  0
LINE
  8
_0-1_
  6
CONTINUOUS
 62
    4
 10
132.66577209905898
 20
19.402456392823183
 11
133.6194028282253
 21
18.448825663656919
  0
LINE
  8
_0-1_
  6
CONTINUOUS
 62
    4
 10
127.7974119995871
 20
24.553659204768252
 11
131.6224774387498
 21
20.728593765605524
  0
LINE
  8
_0-1_
  6
CONTINUOUS
 62
    4
 10
132.94861481153237
 20
19.402456392823012
 11
133.22993828464155
 21
19.121132919713887
  0
LINE
  8
_0-1_
  6
CONTINUOUS
 62
    4
 10
127.91312038196315
 20
24.720793534867141
 11
131.72600505679088
 21
20.907908860039527
  0
LINE
  8
_0-1_
  6
CONTINUOUS
 62
    4
 10
128.06237299561161
 20
24.854383633693857
 11
131.82953267483214
 21
21.08722395447333
  0
LINE
  8
_0-1_
  6
CONTINUOUS
 62
    4
 10
128.31194009485409
 20
24.887659246926376
 11
131.93306029287334
 21
21.266539048907049
  0
LINE
  8
_0-1_
  6
CONTINUOUS
 62
    4
 10
128.55095700771631
 20
24.931485046539279
 11
131.5828147878866
 21
21.899627266368952
  0
LINE
  8
_0-1_
  6
CONTINUOUS
 62
    4
 10
128.78817992785503
 20
24.977104838873686
 11
131.15540802236814
 21
22.60987674436052
  0
LINE
  8
_0-1_
  6
CONTINUOUS
 62
    4
 10
129.04922246816835
 20
24.998905011035419
 11
130.72800125685069
 21
23.320126222353139
  0
LINE
  8
_0-1_
  6
CONTINUOUS
 62
    4
 10
129.42620420183619
 20
24.904765989842559
 11
130.22694745556805
 21
24.104022736110579
  0
LINE
  8
_0-1_
  6
CONTINUOUS
 62
    7
 10
136.18781321793682
 20
22.460123784416538
 11
136.18781321793682
 21
25.38414742978631
  0
LINE
  8
_0-1_
  6
CONTINUOUS
 62
    7
 10
135.98781321793678
 20
22.502007653380389
 11
135.98781321793678
 21
25.342263560822431
  0
LINE
  8
_0-1_
  6
CONTINUOUS
 62
    7
 10
135.78781321793679
 20
22.5745272662937
 11
135.78781321793679
 21
25.26974394790912
  0
LINE
  8
_0-1_
  6
CONTINUOUS
 62
    7
 10
135.5878132179368
 20
22.683050026729944
 11
135.5878132179368
 21
25.161221187472904
  0
LINE
  8
_0-1_
  6
CONTINUOUS
 62
    7
 10
135.38781321793681
 20
22.838337696625132
 11
135.38781321793681
 21
25.005933517577716
  0
LINE
  8
_0-1_
  6
CONTINUOUS
 62
    7
 10
135.18781321793682
 20
23.065454367652194
 11
135.18781321793682
 21
24.778816846550654
  0
LINE
  8
_0-1_
  6
CONTINUOUS
 62
    7
 10
134.98781321793683
 20
23.460413199920708
 11
134.98781321793683
 21
24.383858014282197
  0
TEXT
  8
_0-1_
 62
    3
 10
196.77357420521184
 20
17.953370446315432
 40
6
 41
1
 50
0
  1
アドヴァン
  0
TEXT
  8
_0-1_
 62
    7
 10
172.27357420521162
 20
13.938380714661548
 40
3
 41
1
 50
0
  1
TEL 03-3475-0281　　FAX 03-3475-0429
  0
TEXT
  8
_0-1_
 62
    3
 10
173.27357420521184
 20
18.453370446315432
 40
5
 41
1
 50
0
  1
株式会社
  0
LINE
  8
_0-1_
  6
CONTINUOUS
 62
    2
 10
306.75121158683709
 20
19.338966595907266
 11
241.75121158683709
 21
19.338966595907266
  0
LINE
  8
_0-1_
  6
CONTINUOUS
 62
    2
 10
281.75121158683709
 20
19.338966595907266
 11
281.75121158683709
 21
10.338966596807268
  0
LINE
  8
_0-1_
  6
CONTINUOUS
 62
    2
 10
296.75121158683709
 20
19.338966595907266
 11
296.75121158683709
 21
10.338966596807268
  0
LINE
  8
_0-1_
  6
CONTINUOUS
 62
    2
 10
306.75121158683709
 20
16.338966595907266
 11
281.75121158683709
 21
16.338966595907266
  0
LINE
  8
ADD_LINE
  6
DOT
 62
    7
 10
289.25121158683709
 20
19.338966595907266
 11
289.25121158683709
 21
10.338966596807268
  0
TEXT
  8
_0-0_
 62
    4
 10
286.12621158683709
 20
16.588966595907266
 40
2.5
 41
1
 50
0
  1
SCALE
  0
TEXT
  8
_0-0_
 62
    4
 10
298.62621158683709
 20
16.588966595907266
 40
2.5
 41
1
 50
0
  1
DRAWN
  0
TEXT
  8
_0-0_
 62
    7
 10
298.37621158683709
 20
11.838966596357295
 40
3
 41
1
 50
0
  1
K・S
  0
LINE
  8
ADD_LINE
  6
DOT
 62
    7
 10
281.75121158683709
 20
17.838966595907266
 11
306.75121158683709
 21
17.838966595907266
  0
LINE
  8
ADD_LINE
  6
DOT
 62
    7
 10
281.75121158683709
 20
13.338966596357295
 11
306.75121158683709
 21
13.338966596357295
  0
LINE
  8
ADD_LINE
  6
DOT
 62
    7
 10
301.75121158683709
 20
19.338966595907266
 11
301.75121158683709
 21
10.338966596807268
  0
LINE
  8
ADD_LINE
  6
DOT
 62
    7
 10
306.75121158683709
 20
26.08896659523225
 11
241.75121158683709
 21
26.08896659523225
  0
LINE
  8
ADD_LINE
  6
DOT
 62
    7
 10
306.75121158683709
 20
23.838966595457237
 11
241.75121158683709
 21
23.838966595457237
  0
LINE
  8
ADD_LINE
  6
DOT
 62
    7
 10
306.75121158683709
 20
21.588966595682223
 11
241.75121158683709
 21
21.588966595682223
  0
LINE
  8
ADD_LINE
  6
DOT
 62
    7
 10
281.75121158683709
 20
12.588966596582281
 11
241.75121158683709
 21
12.588966596582281
  0
LINE
  8
ADD_LINE
  6
DOT
 62
    7
 10
281.75121158683709
 20
14.838966596357295
 11
241.75121158683709
 21
14.838966596357295
  0
LINE
  8
ADD_LINE
  6
DOT
 62
    7
 10
281.75121158683709
 20
17.088966596132252
 11
241.75121158683709
 21
17.088966596132252
  0
LINE
  8
ADD_LINE
  6
DOT
 62
    7
 10
242.75121158683709
 20
28.338966595007264
 11
242.75121158683709
 21
10.338966596807268
  0
LINE
  8
ADD_LINE
  6
DOT
 62
    7
 10
274.25121158683709
 20
28.338966595007207
 11
274.25121158683709
 21
19.338966595907266
  0
LINE
  8
_0-0_
  6
CONTINUOUS
 62
    7
 10
181.27102031307945
 20
200.85209324332678
 11
181.27102031307945
 21
175.97030501332682
  0
LINE
  8
_0-0_
  6
CONTINUOUS
 62
    7
 10
239.4401311430795
 20
200.85209324332678
 11
239.4401311430795
 21
175.97030501332682
  0
LINE
  8
_0-0_
  6
CONTINUOUS
 62
    7
 10
181.27102031307945
 20
135.71441522332682
 11
181.27102031307945
 21
133.3915598033268
  0
LINE
  8
_0-0_
  6
CONTINUOUS
 62
    7
 10
181.96002755307947
 20
133.3915598033268
 11
181.27102031307945
 21
133.3915598033268
  0
LINE
  8
_0-0_
  6
CONTINUOUS
 62
    7
 10
190.05061370307948
 20
135.71441522332682
 11
190.05061370307948
 21
133.3915598033268
  0
LINE
  8
_0-0_
  6
CONTINUOUS
 62
    7
 10
181.96002755307947
 20
133.3915598033268
 11
182.47185677307945
 21
132.8207778833268
  0
LINE
  8
_0-0_
  6
CONTINUOUS
 62
    7
 10
182.47185677307945
 20
132.8207778833268
 11
183.08204651307946
 21
132.32865350332679
  0
LINE
  8
_0-0_
  6
CONTINUOUS
 62
    7
 10
183.08204651307946
 20
132.32865350332679
 11
183.77105375307946
 21
131.95459355332682
  0
LINE
  8
_0-0_
  6
CONTINUOUS
 62
    7
 10
183.77105375307946
 20
131.95459355332682
 11
184.49946881307946
 21
131.69875892332681
  0
LINE
  8
_0-0_
  6
CONTINUOUS
 62
    7
 10
184.49946881307946
 20
131.69875892332681
 11
185.26713266307945
 21
131.56082969332681
  0
LINE
  8
_0-0_
  6
CONTINUOUS
 62
    7
 10
185.26713266307945
 20
131.56082969332681
 11
186.03479651307947
 21
131.56082969332681
  0
LINE
  8
_0-0_
  6
CONTINUOUS
 62
    7
 10
186.03479651307947
 20
131.56082969332681
 11
186.80262032307945
 21
131.69875892332681
  0
LINE
  8
_0-0_
  6
CONTINUOUS
 62
    7
 10
186.80262032307945
 20
131.69875892332681
 11
187.55058026307947
 21
131.95459355332682
  0
LINE
  8
_0-0_
  6
CONTINUOUS
 62
    7
 10
187.55058026307947
 20
131.95459355332682
 11
188.21988266307946
 21
132.32865350332679
  0
LINE
  8
_0-0_
  6
CONTINUOUS
 62
    7
 10
188.21988266307946
 20
132.32865350332679
 11
188.83007333307947
 21
132.8207778833268
  0
LINE
  8
_0-0_
  6
CONTINUOUS
 62
    7
 10
188.83007333307947
 20
132.8207778833268
 11
189.34190255307948
 21
133.3915598033268
  0
LINE
  8
_0-0_
  6
CONTINUOUS
 62
    7
 10
191.33010677307948
 20
133.3915598033268
 11
189.34190255307948
 21
133.3915598033268
  0
LINE
  8
_0-0_
  6
CONTINUOUS
 62
    7
 10
210.34580375307948
 20
133.3915598033268
 11
239.4401311430795
 21
133.3915598033268
  0
LINE
  8
_0-0_
  6
CONTINUOUS
 62
    7
 10
239.4401311430795
 20
135.71441522332682
 11
239.4401311430795
 21
133.3915598033268
  0
LINE
  8
_0-0_
  6
CONTINUOUS
 62
    7
 10
239.4401311430795
 20
135.71441522332682
 11
210.34580375307948
 21
135.71441522332682
  0
LINE
  8
_0-0_
  6
CONTINUOUS
 62
    7
 10
238.75128479307946
 20
133.3915598033268
 11
238.27870343307947
 21
132.8601866333268
  0
LINE
  8
_0-0_
  6
CONTINUOUS
 62
    7
 10
238.27870343307947
 20
132.8601866333268
 11
237.72762635307947
 21
132.40731011332682
  0
LINE
  8
_0-0_
  6
CONTINUOUS
 62
    7
 10
237.72762635307947
 20
132.40731011332682
 11
237.11759564307948
 21
132.0334101233268
  0
LINE
  8
_0-0_
  6
CONTINUOUS
 62
    7
 10
237.11759564307948
 20
132.0334101233268
 11
236.44829324307946
 21
131.7774155333268
  0
LINE
  8
_0-0_
  6
CONTINUOUS
 62
    7
 10
236.44829324307946
 20
131.7774155333268
 11
235.75912604307945
 21
131.60023751332679
  0
LINE
  8
_0-0_
  6
CONTINUOUS
 62
    7
 10
235.75912604307945
 20
131.60023751332679
 11
235.05041489307945
 21
131.56082969332681
  0
LINE
  8
_0-0_
  6
CONTINUOUS
 62
    7
 10
235.05041489307945
 20
131.56082969332681
 11
210.34580375307948
 21
131.56082969332681
  0
LINE
  8
_0-0_
  6
CONTINUOUS
 62
    7
 10
182.92457333307948
 20
132.44671793332679
 11
186.19227062307945
 21
135.71441522332682
  0
LINE
  8
_0-0_
  6
CONTINUOUS
 62
    7
 10
187.51117151307946
 20
135.71441522332682
 11
183.75134984307945
 21
131.95459355332682
  0
LINE
  8
_0-0_
  6
CONTINUOUS
 62
    7
 10
184.75530344307947
 20
131.63964626332682
 11
188.81052938307946
 21
135.71441522332682
  0
LINE
  8
_0-0_
  6
CONTINUOUS
 62
    7
 10
190.05061370307948
 20
135.6357586133268
 11
185.97584381307948
 21
131.56082969332681
  0
LINE
  8
_0-0_
  6
CONTINUOUS
 62
    7
 10
187.78687094307946
 20
132.07265891332679
 11
190.05061370307948
 21
134.31685772332679
  0
LINE
  8
_0-0_
  6
CONTINUOUS
 62
    7
 10
184.89307271307948
 20
135.71441522332682
 11
182.23572605307945
 21
133.0569086033268
  0
LINE
  8
_0-0_
  6
CONTINUOUS
 62
    7
 10
181.29072422307948
 20
133.3915598033268
 11
183.59387573307947
 21
135.71441522332682
  0
LINE
  8
_0-0_
  6
CONTINUOUS
 62
    7
 10
182.27497484307946
 20
135.71441522332682
 11
181.27102031307945
 21
134.69075678332678
  0
LINE
  8
_0-0_
  6
CONTINUOUS
 62
    7
 10
181.27102031307945
 20
133.45067246332681
 11
181.33013297307946
 21
133.3915598033268
  0
LINE
  8
_0-0_
  6
CONTINUOUS
 62
    7
 10
184.26317906307946
 20
131.7577116233268
 11
181.27102031307945
 21
134.76957428332679
  0
LINE
  8
_0-0_
  6
CONTINUOUS
 62
    7
 10
181.62537635307945
 20
135.71441522332682
 11
185.77896188307946
 21
131.56082969332681
  0
LINE
  8
_0-0_
  6
CONTINUOUS
 62
    7
 10
186.92068568307945
 20
131.71846283332681
 11
182.94427724307945
 21
135.71441522332682
  0
LINE
  8
_0-0_
  6
CONTINUOUS
 62
    7
 10
184.24347422307946
 20
135.71441522332682
 11
187.84582271307946
 21
132.1120667333268
  0
LINE
  8
_0-0_
  6
CONTINUOUS
 62
    7
 10
188.63335136307947
 20
132.62389595332678
 11
185.54267213307946
 21
135.71441522332682
  0
LINE
  8
_0-0_
  6
CONTINUOUS
 62
    7
 10
186.86157302307947
 20
135.71441522332682
 11
189.26324594307948
 21
133.2931992833268
  0
LINE
  8
_0-0_
  6
CONTINUOUS
 62
    7
 10
190.05061370307948
 20
133.82473241332679
 11
188.16077000307948
 21
135.71441522332682
  0
LINE
  8
_0-0_
  6
CONTINUOUS
 62
    7
 10
189.46012787307947
 20
135.71441522332682
 11
190.05061370307948
 21
135.14363423332679
  0
LINE
  8
_0-0_
  6
CONTINUOUS
 62
    7
 10
238.75128479307946
 20
133.3915598033268
 11
239.4401311430795
 21
133.3915598033268
  0
LINE
  8
_0-0_
  6
CONTINUOUS
 62
    7
 10
189.34190255307948
 20
133.3915598033268
 11
190.05061370307948
 21
133.3915598033268
  0
LINE
  8
_0-0_
  6
CONTINUOUS
 62
    7
 10
181.27102031307945
 20
135.71441522332682
 11
191.33010677307948
 21
135.71441522332682
  0
LINE
  8
_0-0_
  6
CONTINUOUS
 62
    7
 10
185.66089745307946
 20
131.56082969332681
 11
191.33010677307948
 21
131.56082969332681
  0
LINE
  8
_0-0_
  6
CONTINUOUS
 62
    7
 10
273.71170343307949
 20
135.71441522332682
 11
239.45999594307946
 21
135.71441522332682
  0
LINE
  8
_0-0_
  6
CONTINUOUS
 62
    7
 10
273.71170343307949
 20
176.6591513633268
 11
239.20400135307949
 21
176.6591513633268
  0
LINE
  8
_0-0_
  6
CONTINUOUS
 62
    7
 10
191.31040193307945
 20
162.0922832933268
 11
183.12145526307947
 21
162.0922832933268
  0
LINE
  8
_0-0_
  6
CONTINUOUS
 62
    7
 10
183.12145526307947
 20
162.0922832933268
 11
183.12145526307947
 21
166.69858631332679
  0
LINE
  8
_0-0_
  6
CONTINUOUS
 62
    7
 10
190.50333026307948
 20
162.0922832933268
 11
190.50333026307948
 21
166.69858631332679
  0
LINE
  8
_0-0_
  6
CONTINUOUS
 62
    7
 10
237.5898561530795
 20
166.69858631332679
 11
210.34580375307948
 21
166.69858631332679
  0
LINE
  8
_0-0_
  6
CONTINUOUS
 62
    7
 10
210.34580375307948
 20
162.0922832933268
 11
237.5898561530795
 21
162.0922832933268
  0
LINE
  8
_0-0_
  6
CONTINUOUS
 62
    7
 10
237.5898561530795
 20
162.0922832933268
 11
237.5898561530795
 21
166.69858631332679
  0
LINE
  8
_0-0_
  6
CONTINUOUS
 62
    7
 10
185.50342334307948
 20
162.0922832933268
 11
190.10972636307946
 21
166.69858631332679
  0
LINE
  8
_0-0_
  6
CONTINUOUS
 62
    7
 10
190.50333026307948
 20
164.47425137332681
 11
188.12152214307946
 21
162.0922832933268
  0
LINE
  8
_0-0_
  6
CONTINUOUS
 62
    7
 10
183.12145526307947
 20
162.30887006332679
 11
187.51117151307946
 21
166.69858631332679
  0
LINE
  8
_0-0_
  6
CONTINUOUS
 62
    7
 10
184.89307271307948
 20
166.69858631332679
 11
183.12145526307947
 21
164.92696793332681
  0
LINE
  8
_0-0_
  6
CONTINUOUS
 62
    7
 10
183.12145526307947
 20
163.90330949332679
 11
184.95218537307946
 21
162.0922832933268
  0
LINE
  8
_0-0_
  6
CONTINUOUS
 62
    7
 10
187.55058026307947
 20
162.0922832933268
 11
183.12145526307947
 21
166.5214082933268
  0
LINE
  8
_0-0_
  6
CONTINUOUS
 62
    7
 10
185.54267213307946
 20
166.69858631332679
 11
190.16867906307948
 21
162.0922832933268
  0
LINE
  8
_0-0_
  6
CONTINUOUS
 62
    7
 10
190.50333026307948
 20
164.35602605332681
 11
188.16077000307948
 21
166.69858631332679
  0
LINE
  8
_0-0_
  6
CONTINUOUS
 62
    7
 10
183.12145526307947
 20
166.69858631332679
 11
191.31040193307945
 21
166.69858631332679
  0
LINE
  8
_0-0_
  6
CONTINUOUS
 62
    7
 10
178.96802876307947
 20
222.56470559332681
 11
180.62142182307946
 21
226.65917939332678
  0
LINE
  8
_0-0_
  6
CONTINUOUS
 62
    7
 10
181.31042906307945
 20
227.22996131332684
 11
199.44039683307946
 21
230.41900199332679
  0
LINE
  8
_0-0_
  6
CONTINUOUS
 62
    7
 10
210.34580375307948
 20
230.41900199332679
 11
199.44039683307946
 21
230.41900199332679
  0
LINE
  8
_0-0_
  6
CONTINUOUS
 62
    7
 10
178.96802876307947
 20
222.56470559332681
 11
210.34580375307948
 21
222.56470559332681
  0
LINE
  8
_0-0_
  6
CONTINUOUS
 62
    7
 10
180.99548177307946
 20
225.2222131433268
 11
181.72389683307946
 21
224.88740105332681
  0
LINE
  8
_0-0_
  6
CONTINUOUS
 62
    7
 10
179.51910677307947
 20
222.56470559332681
 11
181.72389683307946
 21
224.88740105332681
  0
LINE
  8
_0-0_
  6
CONTINUOUS
 62
    7
 10
180.99548177307946
 20
226.22600678332685
 11
199.51905344307946
 21
229.4937040733268
  0
LINE
  8
_0-0_
  6
CONTINUOUS
 62
    7
 10
210.34580375307948
 20
229.4937040733268
 11
199.51905344307946
 21
229.4937040733268
  0
LINE
  8
_0-0_
  6
CONTINUOUS
 62
    7
 10
180.99548177307946
 20
226.22600678332685
 11
180.99548177307946
 21
225.2222131433268
  0
LINE
  8
_0-0_
  6
CONTINUOUS
 62
    7
 10
181.72389683307946
 20
224.88740105332681
 11
210.34580375307948
 21
224.88740105332681
  0
LINE
  8
_0-0_
  6
CONTINUOUS
 62
    7
 10
180.99548177307946
 20
225.2222131433268
 11
210.34580375307948
 21
225.2222131433268
  0
LINE
  8
_0-0_
  6
CONTINUOUS
 62
    7
 10
180.99548177307946
 20
226.22600678332685
 11
210.34580375307948
 21
226.22600678332685
  0
LINE
  8
_0-0_
  6
CONTINUOUS
 62
    7
 10
181.31042906307945
 20
227.22996131332684
 11
181.01518568307947
 21
227.11189595332681
  0
LINE
  8
_0-0_
  6
CONTINUOUS
 62
    7
 10
181.01518568307947
 20
227.11189595332681
 11
180.77889500307947
 21
226.91501402332682
  0
LINE
  8
_0-0_
  6
CONTINUOUS
 62
    7
 10
180.77889500307947
 20
226.91501402332682
 11
180.62142182307946
 21
226.65917939332678
  0
LINE
  8
_0-0_
  6
CONTINUOUS
 62
    7
 10
241.74344261307948
 20
222.56470559332681
 11
210.34580375307948
 21
222.56470559332681
  0
LINE
  8
_0-0_
  6
CONTINUOUS
 62
    7
 10
241.74344261307948
 20
222.56470559332681
 11
240.08988959307948
 21
226.65917939332678
  0
LINE
  8
_0-0_
  6
CONTINUOUS
 62
    7
 10
239.40104324307947
 20
227.22996131332684
 11
239.69612573307947
 21
227.11189595332681
  0
LINE
  8
_0-0_
  6
CONTINUOUS
 62
    7
 10
239.69612573307947
 20
227.11189595332681
 11
239.93225645307948
 21
226.91501402332682
  0
LINE
  8
_0-0_
  6
CONTINUOUS
 62
    7
 10
239.93225645307948
 20
226.91501402332682
 11
240.08988959307948
 21
226.65917939332678
  0
LINE
  8
_0-0_
  6
CONTINUOUS
 62
    7
 10
239.40104324307947
 20
227.22996131332684
 11
221.27091458307947
 21
230.41900199332679
  0
LINE
  8
_0-0_
  6
CONTINUOUS
 62
    7
 10
210.34580375307948
 20
230.41900199332679
 11
221.27091458307947
 21
230.41900199332679
  0
LINE
  8
_0-0_
  6
CONTINUOUS
 62
    7
 10
240.08988959307948
 20
226.65917939332678
 11
210.34580375307948
 21
226.65917939332678
  0
LINE
  8
_0-0_
  6
CONTINUOUS
 62
    7
 10
179.34192875307946
 20
222.56470559332681
 11
181.68448901307946
 21
224.90726585332683
  0
LINE
  8
_0-0_
  6
CONTINUOUS
 62
    7
 10
183.43640255307946
 20
226.65917939332678
 11
184.57812635307948
 21
227.8009031933268
  0
LINE
  8
_0-0_
  6
CONTINUOUS
 62
    7
 10
186.96009443307946
 20
228.2142110033268
 11
185.81837063307947
 21
227.07248813332683
  0
LINE
  8
_0-0_
  6
CONTINUOUS
 62
    7
 10
188.20017875307946
 20
227.50565981332682
 11
189.32219771307948
 21
228.62767970332681
  0
LINE
  8
_0-0_
  6
CONTINUOUS
 62
    7
 10
191.70416672307948
 20
229.06069235332683
 11
190.56244292307946
 21
227.91896855332681
  0
LINE
  8
_0-0_
  6
CONTINUOUS
 62
    7
 10
192.94425104307948
 20
228.3322763633268
 11
194.08597484307947
 21
229.47416012332684
  0
LINE
  8
_0-0_
  6
CONTINUOUS
 62
    7
 10
196.46794292307948
 20
229.88746793332683
 11
195.32621912307945
 21
228.76544897332678
  0
LINE
  8
_0-0_
  6
CONTINUOUS
 62
    7
 10
197.70802724307947
 20
229.17875678332678
 11
198.84975104307946
 21
230.32064054332682
  0
LINE
  8
_0-0_
  6
CONTINUOUS
 62
    7
 10
200.89706792307948
 20
230.41900199332679
 11
199.99147484307946
 21
229.4937040733268
  0
LINE
  8
_0-0_
  6
CONTINUOUS
 62
    7
 10
201.94027031307948
 20
229.4937040733268
 11
202.86556823307947
 21
230.41900199332679
  0
LINE
  8
_0-0_
  6
CONTINUOUS
 62
    7
 10
204.81436370307947
 20
230.41900199332679
 11
203.90877062307945
 21
229.4937040733268
  0
LINE
  8
_0-0_
  6
CONTINUOUS
 62
    7
 10
205.85772605307946
 20
229.4937040733268
 11
206.78286401307946
 21
230.41900199332679
  0
LINE
  8
_0-0_
  6
CONTINUOUS
 62
    7
 10
208.73165948307945
 20
230.41900199332679
 11
207.82622636307948
 21
229.4937040733268
  0
LINE
  8
_0-0_
  6
CONTINUOUS
 62
    7
 10
209.77502183307948
 20
229.4937040733268
 11
210.34580375307948
 21
230.06464595332682
  0
LINE
  8
_0-0_
  6
CONTINUOUS
 62
    7
 10
182.19631823307947
 20
227.38743449332679
 11
181.05459443307947
 21
226.24571162332683
  0
LINE
  8
_0-0_
  6
CONTINUOUS
 62
    7
 10
180.99548177307946
 20
226.1670550133268
 11
180.03093599307945
 21
225.20250923332679
  0
LINE
  8
_0-0_
  6
CONTINUOUS
 62
    7
 10
260.89690979307949
 20
176.67901616332682
 11
239.14504865307947
 21
176.67901616332682
  0
LINE
  8
_0-0_
  6
CONTINUOUS
 62
    7
 10
260.89690979307949
 20
186.6985339133268
 11
238.98741458307947
 21
186.6985339133268
  0
LINE
  8
_0-0_
  6
CONTINUOUS
 62
    7
 10
201.58607516307947
 20
157.87974506332682
 11
201.58607516307947
 21
171.1868239733268
  0
LINE
  8
_0-0_
  6
CONTINUOUS
 62
    7
 10
208.37730344307946
 20
142.09233662332682
 11
210.34580375307948
 21
142.09233662332682
  0
LINE
  8
_0-0_
  6
CONTINUOUS
 62
    7
 10
207.45216641307945
 20
143.01763361332678
 11
207.45216641307945
 21
148.0963571033268
  0
LINE
  8
_0-0_
  6
CONTINUOUS
 62
    7
 10
207.45216641307945
 20
143.01763361332678
 11
208.37730344307946
 21
142.09233662332682
  0
LINE
  8
_0-0_
  6
CONTINUOUS
 62
    7
 10
202.78675073307949
 20
148.0963571033268
 11
202.78675073307949
 21
157.87974506332682
  0
LINE
  8
_0-0_
  6
CONTINUOUS
 62
    7
 10
201.58607516307947
 20
157.87974506332682
 11
210.34580375307948
 21
157.87974506332682
  0
LINE
  8
_0-0_
  6
CONTINUOUS
 62
    7
 10
201.42860105307946
 20
182.72228543332679
 11
210.34580375307948
 21
182.72228543332679
  0
LINE
  8
_0-0_
  6
CONTINUOUS
 62
    7
 10
200.77900256307947
 20
171.1868239733268
 11
200.77900256307947
 21
174.41511251332682
  0
LINE
  8
_0-0_
  6
CONTINUOUS
 62
    7
 10
200.77900256307947
 20
171.1868239733268
 11
210.34580375307948
 21
171.1868239733268
  0
LINE
  8
_0-0_
  6
CONTINUOUS
 62
    7
 10
206.74345526307948
 20
188.72614595332681
 11
210.32625980307947
 21
188.72614595332681
  0
LINE
  8
_0-0_
  6
CONTINUOUS
 62
    7
 10
205.83802214307946
 20
182.72228543332679
 11
205.83802214307946
 21
187.8010089233268
  0
LINE
  8
_0-0_
  6
CONTINUOUS
 62
    7
 10
208.37730344307946
 20
142.09233662332682
 11
208.37730344307946
 21
148.0963571033268
  0
LINE
  8
_0-0_
  6
CONTINUOUS
 62
    7
 10
201.42860105307946
 20
171.1868239733268
 11
201.42860105307946
 21
182.72228543332679
  0
LINE
  8
_0-0_
  6
CONTINUOUS
 62
    7
 10
202.78675073307949
 20
148.0963571033268
 11
210.34580375307948
 21
148.0963571033268
  0
LINE
  8
_0-0_
  6
CONTINUOUS
 62
    7
 10
205.83802214307946
 20
187.8010089233268
 11
205.89697484307948
 21
188.15520407332679
  0
LINE
  8
_0-0_
  6
CONTINUOUS
 62
    7
 10
205.89697484307948
 20
188.15520407332679
 11
206.09385677307947
 21
188.45060741332679
  0
LINE
  8
_0-0_
  6
CONTINUOUS
 62
    7
 10
206.09385677307947
 20
188.45060741332679
 11
206.38909922307946
 21
188.64732938332679
  0
LINE
  8
_0-0_
  6
CONTINUOUS
 62
    7
 10
206.38909922307946
 20
188.64732938332679
 11
206.74345526307948
 21
188.72614595332681
  0
LINE
  8
_0-0_
  6
CONTINUOUS
 62
    7
 10
199.26321881307948
 20
182.34822548332681
 11
199.26321881307948
 21
178.5686989733268
  0
LINE
  8
_0-0_
  6
CONTINUOUS
 62
    7
 10
199.71593537307947
 20
177.64340105332678
 11
199.71593537307947
 21
174.4939300133268
  0
LINE
  8
_0-0_
  6
CONTINUOUS
 62
    7
 10
197.45219261307946
 20
177.64340105332678
 11
199.71593537307947
 21
177.64340105332678
  0
LINE
  8
_0-0_
  6
CONTINUOUS
 62
    7
 10
196.99947605307946
 20
182.34822548332681
 11
199.26321881307948
 21
182.34822548332681
  0
LINE
  8
_0-0_
  6
CONTINUOUS
 62
    7
 10
196.99947605307946
 20
182.34822548332681
 11
196.72377755307946
 21
182.6237640233268
  0
LINE
  8
_0-0_
  6
CONTINUOUS
 62
    7
 10
197.45219261307946
 20
177.64340105332678
 11
197.17665407307948
 21
177.91910048332679
  0
LINE
  8
_0-0_
  6
CONTINUOUS
 62
    7
 10
181.70419292307946
 20
186.6985339133268
 11
195.97581761307947
 21
186.6985339133268
  0
LINE
  8
_0-0_
  6
CONTINUOUS
 62
    7
 10
196.72377755307946
 20
185.95057397332681
 11
196.72377755307946
 21
182.6237640233268
  0
LINE
  8
_0-0_
  6
CONTINUOUS
 62
    7
 10
197.17665407307948
 20
178.29316043332682
 11
197.17665407307948
 21
177.91910048332679
  0
LINE
  8
_0-0_
  6
CONTINUOUS
 62
    7
 10
199.26321881307948
 20
178.5686989733268
 11
199.14515438307944
 21
178.5686989733268
  0
LINE
  8
_0-0_
  6
CONTINUOUS
 62
    7
 10
199.14515438307944
 20
178.5686989733268
 11
197.17665407307948
 21
178.29316043332682
  0
LINE
  8
_0-0_
  6
CONTINUOUS
 62
    7
 10
201.42860105307946
 20
187.3285884533268
 11
201.42860105307946
 21
175.14352850332682
  0
LINE
  8
_0-0_
  6
CONTINUOUS
 62
    7
 10
201.42860105307946
 20
175.14352850332682
 11
200.50330406307947
 21
174.21839054332679
  0
LINE
  8
_0-0_
  6
CONTINUOUS
 62
    7
 10
200.77900256307947
 20
187.15141043332682
 11
200.77900256307947
 21
174.4939300133268
  0
LINE
  8
_0-0_
  6
CONTINUOUS
 62
    7
 10
205.83802214307946
 20
187.15141043332682
 11
200.77900256307947
 21
187.15141043332682
  0
LINE
  8
_0-0_
  6
CONTINUOUS
 62
    7
 10
199.99147484307946
 20
174.21839054332679
 11
200.77900256307947
 21
174.21839054332679
  0
LINE
  8
_0-0_
  6
CONTINUOUS
 62
    7
 10
199.99147484307946
 20
174.21839054332679
 11
199.71593537307947
 21
174.4939300133268
  0
LINE
  8
_0-0_
  6
CONTINUOUS
 62
    7
 10
210.32625980307947
 20
188.72614595332681
 11
202.80645557307946
 21
188.72614595332681
  0
LINE
  8
_0-0_
  6
CONTINUOUS
 62
    7
 10
201.42860105307946
 20
187.3285884533268
 11
201.48755375307945
 21
187.7616001733268
  0
LINE
  8
_0-0_
  6
CONTINUOUS
 62
    7
 10
201.48755375307945
 20
187.7616001733268
 11
201.68443568307947
 21
188.15520407332679
  0
LINE
  8
_0-0_
  6
CONTINUOUS
 62
    7
 10
201.68443568307947
 20
188.15520407332679
 11
201.99938297307946
 21
188.45060741332679
  0
LINE
  8
_0-0_
  6
CONTINUOUS
 62
    7
 10
201.99938297307946
 20
188.45060741332679
 11
202.37344292307947
 21
188.64732938332679
  0
LINE
  8
_0-0_
  6
CONTINUOUS
 62
    7
 10
202.37344292307947
 20
188.64732938332679
 11
202.80645557307946
 21
188.72614595332681
  0
LINE
  8
_0-0_
  6
CONTINUOUS
 62
    7
 10
181.36954172307946
 20
186.9545285033268
 11
181.29072422307948
 21
187.56471824332681
  0
LINE
  8
_0-0_
  6
CONTINUOUS
 62
    7
 10
181.36954172307946
 20
186.9545285033268
 11
181.70419292307946
 21
186.6985339133268
  0
LINE
  8
_0-0_
  6
CONTINUOUS
 62
    7
 10
195.97581761307947
 20
186.6985339133268
 11
196.25135615307946
 21
186.63958121332681
  0
LINE
  8
_0-0_
  6
CONTINUOUS
 62
    7
 10
196.25135615307946
 20
186.63958121332681
 11
196.50735167307948
 21
186.4821071033268
  0
LINE
  8
_0-0_
  6
CONTINUOUS
 62
    7
 10
196.50735167307948
 20
186.4821071033268
 11
196.66482485307947
 21
186.2261125133268
  0
LINE
  8
_0-0_
  6
CONTINUOUS
 62
    7
 10
196.66482485307947
 20
186.2261125133268
 11
196.72377755307946
 21
185.95057397332681
  0
LINE
  8
_0-0_
  6
CONTINUOUS
 62
    7
 10
220.95596729307945
 20
177.64340105332678
 11
220.95596729307945
 21
176.67901616332682
  0
LINE
  8
_0-0_
  6
CONTINUOUS
 62
    7
 10
223.21987094307948
 20
177.64340105332678
 11
210.32625980307947
 21
177.64340105332678
  0
LINE
  8
_0-0_
  6
CONTINUOUS
 62
    7
 10
223.21987094307948
 20
177.64340105332678
 11
223.49540948307947
 21
177.91910048332679
  0
LINE
  8
_0-0_
  6
CONTINUOUS
 62
    7
 10
223.49540948307947
 20
178.29316043332682
 11
223.49540948307947
 21
177.91910048332679
  0
LINE
  8
_0-0_
  6
CONTINUOUS
 62
    7
 10
221.52690917307947
 20
178.5686989733268
 11
223.49540948307947
 21
178.29316043332682
  0
LINE
  8
_0-0_
  6
CONTINUOUS
 62
    7
 10
221.40868385307948
 20
178.5686989733268
 11
221.52690917307947
 21
178.5686989733268
  0
LINE
  8
_0-0_
  6
CONTINUOUS
 62
    7
 10
223.67258750307946
 20
182.34822548332681
 11
210.32625980307947
 21
182.34822548332681
  0
LINE
  8
_0-0_
  6
CONTINUOUS
 62
    7
 10
223.67258750307946
 20
182.34822548332681
 11
223.94812604307947
 21
182.6237640233268
  0
LINE
  8
_0-0_
  6
CONTINUOUS
 62
    7
 10
223.94812604307947
 20
185.95057397332681
 11
223.94812604307947
 21
182.6237640233268
  0
LINE
  8
_0-0_
  6
CONTINUOUS
 62
    7
 10
224.69624594307948
 20
186.6985339133268
 11
224.40084260307947
 21
186.63958121332681
  0
LINE
  8
_0-0_
  6
CONTINUOUS
 62
    7
 10
224.40084260307947
 20
186.63958121332681
 11
224.16471188307946
 21
186.4821071033268
  0
LINE
  8
_0-0_
  6
CONTINUOUS
 62
    7
 10
224.16471188307946
 20
186.4821071033268
 11
224.00707874307946
 21
186.2261125133268
  0
LINE
  8
_0-0_
  6
CONTINUOUS
 62
    7
 10
224.00707874307946
 20
186.2261125133268
 11
223.94812604307947
 21
185.95057397332681
  0
LINE
  8
_0-0_
  6
CONTINUOUS
 62
    7
 10
238.94800583307949
 20
186.6985339133268
 11
210.32625980307947
 21
186.6985339133268
  0
LINE
  8
_0-0_
  6
CONTINUOUS
 62
    7
 10
239.30236187307946
 20
186.9545285033268
 11
238.94800583307949
 21
186.6985339133268
  0
LINE
  8
_0-0_
  6
CONTINUOUS
 62
    7
 10
239.30236187307946
 20
186.9545285033268
 11
239.38117844307948
 21
187.60412699332682
  0
LINE
  8
_0-0_
  6
CONTINUOUS
 62
    7
 10
239.10563990307949
 20
187.87966553332677
 11
233.35745312307949
 21
188.54896793332679
  0
LINE
  8
_0-0_
  6
CONTINUOUS
 62
    7
 10
233.35745312307949
 20
188.54896793332679
 11
227.60958719307948
 21
189.0607971533268
  0
LINE
  8
_0-0_
  6
CONTINUOUS
 62
    7
 10
227.60958719307948
 20
189.0607971533268
 11
221.86172126307946
 21
189.4151531933268
  0
LINE
  8
_0-0_
  6
CONTINUOUS
 62
    7
 10
221.86172126307946
 20
189.4151531933268
 11
216.09399053307948
 21
189.65128391332678
  0
LINE
  8
_0-0_
  6
CONTINUOUS
 62
    7
 10
216.09399053307948
 20
189.65128391332678
 11
210.30639500307947
 21
189.71039657332682
  0
LINE
  8
_0-0_
  6
CONTINUOUS
 62
    7
 10
210.30639500307947
 20
189.71039657332682
 11
204.53882516307948
 21
189.6315790733268
  0
LINE
  8
_0-0_
  6
CONTINUOUS
 62
    7
 10
204.53882516307948
 20
189.6315790733268
 11
198.77109443307947
 21
189.4151531933268
  0
LINE
  8
_0-0_
  6
CONTINUOUS
 62
    7
 10
198.77109443307947
 20
189.4151531933268
 11
193.00336370307946
 21
189.0607971533268
  0
LINE
  8
_0-0_
  6
CONTINUOUS
 62
    7
 10
193.00336370307946
 20
189.0607971533268
 11
187.25533688307948
 21
188.54896793332679
  0
LINE
  8
_0-0_
  6
CONTINUOUS
 62
    7
 10
187.25533688307948
 20
188.54896793332679
 11
181.52701490307948
 21
187.87966553332677
  0
LINE
  8
_0-0_
  6
CONTINUOUS
 62
    7
 10
181.29072422307948
 20
187.56471824332681
 11
181.52701490307948
 21
187.87966553332677
  0
LINE
  8
_0-0_
  6
CONTINUOUS
 62
    7
 10
239.10563990307949
 20
187.87966553332677
 11
239.38117844307948
 21
187.60412699332682
  0
LINE
  8
_0-0_
  6
CONTINUOUS
 62
    7
 10
181.42865438307945
 20
187.7616001733268
 11
182.49156068307946
 21
186.6985339133268
  0
LINE
  8
_0-0_
  6
CONTINUOUS
 62
    7
 10
185.10965948307947
 20
186.6985339133268
 11
183.65298839307945
 21
188.1356601233268
  0
LINE
  8
_0-0_
  6
CONTINUOUS
 62
    7
 10
185.99554865307945
 20
188.41119866332681
 11
187.70805344307945
 21
186.6985339133268
  0
LINE
  8
_0-0_
  6
CONTINUOUS
 62
    7
 10
199.71593537307947
 20
174.6906510533268
 11
200.16865193307947
 21
174.21839054332679
  0
LINE
  8
_0-0_
  6
CONTINUOUS
 62
    7
 10
201.42860105307946
 20
175.59624506332679
 11
199.71593537307947
 21
177.2892059033268
  0
LINE
  8
_0-0_
  6
CONTINUOUS
 62
    7
 10
199.38128417307948
 20
177.64340105332678
 11
198.53480375307947
 21
178.4703384533268
  0
LINE
  8
_0-0_
  6
CONTINUOUS
 62
    7
 10
190.32615224307946
 20
186.6985339133268
 11
188.35765193307947
 21
188.64732938332679
  0
LINE
  8
_0-0_
  6
CONTINUOUS
 62
    7
 10
190.75932485307945
 20
188.86391522332679
 11
192.94425104307948
 21
186.6985339133268
  0
LINE
  8
_0-0_
  6
CONTINUOUS
 62
    7
 10
196.72377755307946
 20
182.91900740332682
 11
197.27501459307945
 21
182.34822548332681
  0
LINE
  8
_0-0_
  6
CONTINUOUS
 62
    7
 10
199.26321881307948
 20
180.37972517332679
 11
201.42860105307946
 21
178.1946390233268
  0
LINE
  8
_0-0_
  6
CONTINUOUS
 62
    7
 10
201.42860105307946
 20
180.81273782332681
 11
196.72377755307946
 21
185.5174013633268
  0
LINE
  8
_0-0_
  6
CONTINUOUS
 62
    7
 10
195.54264500307949
 20
186.6985339133268
 11
193.18054172307944
 21
189.0607971533268
  0
LINE
  8
_0-0_
  6
CONTINUOUS
 62
    7
 10
195.60175766307947
 20
189.23797517332679
 11
201.42860105307946
 21
183.4308366233268
  0
LINE
  8
_0-0_
  6
CONTINUOUS
 62
    7
 10
201.42860105307946
 20
186.0293905433268
 11
198.08208719307947
 21
189.37574444332679
  0
LINE
  8
_0-0_
  6
CONTINUOUS
 62
    7
 10
200.56241672307945
 20
189.5135137133268
 11
201.80250104307947
 21
188.27342939332681
  0
LINE
  8
_0-0_
  6
CONTINUOUS
 62
    7
 10
203.96788328307946
 20
188.72614595332681
 11
203.08215407307947
 21
189.59233121332679
  0
LINE
  8
_0-0_
  6
CONTINUOUS
 62
    7
 10
205.62143537307946
 20
189.67098782332678
 11
206.56627724307947
 21
188.72614595332681
  0
LINE
  8
_0-0_
  6
CONTINUOUS
 62
    7
 10
209.18437604307948
 20
188.72614595332681
 11
208.20012635307947
 21
189.71039657332682
  0
LINE
  8
_0-0_
  6
CONTINUOUS
 62
    7
 10
239.38117844307948
 20
187.60412699332682
 11
210.32625980307947
 21
187.60412699332682
  0
LINE
  8
_0-0_
  6
CONTINUOUS
 62
    7
 10
239.30236187307946
 20
186.9545285033268
 11
210.32625980307947
 21
186.9545285033268
  0
LINE
  8
_0-0_
  6
CONTINUOUS
 62
    7
 10
223.02282812307948
 20
185.95057397332681
 11
210.32625980307947
 21
185.95057397332681
  0
LINE
  8
_0-0_
  6
CONTINUOUS
 62
    7
 10
223.94812604307947
 20
182.6237640233268
 11
210.32625980307947
 21
182.6237640233268
  0
LINE
  8
_0-0_
  6
CONTINUOUS
 62
    7
 10
223.49540948307947
 20
177.91910048332679
 11
210.32625980307947
 21
177.91910048332679
  0
LINE
  8
_0-0_
  6
CONTINUOUS
 62
    7
 10
221.40868385307948
 20
178.5686989733268
 11
210.32625980307947
 21
178.5686989733268
  0
LINE
  8
_0-0_
  6
CONTINUOUS
 62
    7
 10
223.94812604307947
 20
182.34822548332681
 11
210.32625980307947
 21
182.34822548332681
  0
LINE
  8
_0-0_
  6
CONTINUOUS
 62
    7
 10
223.94812604307947
 20
178.64751554332679
 11
210.32625980307947
 21
178.64751554332679
  0
LINE
  8
_0-0_
  6
CONTINUOUS
 62
    7
 10
227.51122667307948
 20
180.77332907332681
 11
228.10171250307948
 21
179.51354084332681
  0
LINE
  8
_0-0_
  6
CONTINUOUS
 62
    7
 10
223.94812604307947
 20
179.04111944332681
 11
223.94812604307947
 21
178.64751554332679
  0
LINE
  8
_0-0_
  6
CONTINUOUS
 62
    7
 10
227.51122667307948
 20
180.77332907332681
 11
223.94812604307947
 21
181.40338361332681
  0
LINE
  8
_0-0_
  6
CONTINUOUS
 62
    7
 10
223.94812604307947
 20
182.34822548332681
 11
223.94812604307947
 21
181.40338361332681
  0
LINE
  8
_0-0_
  6
CONTINUOUS
 62
    7
 10
196.72377755307946
 20
178.64751554332679
 11
199.26321881307948
 21
178.64751554332679
  0
LINE
  8
_0-0_
  6
CONTINUOUS
 62
    7
 10
196.72377755307946
 20
182.34822548332681
 11
199.26321881307948
 21
182.34822548332681
  0
LINE
  8
_0-0_
  6
CONTINUOUS
 62
    7
 10
197.64907454307948
 20
180.77332907332681
 11
198.55450766307945
 21
180.77332907332681
  0
LINE
  8
_0-0_
  6
CONTINUOUS
 62
    7
 10
197.64907454307948
 20
180.77332907332681
 11
197.64907454307948
 21
178.64751554332679
  0
LINE
  8
_0-0_
  6
CONTINUOUS
 62
    7
 10
198.55450766307945
 20
180.77332907332681
 11
198.55450766307945
 21
178.64751554332679
  0
LINE
  8
_0-0_
  6
CONTINUOUS
 62
    7
 10
196.72377755307946
 20
180.04507397332679
 11
196.72377755307946
 21
178.64751554332679
  0
LINE
  8
_0-0_
  6
CONTINUOUS
 62
    7
 10
193.16083688307947
 20
180.77332907332681
 11
196.72377755307946
 21
181.40338361332681
  0
LINE
  8
_0-0_
  6
CONTINUOUS
 62
    7
 10
196.72377755307946
 20
182.34822548332681
 11
196.72377755307946
 21
181.40338361332681
  0
LINE
  8
_0-0_
  6
CONTINUOUS
 62
    7
 10
227.64899594307946
 20
179.04111944332681
 11
227.88512573307946
 21
179.10023210332679
  0
LINE
  8
_0-0_
  6
CONTINUOUS
 62
    7
 10
227.88512573307946
 20
179.10023210332679
 11
228.04275980307946
 21
179.2774101233268
  0
LINE
  8
_0-0_
  6
CONTINUOUS
 62
    7
 10
228.04275980307946
 20
179.2774101233268
 11
228.10171250307948
 21
179.51354084332681
  0
LINE
  8
_0-0_
  6
CONTINUOUS
 62
    7
 10
193.16083688307947
 20
180.77332907332681
 11
192.57035105307946
 21
179.51354084332681
  0
LINE
  8
_0-0_
  6
CONTINUOUS
 62
    7
 10
193.59384953307946
 20
180.04507397332679
 11
196.72377755307946
 21
180.04507397332679
  0
LINE
  8
_0-0_
  6
CONTINUOUS
 62
    7
 10
193.47578417307946
 20
179.41517939332681
 11
193.37742365307946
 21
179.21829746332679
  0
LINE
  8
_0-0_
  6
CONTINUOUS
 62
    7
 10
193.37742365307946
 20
179.21829746332679
 11
193.20024563307948
 21
179.08052819332681
  0
LINE
  8
_0-0_
  6
CONTINUOUS
 62
    7
 10
193.20024563307948
 20
179.08052819332681
 11
192.98365979307948
 21
179.04111944332681
  0
LINE
  8
_0-0_
  6
CONTINUOUS
 62
    7
 10
192.98365979307948
 20
179.04111944332681
 11
192.76707302307946
 21
179.1197760533268
  0
LINE
  8
_0-0_
  6
CONTINUOUS
 62
    7
 10
192.76707302307946
 20
179.1197760533268
 11
192.60959984307948
 21
179.2774101233268
  0
LINE
  8
_0-0_
  6
CONTINUOUS
 62
    7
 10
192.60959984307948
 20
179.2774101233268
 11
192.57035105307946
 21
179.51354084332681
  0
LINE
  8
_0-0_
  6
CONTINUOUS
 62
    7
 10
193.47578417307946
 20
179.41517939332681
 11
193.59384953307946
 21
180.04507397332679
  0
LINE
  8
_0-0_
  6
CONTINUOUS
 62
    7
 10
227.64899594307946
 20
179.04111944332681
 11
210.32625980307947
 21
179.04111944332681
  0
LINE
  8
_0-0_
  6
CONTINUOUS
 62
    7
 10
193.02306761307946
 20
179.04111944332681
 11
196.72377755307946
 21
179.04111944332681
  0
LINE
  8
_0-0_
  6
CONTINUOUS
 62
    7
 10
223.94812604307947
 20
181.40338361332681
 11
210.32625980307947
 21
181.40338361332681
  0
LINE
  8
_0-0_
  6
CONTINUOUS
 62
    7
 10
227.51122667307948
 20
180.77332907332681
 11
210.32625980307947
 21
180.77332907332681
  0
LINE
  8
_0-0_
  6
CONTINUOUS
 62
    7
 10
228.10171250307948
 20
179.51354084332681
 11
210.32625980307947
 21
179.51354084332681
  0
LINE
  8
_0-0_
  6
CONTINUOUS
 62
    7
 10
193.02306761307946
 20
179.04111944332681
 11
193.49548901307946
 21
179.51354084332681
  0
LINE
  8
_0-0_
  6
CONTINUOUS
 62
    7
 10
194.02702214307948
 20
180.04507397332679
 11
195.10963328307946
 21
181.12768511332681
  0
LINE
  8
_0-0_
  6
CONTINUOUS
 62
    7
 10
196.97977214307946
 20
182.34822548332681
 11
196.72377755307946
 21
182.0923908533268
  0
LINE
  8
_0-0_
  6
CONTINUOUS
 62
    7
 10
195.89700104307946
 20
181.26545438332678
 11
194.67662063307947
 21
180.04507397332679
  0
LINE
  8
_0-0_
  6
CONTINUOUS
 62
    7
 10
195.32621912307945
 20
180.04507397332679
 11
196.68452876307947
 21
181.40338361332681
  0
LINE
  8
_0-0_
  6
CONTINUOUS
 62
    7
 10
196.72377755307946
 20
181.4426324033268
 11
197.62937063307947
 21
182.34822548332681
  0
LINE
  8
_0-0_
  6
CONTINUOUS
 62
    7
 10
198.27896912307946
 20
182.34822548332681
 11
195.97581761307947
 21
180.04507397332679
  0
LINE
  8
_0-0_
  6
CONTINUOUS
 62
    7
 10
196.62541610307946
 20
180.04507397332679
 11
198.94827245307948
 21
182.34822548332681
  0
LINE
  8
_0-0_
  6
CONTINUOUS
 62
    7
 10
199.26321881307948
 20
182.01357428332682
 11
198.02297453307946
 21
180.77332907332681
  0
LINE
  8
_0-0_
  6
CONTINUOUS
 62
    7
 10
197.64907454307948
 20
180.39943001332679
 11
196.72377755307946
 21
179.4741320933268
  0
LINE
  8
_0-0_
  6
CONTINUOUS
 62
    7
 10
196.72377755307946
 20
178.82453360332681
 11
197.64907454307948
 21
179.74983059332681
  0
LINE
  8
_0-0_
  6
CONTINUOUS
 62
    7
 10
198.55450766307945
 20
180.67496855332678
 11
199.26321881307948
 21
181.3639757933268
  0
LINE
  8
_0-0_
  6
CONTINUOUS
 62
    7
 10
199.26321881307948
 20
180.71437637332679
 11
198.55450766307945
 21
180.02537006332682
  0
LINE
  8
_0-0_
  6
CONTINUOUS
 62
    7
 10
197.64907454307948
 20
179.10023210332679
 11
197.19619802307946
 21
178.64751554332679
  0
LINE
  8
_0-0_
  6
CONTINUOUS
 62
    7
 10
198.55450766307945
 20
179.3560667333268
 11
199.26321881307948
 21
180.0647778833268
  0
LINE
  8
_0-0_
  6
CONTINUOUS
 62
    7
 10
199.26321881307948
 20
179.39547548332681
 11
198.55450766307945
 21
178.70646824332678
  0
LINE
  8
_0-0_
  6
CONTINUOUS
 62
    7
 10
199.16469833307946
 20
178.64751554332679
 11
199.26321881307948
 21
178.74587699332682
  0
LINE
  8
_0-0_
  6
CONTINUOUS
 62
    7
 10
194.30256068307946
 20
180.9899158433268
 11
192.60959984307948
 21
179.29695407332682
  0
LINE
  8
_0-0_
  6
CONTINUOUS
 62
    7
 10
192.90500225307946
 20
180.22225199332681
 11
193.51519292307947
 21
180.85214657332679
  0
LINE
  8
_0-0_
  6
CONTINUOUS
 62
    7
 10
192.66871250307946
 20
179.74983059332681
 11
193.29860615307948
 21
179.1197760533268
  0
LINE
  8
_0-0_
  6
CONTINUOUS
 62
    7
 10
193.49548901307946
 20
179.57265350332679
 11
192.88529834307946
 21
180.1828432433268
  0
LINE
  8
_0-0_
  6
CONTINUOUS
 62
    7
 10
193.08202031307945
 20
180.6355598033268
 11
193.69237094307948
 21
180.04507397332679
  0
LINE
  8
_0-0_
  6
CONTINUOUS
 62
    7
 10
194.34196943307947
 20
180.04507397332679
 11
193.53489683307947
 21
180.85214657332679
  0
LINE
  8
_0-0_
  6
CONTINUOUS
 62
    7
 10
194.08597484307947
 20
180.95050709332679
 11
194.99156792307946
 21
180.04507397332679
  0
LINE
  8
_0-0_
  6
CONTINUOUS
 62
    7
 10
197.01902000307948
 20
178.64751554332679
 11
196.72377755307946
 21
178.96246283332681
  0
LINE
  8
_0-0_
  6
CONTINUOUS
 62
    7
 10
195.64116641307947
 20
180.04507397332679
 11
194.63721188307946
 21
181.04902850332681
  0
LINE
  8
_0-0_
  6
CONTINUOUS
 62
    7
 10
195.18844985307948
 20
181.14738902332681
 11
196.29076490307946
 21
180.04507397332679
  0
LINE
  8
_0-0_
  6
CONTINUOUS
 62
    7
 10
196.72377755307946
 20
179.61190136332681
 11
197.64907454307948
 21
178.70646824332678
  0
LINE
  8
_0-0_
  6
CONTINUOUS
 62
    7
 10
197.64907454307948
 20
179.3560667333268
 11
195.75923177307945
 21
181.2459104333268
  0
LINE
  8
_0-0_
  6
CONTINUOUS
 62
    7
 10
196.31046881307947
 20
181.3442709533268
 11
197.64907454307948
 21
180.00566522332682
  0
LINE
  8
_0-0_
  6
CONTINUOUS
 62
    7
 10
198.55450766307945
 20
179.08052819332681
 11
198.98752031307947
 21
178.64751554332679
  0
LINE
  8
_0-0_
  6
CONTINUOUS
 62
    7
 10
199.26321881307948
 20
179.04111944332681
 11
198.55450766307945
 21
179.73012668332683
  0
LINE
  8
_0-0_
  6
CONTINUOUS
 62
    7
 10
197.64907454307948
 20
180.6552637133268
 11
196.72377755307946
 21
181.5804016733268
  0
LINE
  8
_0-0_
  6
CONTINUOUS
 62
    7
 10
196.72377755307946
 20
182.23016012332678
 11
198.16090376307946
 21
180.77332907332681
  0
LINE
  8
_0-0_
  6
CONTINUOUS
 62
    7
 10
198.55450766307945
 20
180.37972517332679
 11
199.26321881307948
 21
179.69071793332679
  0
LINE
  8
_0-0_
  6
CONTINUOUS
 62
    7
 10
199.26321881307948
 20
180.34031735332681
 11
197.25531068307947
 21
182.34822548332681
  0
LINE
  8
_0-0_
  6
CONTINUOUS
 62
    7
 10
197.90490917307946
 20
182.34822548332681
 11
199.26321881307948
 21
180.9899158433268
  0
LINE
  8
_0-0_
  6
CONTINUOUS
 62
    7
 10
199.26321881307948
 20
181.65921824332679
 11
198.55450766307945
 21
182.34822548332681
  0
LINE
  8
_0-0_
  6
CONTINUOUS
 62
    7
 10
199.20410615307947
 20
182.34822548332681
 11
199.26321881307948
 21
182.30881673332681
  0
LINE
  8
_0-0_
  6
CONTINUOUS
 62
    7
 10
206.64509381307946
 20
145.4388504833268
 11
193.25919833307947
 21
145.4388504833268
  0
LINE
  8
_0-0_
  6
CONTINUOUS
 62
    7
 10
193.63325828307947
 20
121.2853173533268
 11
210.32625980307947
 21
121.2853173533268
  0
LINE
  8
_0-0_
  6
CONTINUOUS
 62
    7
 10
193.25919833307947
 20
172.5057257933268
 11
193.25919833307947
 21
160.20260048332682
  0
LINE
  8
_0-0_
  6
CONTINUOUS
 62
    7
 10
193.71207485307946
 20
121.2853173533268
 11
192.23569985307947
 21
121.2853173533268
  0
LINE
  8
_0-0_
  6
CONTINUOUS
 62
    7
 10
191.31040193307945
 20
168.0371920433268
 11
191.31040193307945
 21
122.21045438332679
  0
LINE
  8
_0-0_
  6
CONTINUOUS
 62
    7
 10
191.31040193307945
 20
122.21045438332679
 11
192.23569985307947
 21
121.2853173533268
  0
LINE
  8
_0-0_
  6
CONTINUOUS
 62
    7
 10
230.16857333307948
 20
172.66319897332681
 11
229.36150073307945
 21
168.0371920433268
  0
LINE
  8
_0-0_
  6
CONTINUOUS
 62
    7
 10
190.93650287307946
 20
172.42690829332682
 11
191.31040193307945
 21
168.0371920433268
  0
LINE
  8
_0-0_
  6
CONTINUOUS
 62
    7
 10
181.52701490307948
 20
176.67901616332682
 11
199.71593537307947
 21
176.67901616332682
  0
LINE
  8
_0-0_
  6
CONTINUOUS
 62
    7
 10
238.21975073307948
 20
175.22218511332682
 11
231.88107812307948
 21
174.33645590332679
  0
LINE
  8
_0-0_
  6
CONTINUOUS
 62
    7
 10
182.43244802307947
 20
175.22218511332682
 11
189.18442844307947
 21
174.27734324332681
  0
LINE
  8
_0-0_
  6
CONTINUOUS
 62
    7
 10
181.25147636307946
 20
176.40331673332679
 11
181.25147636307946
 21
175.95060017332682
  0
LINE
  8
_0-0_
  6
CONTINUOUS
 62
    7
 10
239.42058719307948
 20
176.40331673332679
 11
239.42058719307948
 21
175.95060017332682
  0
LINE
  8
_0-0_
  6
CONTINUOUS
 62
    7
 10
181.25147636307946
 20
175.95060017332682
 11
182.43244802307947
 21
175.22218511332682
  0
LINE
  8
_0-0_
  6
CONTINUOUS
 62
    7
 10
239.42058719307948
 20
175.95060017332682
 11
238.21975073307948
 21
175.22218511332682
  0
LINE
  8
_0-0_
  6
CONTINUOUS
 62
    7
 10
193.25919833307947
 20
147.60423272332679
 11
210.32625980307947
 21
147.60423272332679
  0
LINE
  8
_0-0_
  6
CONTINUOUS
 62
    7
 10
208.02294833307948
 20
142.68298241332681
 11
210.32625980307947
 21
142.68298241332681
  0
LINE
  8
_0-0_
  6
CONTINUOUS
 62
    7
 10
208.02294833307948
 20
142.68298241332681
 11
208.02294833307948
 21
146.67893480332683
  0
LINE
  8
_0-0_
  6
CONTINUOUS
 62
    7
 10
208.02294833307948
 20
146.67893480332683
 11
210.32625980307947
 21
146.67893480332683
  0
LINE
  8
_0-0_
  6
CONTINUOUS
 62
    7
 10
207.09781037307948
 20
147.60423272332679
 11
208.02294833307948
 21
146.67893480332683
  0
LINE
  8
_0-0_
  6
CONTINUOUS
 62
    7
 10
208.02294833307948
 20
142.68298241332681
 11
207.09781037307948
 21
142.68298241332681
  0
LINE
  8
_0-0_
  6
CONTINUOUS
 62
    7
 10
206.64509381307946
 20
143.13569897332681
 11
206.64509381307946
 21
147.60423272332679
  0
LINE
  8
_0-0_
  6
CONTINUOUS
 62
    7
 10
206.64509381307946
 20
143.13569897332681
 11
207.09781037307948
 21
142.68298241332681
  0
LINE
  8
_0-0_
  6
CONTINUOUS
 62
    7
 10
228.43620374307946
 20
166.69858631332679
 11
228.43620374307946
 21
167.44670621332679
  0
LINE
  8
_0-0_
  6
CONTINUOUS
 62
    7
 10
207.37334984307947
 20
142.68298241332681
 11
207.09781037307948
 21
142.68298241332681
  0
LINE
  8
_0-0_
  6
CONTINUOUS
 62
    7
 10
207.37334984307947
 20
147.30882938332681
 11
207.37334984307947
 21
142.68298241332681
  0
LINE
  8
_0-0_
  6
CONTINUOUS
 62
    7
 10
192.23569985307947
 20
121.2853173533268
 11
192.23569985307947
 21
167.44670621332679
  0
LINE
  8
_0-0_
  6
CONTINUOUS
 62
    7
 10
192.23569985307947
 20
167.44670621332679
 11
191.31040193307945
 21
167.44670621332679
  0
LINE
  8
_0-0_
  6
CONTINUOUS
 62
    7
 10
181.25147636307946
 20
176.40331673332679
 11
181.52701490307948
 21
176.67901616332682
  0
LINE
  8
_0-0_
  6
CONTINUOUS
 62
    7
 10
239.42058719307948
 20
176.40331673332679
 11
239.14504865307947
 21
176.67901616332682
  0
LINE
  8
_0-0_
  6
CONTINUOUS
 62
    7
 10
181.52701490307948
 20
176.67901616332682
 11
191.97970526307947
 21
175.81283090332681
  0
LINE
  8
_0-0_
  6
CONTINUOUS
 62
    7
 10
192.29465255307946
 20
175.45847579332681
 11
192.90500225307946
 21
173.05696283332679
  0
LINE
  8
_0-0_
  6
CONTINUOUS
 62
    7
 10
191.97970526307947
 20
175.81283090332681
 11
192.29465255307946
 21
175.45847579332681
  0
LINE
  8
_0-0_
  6
CONTINUOUS
 62
    7
 10
200.77900256307947
 20
172.4860209533268
 11
193.25919833307947
 21
172.4860209533268
  0
LINE
  8
_0-0_
  6
CONTINUOUS
 62
    7
 10
192.90500225307946
 20
173.05696283332679
 11
193.25919833307947
 21
172.5057257933268
  0
LINE
  8
_0-0_
  6
CONTINUOUS
 62
    7
 10
191.97970526307947
 20
175.81283090332681
 11
199.71593537307947
 21
175.81283090332681
  0
LINE
  8
_0-0_
  6
CONTINUOUS
 62
    7
 10
192.29465255307946
 20
175.45847579332681
 11
199.71593537307947
 21
175.45847579332681
  0
LINE
  8
_0-0_
  6
CONTINUOUS
 62
    7
 10
192.90500225307946
 20
173.05696283332679
 11
200.77900256307947
 21
173.05696283332679
  0
LINE
  8
_0-0_
  6
CONTINUOUS
 62
    7
 10
239.14504865307947
 20
176.67901616332682
 11
210.32625980307947
 21
176.67901616332682
  0
LINE
  8
_0-0_
  6
CONTINUOUS
 62
    7
 10
193.25919833307947
 20
145.4388504833268
 11
193.25919833307947
 21
121.2853173533268
  0
LINE
  8
_0-0_
  6
CONTINUOUS
 62
    7
 10
210.32625980307947
 20
167.44670621332679
 11
229.36150073307945
 21
167.44670621332679
  0
LINE
  8
_0-0_
  6
CONTINUOUS
 62
    7
 10
192.29465255307946
 20
175.45847579332681
 11
192.29465255307946
 21
175.6553577233268
  0
LINE
  8
_0-0_
  6
CONTINUOUS
 62
    7
 10
189.18442844307947
 20
174.27734324332681
 11
189.71596250307945
 21
174.1198700633268
  0
LINE
  8
_0-0_
  6
CONTINUOUS
 62
    7
 10
189.71596250307945
 20
174.1198700633268
 11
190.18838297307946
 21
173.84433059332679
  0
LINE
  8
_0-0_
  6
CONTINUOUS
 62
    7
 10
190.18838297307946
 20
173.84433059332679
 11
190.56244292307946
 21
173.45056673332681
  0
LINE
  8
_0-0_
  6
CONTINUOUS
 62
    7
 10
190.56244292307946
 20
173.45056673332681
 11
190.81827755307947
 21
172.9584423533268
  0
LINE
  8
_0-0_
  6
CONTINUOUS
 62
    7
 10
190.81827755307947
 20
172.9584423533268
 11
190.93650287307946
 21
172.42690829332682
  0
LINE
  8
_0-0_
  6
CONTINUOUS
 62
    7
 10
230.16857333307948
 20
172.66319897332681
 11
230.32620647307945
 21
173.15532428332682
  0
LINE
  8
_0-0_
  6
CONTINUOUS
 62
    7
 10
230.32620647307945
 20
173.15532428332682
 11
230.58188114307947
 21
173.58833600332679
  0
LINE
  8
_0-0_
  6
CONTINUOUS
 62
    7
 10
230.58188114307947
 20
173.58833600332679
 11
230.95610105307946
 21
173.94269204332682
  0
LINE
  8
_0-0_
  6
CONTINUOUS
 62
    7
 10
230.95610105307946
 20
173.94269204332682
 11
231.38895374307947
 21
174.1985266733268
  0
LINE
  8
_0-0_
  6
CONTINUOUS
 62
    7
 10
231.38895374307947
 20
174.1985266733268
 11
231.88107812307948
 21
174.33645590332679
  0
LINE
  8
_0-0_
  6
CONTINUOUS
 62
    7
 10
193.25919833307947
 20
160.20260048332682
 11
193.25919833307947
 21
145.4388504833268
  0
LINE
  8
_0-0_
  6
CONTINUOUS
 62
    7
 10
229.36150073307945
 20
131.56082969332681
 11
229.36150073307945
 21
129.25783814332678
  0
LINE
  8
_0-0_
  6
CONTINUOUS
 62
    7
 10
228.43620374307946
 20
135.71441522332682
 11
228.43620374307946
 21
162.0922832933268
  0
LINE
  8
_0-0_
  6
CONTINUOUS
 62
    7
 10
229.36150073307945
 20
168.0371920433268
 11
229.36150073307945
 21
166.69858631332679
  0
LINE
  8
_0-0_
  6
CONTINUOUS
 62
    7
 10
228.43620374307946
 20
129.25783814332678
 11
228.43620374307946
 21
131.56082969332681
  0
LINE
  8
_0-0_
  6
CONTINUOUS
 62
    7
 10
229.36150073307945
 20
162.0922832933268
 11
229.36150073307945
 21
135.71441522332682
  0
LINE
  8
_0-0_
  6
CONTINUOUS
 62
    7
 10
191.31040193307945
 20
129.98609324332679
 11
193.25919833307947
 21
131.93488871332681
  0
LINE
  8
_0-0_
  6
CONTINUOUS
 62
    7
 10
206.64509381307946
 20
145.3207851233268
 11
207.37334984307947
 21
146.04904022332678
  0
LINE
  8
_0-0_
  6
CONTINUOUS
 62
    7
 10
207.37334984307947
 20
146.04904022332678
 11
207.45216641307945
 21
146.1081528833268
  0
LINE
  8
_0-0_
  6
CONTINUOUS
 62
    7
 10
207.45216641307945
 20
146.1081528833268
 11
208.00340438307947
 21
146.67893480332683
  0
LINE
  8
_0-0_
  6
CONTINUOUS
 62
    7
 10
208.02294833307948
 20
144.08054084332679
 11
207.45216641307945
 21
143.50975892332679
  0
LINE
  8
_0-0_
  6
CONTINUOUS
 62
    7
 10
207.45216641307945
 20
143.50975892332679
 11
207.37334984307947
 21
143.4506462633268
  0
LINE
  8
_0-0_
  6
CONTINUOUS
 62
    7
 10
207.37334984307947
 20
143.4506462633268
 11
206.86152062307949
 21
142.91911313332682
  0
LINE
  8
_0-0_
  6
CONTINUOUS
 62
    7
 10
193.25919833307947
 20
129.3167908433268
 11
191.31040193307945
 21
127.36799444332681
  0
LINE
  8
_0-0_
  6
CONTINUOUS
 62
    7
 10
191.31040193307945
 20
124.76960048332681
 11
192.03881792307945
 21
125.49785558332678
  0
LINE
  8
_0-0_
  6
CONTINUOUS
 62
    7
 10
192.03881792307945
 20
125.49785558332678
 11
192.23569985307947
 21
125.6947375133268
  0
LINE
  8
_0-0_
  6
CONTINUOUS
 62
    7
 10
192.23569985307947
 20
125.6947375133268
 11
193.25919833307947
 21
126.6986920433268
  0
LINE
  8
_0-0_
  6
CONTINUOUS
 62
    7
 10
193.25919833307947
 20
124.10029715332681
 11
192.03881792307945
 21
122.8797567833268
  0
LINE
  8
_0-0_
  6
CONTINUOUS
 62
    7
 10
192.03881792307945
 20
122.8797567833268
 11
191.33010677307948
 21
122.17120559332679
  0
LINE
  8
_0-0_
  6
CONTINUOUS
 62
    7
 10
193.04277245307946
 20
121.2853173533268
 11
193.25919833307947
 21
121.48219928332681
  0
LINE
  8
_0-0_
  6
CONTINUOUS
 62
    7
 10
193.25919833307947
 20
134.53328360332679
 11
192.23569985307947
 21
133.52932907332681
  0
LINE
  8
_0-0_
  6
CONTINUOUS
 62
    7
 10
192.23569985307947
 20
133.52932907332681
 11
191.31040193307945
 21
132.6041920433268
  0
LINE
  8
_0-0_
  6
CONTINUOUS
 62
    7
 10
191.31040193307945
 20
135.20258600332679
 11
193.25919833307947
 21
137.15138240332681
  0
LINE
  8
_0-0_
  6
CONTINUOUS
 62
    7
 10
193.25919833307947
 20
139.76948027332679
 11
191.31040193307945
 21
137.8206848033268
  0
LINE
  8
_0-0_
  6
CONTINUOUS
 62
    7
 10
191.31040193307945
 20
140.43878360332678
 11
192.23569985307947
 21
141.3640805933268
  0
LINE
  8
_0-0_
  6
CONTINUOUS
 62
    7
 10
192.23569985307947
 20
141.3640805933268
 11
193.25919833307947
 21
142.36803512332679
  0
LINE
  8
_0-0_
  6
CONTINUOUS
 62
    7
 10
193.25919833307947
 20
144.9861339233268
 11
192.23569985307947
 21
143.96247548332681
  0
LINE
  8
_0-0_
  6
CONTINUOUS
 62
    7
 10
192.23569985307947
 20
143.96247548332681
 11
191.31040193307945
 21
143.03733845332681
  0
LINE
  8
_0-0_
  6
CONTINUOUS
 62
    7
 10
191.31040193307945
 20
145.65527636332678
 11
193.25919833307947
 21
147.60423272332679
  0
LINE
  8
_0-0_
  6
CONTINUOUS
 62
    7
 10
193.25919833307947
 20
150.2026266833268
 11
192.23569985307947
 21
149.19867215332681
  0
LINE
  8
_0-0_
  6
CONTINUOUS
 62
    7
 10
192.23569985307947
 20
149.19867215332681
 11
191.31040193307945
 21
148.27353512332681
  0
LINE
  8
_0-0_
  6
CONTINUOUS
 62
    7
 10
191.31040193307945
 20
150.87193001332679
 11
192.23569985307947
 21
151.79706704332682
  0
LINE
  8
_0-0_
  6
CONTINUOUS
 62
    7
 10
192.23569985307947
 20
151.79706704332682
 11
193.25919833307947
 21
152.82072548332681
  0
LINE
  8
_0-0_
  6
CONTINUOUS
 62
    7
 10
193.25919833307947
 20
155.4388242833268
 11
191.31040193307945
 21
153.49002788332677
  0
LINE
  8
_0-0_
  6
CONTINUOUS
 62
    7
 10
191.31040193307945
 20
156.10812668332682
 11
192.23569985307947
 21
157.03326371332679
  0
LINE
  8
_0-0_
  6
CONTINUOUS
 62
    7
 10
192.23569985307947
 20
157.03326371332679
 11
193.25919833307947
 21
158.03721824332681
  0
LINE
  8
_0-0_
  6
CONTINUOUS
 62
    7
 10
193.25919833307947
 20
160.65531704332682
 11
191.31040193307945
 21
158.7065215733268
  0
LINE
  8
_0-0_
  6
CONTINUOUS
 62
    7
 10
191.31040193307945
 20
161.32461944332681
 11
192.23569985307947
 21
162.24975740332681
  0
LINE
  8
_0-0_
  6
CONTINUOUS
 62
    7
 10
192.23569985307947
 20
162.24975740332681
 11
193.25919833307947
 21
163.2734158433268
  0
LINE
  8
_0-0_
  6
CONTINUOUS
 62
    7
 10
193.25919833307947
 20
165.87180980332681
 11
192.23569985307947
 21
164.86801616332679
  0
LINE
  8
_0-0_
  6
CONTINUOUS
 62
    7
 10
192.23569985307947
 20
164.86801616332679
 11
191.31040193307945
 21
163.94271824332679
  0
LINE
  8
_0-0_
  6
CONTINUOUS
 62
    7
 10
191.31040193307945
 20
166.5411131333268
 11
193.25919833307947
 21
168.4899086033268
  0
LINE
  8
_0-0_
  6
CONTINUOUS
 62
    7
 10
193.25919833307947
 20
171.0884634533268
 11
191.23174532307945
 21
169.06085048332682
  0
LINE
  8
_0-0_
  6
CONTINUOUS
 62
    7
 10
191.01515948307946
 20
171.46236251332681
 11
192.84588959307948
 21
173.2930935533268
  0
LINE
  8
_0-0_
  6
CONTINUOUS
 62
    7
 10
192.31435646307946
 20
175.3796582933268
 11
190.48362635307947
 21
173.5490881433268
  0
LINE
  8
_0-0_
  6
CONTINUOUS
 62
    7
 10
188.67259922307946
 20
174.33645590332679
 11
190.26719954307947
 21
175.95060017332682
  0
LINE
  8
_0-0_
  6
CONTINUOUS
 62
    7
 10
187.86552755307946
 20
176.14748210332678
 11
186.36944771307947
 21
174.67110710332682
  0
LINE
  8
_0-0_
  6
CONTINUOUS
 62
    7
 10
184.08600104307948
 20
174.98605439332681
 11
185.44431068307946
 21
176.34420407332681
  0
LINE
  8
_0-0_
  6
CONTINUOUS
 62
    7
 10
183.04279865307947
 20
176.5607908433268
 11
181.97973146307947
 21
175.49788361332679
  0
LINE
  8
_0-0_
  6
CONTINUOUS
 62
    7
 10
239.42058719307948
 20
175.95060017332682
 11
210.32625980307947
 21
175.95060017332682
  0
LINE
  8
_0-0_
  6
CONTINUOUS
 62
    7
 10
236.01512063307945
 20
175.22218511332682
 11
210.32625980307947
 21
175.22218511332682
  0
LINE
  8
_0-0_
  6
CONTINUOUS
 62
    7
 10
230.24738990307947
 20
174.33645590332679
 11
210.32625980307947
 21
174.33645590332679
  0
LINE
  8
_0-0_
  6
CONTINUOUS
 62
    7
 10
228.79055885307946
 20
172.66319897332681
 11
210.32625980307947
 21
172.66319897332681
  0
LINE
  8
_0-0_
  6
CONTINUOUS
 62
    7
 10
191.17263266307947
 20
81.738299603326809
 11
191.17263266307947
 21
97.092535433326788
  0
LINE
  8
_0-0_
  6
CONTINUOUS
 62
    7
 10
229.47972605307947
 20
81.738299603326809
 11
229.47972605307947
 21
97.092535433326788
  0
LINE
  8
_0-0_
  6
CONTINUOUS
 62
    7
 10
181.25147636307946
 20
126.48210527332679
 11
181.25147636307946
 21
129.06095621332682
  0
LINE
  8
_0-0_
  6
CONTINUOUS
 62
    7
 10
191.31040193307945
 20
129.25783814332678
 11
181.44819833307946
 21
129.25783814332678
  0
LINE
  8
_0-0_
  6
CONTINUOUS
 62
    7
 10
181.94032271307947
 20
129.25783814332678
 11
181.25147636307946
 21
129.25783814332678
  0
LINE
  8
_0-0_
  6
CONTINUOUS
 62
    7
 10
181.70419292307946
 20
129.25783814332678
 11
182.23572605307945
 21
128.66719235332681
  0
LINE
  8
_0-0_
  6
CONTINUOUS
 62
    7
 10
182.23572605307945
 20
128.66719235332681
 11
182.84591672307945
 21
128.19477095332681
  0
LINE
  8
_0-0_
  6
CONTINUOUS
 62
    7
 10
182.84591672307945
 20
128.19477095332681
 11
183.51521912307945
 21
127.80100709332679
  0
LINE
  8
_0-0_
  6
CONTINUOUS
 62
    7
 10
183.51521912307945
 20
127.80100709332679
 11
184.24347422307946
 21
127.54517246332679
  0
LINE
  8
_0-0_
  6
CONTINUOUS
 62
    7
 10
184.24347422307946
 20
127.54517246332679
 11
185.01129803307947
 21
127.42710710332679
  0
LINE
  8
_0-0_
  6
CONTINUOUS
 62
    7
 10
185.01129803307947
 20
127.42710710332679
 11
185.79866672307946
 21
127.42710710332679
  0
LINE
  8
_0-0_
  6
CONTINUOUS
 62
    7
 10
185.79866672307946
 20
127.42710710332679
 11
186.56633057307945
 21
127.54517246332679
  0
LINE
  8
_0-0_
  6
CONTINUOUS
 62
    7
 10
186.56633057307945
 20
127.54517246332679
 11
187.29474563307946
 21
127.80100709332679
  0
LINE
  8
_0-0_
  6
CONTINUOUS
 62
    7
 10
187.29474563307946
 20
127.80100709332679
 11
187.98375287307948
 21
128.19477095332681
  0
LINE
  8
_0-0_
  6
CONTINUOUS
 62
    7
 10
187.98375287307948
 20
128.19477095332681
 11
188.57423870307946
 21
128.66719235332681
  0
LINE
  8
_0-0_
  6
CONTINUOUS
 62
    7
 10
188.57423870307946
 20
128.66719235332681
 11
189.10577183307947
 21
129.25783814332678
  0
LINE
  8
_0-0_
  6
CONTINUOUS
 62
    7
 10
186.97979834307947
 20
126.02938871332678
 11
181.72389683307946
 21
126.02938871332678
  0
LINE
  8
_0-0_
  6
CONTINUOUS
 62
    7
 10
192.05852183307948
 20
124.63183121332679
 11
190.66080344307946
 21
126.02938871332678
  0
LINE
  8
_0-0_
  6
CONTINUOUS
 62
    7
 10
187.70805344307945
 20
104.78935772332679
 11
190.97575073307948
 21
104.78935772332679
  0
LINE
  8
_0-0_
  6
CONTINUOUS
 62
    7
 10
194.40092213307946
 20
95.556887813326796
 11
194.40092213307946
 21
103.31298272332678
  0
LINE
  8
_0-0_
  6
CONTINUOUS
 62
    7
 10
203.18051459307947
 20
95.556887813326796
 11
217.49154803307945
 21
103.1947574033268
  0
LINE
  8
_0-0_
  6
CONTINUOUS
 62
    7
 10
204.89302031307946
 20
102.28932428332678
 11
217.49154803307945
 21
95.556887813326796
  0
LINE
  8
_0-0_
  6
CONTINUOUS
 62
    7
 10
203.18051459307947
 20
100.0846932533268
 11
203.18051459307947
 21
95.556887813326796
  0
LINE
  8
_0-0_
  6
CONTINUOUS
 62
    7
 10
201.70413959307947
 20
95.556887813326796
 11
201.95997422307946
 21
96.639818873326789
  0
LINE
  8
_0-0_
  6
CONTINUOUS
 62
    7
 10
201.95997422307946
 20
96.639818873326789
 11
202.23567365307946
 21
97.604204693326807
  0
LINE
  8
_0-0_
  6
CONTINUOUS
 62
    7
 10
202.23567365307946
 20
97.604204693326807
 11
202.49150828307947
 21
98.431141163326785
  0
LINE
  8
_0-0_
  6
CONTINUOUS
 62
    7
 10
202.49150828307947
 20
98.431141163326785
 11
202.74750287307947
 21
99.159396263326784
  0
LINE
  8
_0-0_
  6
CONTINUOUS
 62
    7
 10
202.74750287307947
 20
99.159396263326784
 11
203.02304141307948
 21
99.789290843326782
  0
LINE
  8
_0-0_
  6
CONTINUOUS
 62
    7
 10
203.02304141307948
 20
99.789290843326782
 11
203.31828479307947
 21
100.34036792332678
  0
LINE
  8
_0-0_
  6
CONTINUOUS
 62
    7
 10
203.31828479307947
 20
100.34036792332678
 11
203.63323115307946
 21
100.8523571033268
  0
LINE
  8
_0-0_
  6
CONTINUOUS
 62
    7
 10
203.63323115307946
 20
100.8523571033268
 11
203.96788328307946
 21
101.30507366332678
  0
LINE
  8
_0-0_
  6
CONTINUOUS
 62
    7
 10
203.96788328307946
 20
101.30507366332678
 11
204.34194323307946
 21
101.73824627332678
  0
LINE
  8
_0-0_
  6
CONTINUOUS
 62
    7
 10
204.34194323307946
 20
101.73824627332678
 11
204.73554713307948
 21
102.1515550133268
  0
LINE
  8
_0-0_
  6
CONTINUOUS
 62
    7
 10
204.73554713307948
 20
102.1515550133268
 11
205.14901490307946
 21
102.54531887332678
  0
LINE
  8
_0-0_
  6
CONTINUOUS
 62
    7
 10
205.14901490307946
 20
102.54531887332678
 11
205.56232271307945
 21
102.91921793332679
  0
LINE
  8
_0-0_
  6
CONTINUOUS
 62
    7
 10
205.56232271307945
 20
102.91921793332679
 11
205.99549532307947
 21
103.29311792332679
  0
LINE
  8
_0-0_
  6
CONTINUOUS
 62
    7
 10
205.99549532307947
 20
103.29311792332679
 11
206.42850797307946
 21
103.68688178332681
  0
LINE
  8
_0-0_
  6
CONTINUOUS
 62
    7
 10
206.42850797307946
 20
103.68688178332681
 11
206.84197667307947
 21
104.06110169332678
  0
LINE
  8
_0-0_
  6
CONTINUOUS
 62
    7
 10
206.84197667307947
 20
104.06110169332678
 11
207.25528448307946
 21
104.4545456333268
  0
LINE
  8
_0-0_
  6
CONTINUOUS
 62
    7
 10
207.25528448307946
 20
104.4545456333268
 11
207.64904834307947
 21
104.8681742933268
  0
LINE
  8
_0-0_
  6
CONTINUOUS
 62
    7
 10
207.64904834307947
 20
104.8681742933268
 11
208.02294833307948
 21
105.30102605332679
  0
LINE
  8
_0-0_
  6
CONTINUOUS
 62
    7
 10
208.02294833307948
 20
105.30102605332679
 11
208.35759953307945
 21
105.75374261332681
  0
LINE
  8
_0-0_
  6
CONTINUOUS
 62
    7
 10
208.35759953307945
 20
105.75374261332681
 11
208.69225073307948
 21
106.2263239733268
  0
LINE
  8
_0-0_
  6
CONTINUOUS
 62
    7
 10
208.69225073307948
 20
106.2263239733268
 11
209.00719802307947
 21
106.69890533332679
  0
LINE
  8
_0-0_
  6
CONTINUOUS
 62
    7
 10
209.00719802307947
 20
106.69890533332679
 11
209.30260136307948
 21
107.1910297133268
  0
LINE
  8
_0-0_
  6
CONTINUOUS
 62
    7
 10
209.30260136307948
 20
107.1910297133268
 11
209.59784381307946
 21
107.7026989733268
  0
LINE
  8
_0-0_
  6
CONTINUOUS
 62
    7
 10
209.59784381307946
 20
107.7026989733268
 11
210.10967303307947
 21
108.72635741332681
  0
LINE
  8
_0-0_
  6
CONTINUOUS
 62
    7
 10
210.10967303307947
 20
108.72635741332681
 11
210.32625980307947
 21
109.25789054332679
  0
LINE
  8
_0-0_
  6
CONTINUOUS
 62
    7
 10
210.32625980307947
 20
129.25783814332678
 11
210.32625980307947
 21
109.25789054332679
  0
LINE
  8
_0-0_
  6
CONTINUOUS
 62
    7
 10
187.70805344307945
 20
104.78935772332679
 11
187.70805344307945
 21
125.28142970332681
  0
LINE
  8
_0-0_
  6
CONTINUOUS
 62
    7
 10
210.32625980307947
 20
129.25783814332678
 11
239.22386522307946
 21
129.25783814332678
  0
LINE
  8
_0-0_
  6
CONTINUOUS
 62
    7
 10
239.42058719307948
 20
126.48210527332679
 11
239.42058719307948
 21
129.06095621332682
  0
LINE
  8
_0-0_
  6
CONTINUOUS
 62
    7
 10
210.32625980307947
 20
126.02938871332678
 11
238.94800583307949
 21
126.02938871332678
  0
LINE
  8
_0-0_
  6
CONTINUOUS
 62
    7
 10
232.94414531307947
 20
104.78935772332679
 11
210.32625980307947
 21
104.78935772332679
  0
LINE
  8
_0-0_
  6
CONTINUOUS
 62
    7
 10
217.49154803307945
 20
103.1947574033268
 11
217.49154803307945
 21
95.556887813326796
  0
LINE
  8
_0-0_
  6
CONTINUOUS
 62
    7
 10
239.42058719307948
 20
126.48210527332679
 11
210.32625980307947
 21
126.48210527332679
  0
LINE
  8
_0-0_
  6
CONTINUOUS
 62
    7
 10
232.21589021307949
 20
125.28142970332681
 11
210.32625980307947
 21
125.28142970332681
  0
LINE
  8
_0-0_
  6
CONTINUOUS
 62
    7
 10
229.47972605307947
 20
96.482184803326788
 11
229.47972605307947
 21
102.01378481332679
  0
LINE
  8
_0-0_
  6
CONTINUOUS
 62
    7
 10
232.94414531307947
 20
104.78935772332679
 11
232.94414531307947
 21
125.28142970332681
  0
LINE
  8
_0-0_
  6
CONTINUOUS
 62
    7
 10
192.09777062307947
 20
95.556887813326796
 11
191.17263266307947
 21
96.482184803326788
  0
LINE
  8
_0-0_
  6
CONTINUOUS
 62
    7
 10
228.55442906307945
 20
95.556887813326796
 11
210.32625980307947
 21
95.556887813326796
  0
LINE
  8
_0-0_
  6
CONTINUOUS
 62
    7
 10
191.27115407307946
 20
115.39952126332679
 11
191.27115407307946
 21
125.41919897332679
  0
LINE
  8
_0-0_
  6
CONTINUOUS
 62
    7
 10
217.49154803307945
 20
96.482184803326788
 11
229.47972605307947
 21
96.482184803326788
  0
LINE
  8
_0-0_
  6
CONTINUOUS
 62
    7
 10
201.92072636307947
 20
96.482184803326788
 11
203.18051459307947
 21
96.482184803326788
  0
LINE
  8
_0-0_
  6
CONTINUOUS
 62
    7
 10
233.69226521307945
 20
126.02938871332678
 11
233.41672667307947
 21
125.97043694332679
  0
LINE
  8
_0-0_
  6
CONTINUOUS
 62
    7
 10
233.41672667307947
 20
125.97043694332679
 11
233.16073115307947
 21
125.81296283332679
  0
LINE
  8
_0-0_
  6
CONTINUOUS
 62
    7
 10
233.16073115307947
 20
125.81296283332679
 11
233.00341793307948
 21
125.55696824332681
  0
LINE
  8
_0-0_
  6
CONTINUOUS
 62
    7
 10
233.00341793307948
 20
125.55696824332681
 11
232.94414531307947
 21
125.28142970332681
  0
LINE
  8
_0-0_
  6
CONTINUOUS
 62
    7
 10
187.70805344307945
 20
125.28142970332681
 11
187.64910167307946
 21
125.55696824332681
  0
LINE
  8
_0-0_
  6
CONTINUOUS
 62
    7
 10
187.64910167307946
 20
125.55696824332681
 11
187.49162756307948
 21
125.81296283332679
  0
LINE
  8
_0-0_
  6
CONTINUOUS
 62
    7
 10
187.49162756307948
 20
125.81296283332679
 11
187.25533688307948
 21
125.97043694332679
  0
LINE
  8
_0-0_
  6
CONTINUOUS
 62
    7
 10
187.25533688307948
 20
125.97043694332679
 11
186.97979834307947
 21
126.02938871332678
  0
LINE
  8
_0-0_
  6
CONTINUOUS
 62
    7
 10
228.55442906307945
 20
95.556887813326796
 11
228.55442906307945
 21
102.01378481332679
  0
LINE
  8
_0-0_
  6
CONTINUOUS
 62
    7
 10
191.54669261307947
 20
106.16737127332681
 11
194.40092213307946
 21
103.31298272332678
  0
LINE
  8
_0-0_
  6
CONTINUOUS
 62
    7
 10
190.95604682307948
 20
106.16737127332681
 11
208.67254682307947
 21
106.16737127332681
  0
LINE
  8
_0-0_
  6
CONTINUOUS
 62
    7
 10
192.05852183307948
 20
115.39952126332679
 11
192.05852183307948
 21
124.63183121332679
  0
LINE
  8
_0-0_
  6
CONTINUOUS
 62
    7
 10
206.01520016307947
 20
103.31298272332678
 11
194.40092213307946
 21
103.31298272332678
  0
LINE
  8
_0-0_
  6
CONTINUOUS
 62
    7
 10
229.69631282307947
 20
104.78935772332679
 11
228.10171250307948
 21
103.1947574033268
  0
LINE
  8
_0-0_
  6
CONTINUOUS
 62
    7
 10
191.27115407307946
 20
115.39952126332679
 11
210.32625980307947
 21
115.39952126332679
  0
LINE
  8
_0-0_
  6
CONTINUOUS
 62
    7
 10
189.10577183307947
 20
108.0176462633268
 11
189.10577183307947
 21
113.1160736633268
  0
LINE
  8
_0-0_
  6
CONTINUOUS
 62
    7
 10
217.49154803307945
 20
102.01378481332679
 11
229.47972605307947
 21
102.01378481332679
  0
LINE
  8
_0-0_
  6
CONTINUOUS
 62
    7
 10
228.10171250307948
 20
103.1947574033268
 11
210.32625980307947
 21
103.1947574033268
  0
LINE
  8
_0-0_
  6
CONTINUOUS
 62
    7
 10
190.97575073307948
 20
104.78935772332679
 11
192.57035105307946
 21
103.1947574033268
  0
LINE
  8
_0-0_
  6
CONTINUOUS
 62
    7
 10
192.57035105307946
 20
102.01378481332679
 11
192.57035105307946
 21
103.1947574033268
  0
LINE
  8
_0-0_
  6
CONTINUOUS
 62
    7
 10
191.17263266307947
 20
96.482184803326788
 11
191.17263266307947
 21
102.01378481332679
  0
LINE
  8
_0-0_
  6
CONTINUOUS
 62
    7
 10
192.09777062307947
 20
95.556887813326796
 11
192.09777062307947
 21
102.01378481332679
  0
LINE
  8
_0-0_
  6
CONTINUOUS
 62
    7
 10
192.57035105307946
 20
102.01378481332679
 11
191.17263266307947
 21
102.01378481332679
  0
LINE
  8
_0-0_
  6
CONTINUOUS
 62
    7
 10
210.32625980307947
 20
104.78935772332679
 11
207.57023177307946
 21
104.78935772332679
  0
LINE
  8
_0-0_
  6
CONTINUOUS
 62
    7
 10
210.32625980307947
 20
95.556887813326796
 11
192.09777062307947
 21
95.556887813326796
  0
LINE
  8
_0-0_
  6
CONTINUOUS
 62
    7
 10
210.32625980307947
 20
103.1947574033268
 11
205.87727000307947
 21
103.1947574033268
  0
LINE
  8
_0-0_
  6
CONTINUOUS
 62
    7
 10
238.94800583307949
 20
126.02938871332678
 11
239.42058719307948
 21
126.48210527332679
  0
LINE
  8
_0-0_
  6
CONTINUOUS
 62
    7
 10
181.72389683307946
 20
126.02938871332678
 11
181.25147636307946
 21
126.48210527332679
  0
LINE
  8
_0-0_
  6
CONTINUOUS
 62
    7
 10
228.10171250307948
 20
102.01378481332679
 11
228.10171250307948
 21
103.1947574033268
  0
LINE
  8
_0-0_
  6
CONTINUOUS
 62
    7
 10
229.47972605307947
 20
96.482184803326788
 11
228.55442906307945
 21
95.556887813326796
  0
LINE
  8
_0-0_
  6
CONTINUOUS
 62
    7
 10
189.10577183307947
 20
108.0176462633268
 11
189.16472453307946
 21
107.5450649033268
  0
LINE
  8
_0-0_
  6
CONTINUOUS
 62
    7
 10
189.16472453307946
 20
107.5450649033268
 11
189.34190255307948
 21
107.09234834332679
  0
LINE
  8
_0-0_
  6
CONTINUOUS
 62
    7
 10
189.34190255307948
 20
107.09234834332679
 11
189.63714500307947
 21
106.71844928332681
  0
LINE
  8
_0-0_
  6
CONTINUOUS
 62
    7
 10
189.63714500307947
 20
106.71844928332681
 11
190.03090979307947
 21
106.42304594332678
  0
LINE
  8
_0-0_
  6
CONTINUOUS
 62
    7
 10
190.03090979307947
 20
106.42304594332678
 11
190.46392151307947
 21
106.2263239733268
  0
LINE
  8
_0-0_
  6
CONTINUOUS
 62
    7
 10
190.46392151307947
 20
106.2263239733268
 11
190.95604682307948
 21
106.16737127332681
  0
LINE
  8
_0-0_
  6
CONTINUOUS
 62
    7
 10
181.44819833307946
 20
129.25783814332678
 11
181.25147636307946
 21
129.06095621332682
  0
LINE
  8
_0-0_
  6
CONTINUOUS
 62
    7
 10
239.42058719307948
 20
129.06095621332682
 11
239.22386522307946
 21
129.25783814332678
  0
LINE
  8
_0-0_
  6
CONTINUOUS
 62
    7
 10
210.32625980307947
 20
129.06095621332682
 11
239.08609595307948
 21
129.06095621332682
  0
LINE
  8
_0-0_
  6
CONTINUOUS
 62
    7
 10
189.61760105307945
 20
108.2342321033268
 11
209.85367844307947
 21
108.2342321033268
  0
LINE
  8
_0-0_
  6
CONTINUOUS
 62
    7
 10
192.05852183307948
 20
115.39952126332679
 11
190.38526490307947
 21
114.8679881333268
  0
LINE
  8
_0-0_
  6
CONTINUOUS
 62
    7
 10
190.38526490307947
 20
114.8679881333268
 11
189.95225225307945
 21
114.6711052733268
  0
LINE
  8
_0-0_
  6
CONTINUOUS
 62
    7
 10
189.95225225307945
 20
114.6711052733268
 11
189.59789714307945
 21
114.3758628233268
  0
LINE
  8
_0-0_
  6
CONTINUOUS
 62
    7
 10
189.59789714307945
 20
114.3758628233268
 11
189.32219771307948
 21
114.00196283332679
  0
LINE
  8
_0-0_
  6
CONTINUOUS
 62
    7
 10
189.32219771307948
 20
114.00196283332679
 11
189.16472453307946
 21
113.5687902233268
  0
LINE
  8
_0-0_
  6
CONTINUOUS
 62
    7
 10
189.16472453307946
 20
113.5687902233268
 11
189.10577183307947
 21
113.1160736633268
  0
LINE
  8
_0-0_
  6
CONTINUOUS
 62
    7
 10
189.40101521307946
 20
113.1160736633268
 11
210.32625980307947
 21
113.1160736633268
  0
LINE
  8
_0-0_
  6
CONTINUOUS
 62
    7
 10
190.66080344307946
 20
126.02938871332678
 11
190.66080344307946
 21
128.1356582933268
  0
LINE
  8
_0-0_
  6
CONTINUOUS
 62
    7
 10
190.66080344307946
 20
128.1356582933268
 11
191.31040193307945
 21
128.1356582933268
  0
LINE
  8
_0-0_
  6
CONTINUOUS
 62
    7
 10
190.66080344307946
 20
126.02938871332678
 11
191.31040193307945
 21
126.02938871332678
  0
LINE
  8
_0-0_
  6
CONTINUOUS
 62
    7
 10
190.03090979307947
 20
129.25783814332678
 11
190.66080344307946
 21
128.1356582933268
  0
LINE
  8
_0-0_
  6
CONTINUOUS
 62
    7
 10
191.52698870307947
 20
104.2184158433268
 11
192.51123839307945
 21
105.20266553332681
  0
LINE
  8
_0-0_
  6
CONTINUOUS
 62
    7
 10
193.65296219307947
 20
104.06110169332678
 11
192.57035105307946
 21
102.9781706333268
  0
LINE
  8
_0-0_
  6
CONTINUOUS
 62
    7
 10
191.60564531307946
 20
102.01378481332679
 11
191.17263266307947
 21
101.58061313332678
  0
LINE
  8
_0-0_
  6
CONTINUOUS
 62
    7
 10
191.17263266307947
 20
99.297165533326776
 11
194.40092213307946
 21
102.52545407332678
  0
LINE
  8
_0-0_
  6
CONTINUOUS
 62
    7
 10
194.40092213307946
 20
100.2420074033268
 11
192.09777062307947
 21
97.9191510533268
  0
LINE
  8
_0-0_
  6
CONTINUOUS
 62
    7
 10
192.09777062307947
 20
97.9191510533268
 11
191.17263266307947
 21
97.013717933326774
  0
LINE
  8
_0-0_
  6
CONTINUOUS
 62
    7
 10
192.03881792307945
 20
95.596295633326804
 11
192.09777062307947
 21
95.635704383326782
  0
LINE
  8
_0-0_
  6
CONTINUOUS
 62
    7
 10
192.09777062307947
 20
95.635704383326782
 11
194.40092213307946
 21
97.958559803326779
  0
LINE
  8
_0-0_
  6
CONTINUOUS
 62
    7
 10
194.40092213307946
 20
95.675113133326789
 11
194.28285677307946
 21
95.556887813326796
  0
LINE
  8
_0-0_
  6
CONTINUOUS
 62
    7
 10
189.81432302307948
 20
104.78935772332679
 11
191.19233750307947
 21
106.16737127332681
  0
LINE
  8
_0-0_
  6
CONTINUOUS
 62
    7
 10
189.53878448307947
 20
106.81680980332679
 11
187.70805344307945
 21
104.9860796933268
  0
LINE
  8
_0-0_
  6
CONTINUOUS
 62
    7
 10
187.70805344307945
 20
107.2695263633268
 11
189.10577183307947
 21
108.64754084332679
  0
LINE
  8
_0-0_
  6
CONTINUOUS
 62
    7
 10
189.10577183307947
 20
110.93098751332678
 11
187.70805344307945
 21
109.55297396332679
  0
LINE
  8
_0-0_
  6
CONTINUOUS
 62
    7
 10
187.70805344307945
 20
111.8365805933268
 11
189.10577183307947
 21
113.21443511332679
  0
LINE
  8
_0-0_
  6
CONTINUOUS
 62
    7
 10
190.91679803307946
 20
115.04516522332679
 11
191.29069802307947
 21
115.39952126332679
  0
LINE
  8
_0-0_
  6
CONTINUOUS
 62
    7
 10
191.29069802307947
 20
115.39952126332679
 11
192.05852183307948
 21
116.16718511332681
  0
LINE
  8
_0-0_
  6
CONTINUOUS
 62
    7
 10
192.05852183307948
 20
118.45063178332681
 11
191.27115407307946
 21
117.6632640233268
  0
LINE
  8
_0-0_
  6
CONTINUOUS
 62
    7
 10
191.27115407307946
 20
117.6632640233268
 11
187.70805344307945
 21
114.12002819332679
  0
LINE
  8
_0-0_
  6
CONTINUOUS
 62
    7
 10
187.70805344307945
 20
116.40347579332681
 11
191.27115407307946
 21
119.96641553332681
  0
LINE
  8
_0-0_
  6
CONTINUOUS
 62
    7
 10
191.27115407307946
 20
119.96641553332681
 11
192.05852183307948
 21
120.7340793833268
  0
LINE
  8
_0-0_
  6
CONTINUOUS
 62
    7
 10
192.05852183307948
 20
123.01768694332679
 11
191.27115407307946
 21
122.2498631333268
  0
LINE
  8
_0-0_
  6
CONTINUOUS
 62
    7
 10
191.27115407307946
 20
122.2498631333268
 11
187.70805344307945
 21
118.68692246332681
  0
LINE
  8
_0-0_
  6
CONTINUOUS
 62
    7
 10
187.70805344307945
 20
120.97037006332681
 11
191.27115407307946
 21
124.53330980332682
  0
LINE
  8
_0-0_
  6
CONTINUOUS
 62
    7
 10
191.27115407307946
 20
124.53330980332682
 11
191.72387063307946
 21
124.96648241332679
  0
LINE
  8
_0-0_
  6
CONTINUOUS
 62
    7
 10
190.66080344307946
 20
126.2065667333268
 11
187.70805344307945
 21
123.25381673332681
  0
LINE
  8
_0-0_
  6
CONTINUOUS
 62
    7
 10
187.68834953307947
 20
125.49785558332678
 11
190.54273901307948
 21
128.37194897332679
  0
LINE
  8
_0-0_
  6
CONTINUOUS
 62
    7
 10
189.14502062307946
 20
129.25783814332678
 11
188.94829865307946
 21
129.06095621332682
  0
LINE
  8
_0-0_
  6
CONTINUOUS
 62
    7
 10
188.37735677307947
 20
128.4900143333268
 11
185.91673115307947
 21
126.02938871332678
  0
LINE
  8
_0-0_
  6
CONTINUOUS
 62
    7
 10
183.63328448307945
 20
126.02938871332678
 11
185.03100287307947
 21
127.42710710332679
  0
LINE
  8
_0-0_
  6
CONTINUOUS
 62
    7
 10
183.25922453307948
 20
127.9389363233268
 11
181.52701490307948
 21
126.2065667333268
  0
LINE
  8
_0-0_
  6
CONTINUOUS
 62
    7
 10
181.25147636307946
 20
128.21447579332678
 11
181.97973146307947
 21
128.9427308933268
  0
LINE
  8
_0-0_
  6
CONTINUOUS
 62
    7
 10
240.81814562307946
 20
95.556887813326796
 11
228.59383688307946
 21
95.556887813326796
  0
LINE
  8
_0-0_
  6
CONTINUOUS
 62
    7
 10
240.81814562307946
 20
104.78935772332679
 11
232.98355406307945
 21
104.78935772332679
  0
LINE
  8
_0-0_
  6
CONTINUOUS
 62
    7
 10
187.70805344307945
 20
111.32475137332679
 11
187.70805344307945
 21
104.82876554332678
  0
LINE
  8
_0-0_
  6
CONTINUOUS
 62
    7
 10
232.94414531307947
 20
111.32475137332679
 11
232.94414531307947
 21
104.82876554332678
  0
LINE
  8
_0-0_
  6
CONTINUOUS
 62
    7
 10
210.32625980307947
 20
129.25783814332678
 11
210.32625980307947
 21
135.7538239733268
  0
LINE
  8
_0-0_
  6
CONTINUOUS
 62
    7
 10
210.32625980307947
 20
136.69866584332678
 11
210.32625980307947
 21
137.6239628333268
  0
LINE
  8
_0-0_
  6
CONTINUOUS
 62
    7
 10
210.32625980307947
 20
138.5688047033268
 11
210.32625980307947
 21
145.0647905333268
  0
LINE
  8
_0-0_
  6
CONTINUOUS
 62
    7
 10
210.32625980307947
 20
146.0096324033268
 11
210.32625980307947
 21
146.9349293933268
  0
LINE
  8
_0-0_
  6
CONTINUOUS
 62
    7
 10
210.32625980307947
 20
147.8797712633268
 11
210.32625980307947
 21
154.3757570933268
  0
LINE
  8
_0-0_
  6
CONTINUOUS
 62
    7
 10
210.32625980307947
 20
155.32075892332682
 11
210.32625980307947
 21
156.24589595332679
  0
LINE
  8
_0-0_
  6
CONTINUOUS
 62
    7
 10
210.32625980307947
 20
157.1907378233268
 11
210.32625980307947
 21
163.68688361332681
  0
LINE
  8
_0-0_
  6
CONTINUOUS
 62
    7
 10
210.32625980307947
 20
164.63172548332679
 11
210.32625980307947
 21
165.55686251332682
  0
LINE
  8
_0-0_
  6
CONTINUOUS
 62
    7
 10
210.32625980307947
 20
166.5017043833268
 11
210.32625980307947
 21
172.99785017332681
  0
LINE
  8
_0-0_
  6
CONTINUOUS
 62
    7
 10
210.32625980307947
 20
173.94269204332682
 11
210.32625980307947
 21
174.86782907332679
  0
LINE
  8
_0-0_
  6
CONTINUOUS
 62
    7
 10
210.32625980307947
 20
175.81283090332681
 11
210.32625980307947
 21
182.30881673332681
  0
LINE
  8
_0-0_
  6
CONTINUOUS
 62
    7
 10
210.32625980307947
 20
183.25365860332678
 11
210.32625980307947
 21
184.1789555933268
  0
LINE
  8
_0-0_
  6
CONTINUOUS
 62
    7
 10
210.32625980307947
 20
185.12379746332681
 11
210.32625980307947
 21
191.6197832933268
  0
LINE
  8
_0-0_
  6
CONTINUOUS
 62
    7
 10
210.32625980307947
 20
192.5647851233268
 11
210.32625980307947
 21
193.4899221533268
  0
LINE
  8
_0-0_
  6
CONTINUOUS
 62
    7
 10
273.71170343307949
 20
95.556887813326796
 11
228.59383688307946
 21
95.556887813326796
  0
LINE
  8
_0-0_
  6
CONTINUOUS
 62
    7
 10
273.71170343307949
 20
135.71441522332682
 11
239.45999594307946
 21
135.71441522332682
  0
LINE
  8
_0-0_
  6
CONTINUOUS
 62
    7
 10
210.34580375307948
 20
212.82056735332679
 11
210.34580375307948
 21
219.31671314332681
  0
LINE
  8
_0-0_
  6
CONTINUOUS
 62
    7
 10
210.34580375307948
 20
220.26155501332678
 11
210.34580375307948
 21
221.18669204332679
  0
LINE
  8
_0-0_
  6
CONTINUOUS
 62
    7
 10
210.34580375307948
 20
222.13153391332679
 11
210.34580375307948
 21
228.62767970332681
  0
LINE
  8
_0-0_
  6
CONTINUOUS
 62
    7
 10
210.34580375307948
 20
229.57252157332681
 11
210.34580375307948
 21
230.49765860332681
  0
LINE
  8
_0-0_
  6
CONTINUOUS
 62
    7
 10
210.34580375307948
 20
231.44266043332678
 11
210.34580375307948
 21
237.74176433332678
  0
TEXT
  8
_0-0_
 62
    7
 10
285.00121158683709
 20
11.838966596357295
 40
3
 41
1
 50
0
  1
S=1/1
  0
LINE
  8
_0-0_
  6
CONTINUOUS
 62
    7
 10
191.17263266307947
 20
81.738299603326809
 11
229.47972605307947
 21
81.738299603326809
  0
LINE
  8
_0-0_
  6
CONTINUOUS
 62
    7
 10
191.17263266307947
 20
81.738299603326809
 11
194.07041014194667
 21
82.514756738634375
  0
LINE
  8
_0-0_
  6
CONTINUOUS
 62
    7
 10
191.17263266307947
 20
81.738299603326809
 11
194.07041014194667
 21
80.961842468019242
  0
LINE
  8
_0-0_
  6
CONTINUOUS
 62
    7
 10
229.47972605307947
 20
81.738299603326809
 11
226.58194857421228
 21
82.514756738634375
  0
LINE
  8
_0-0_
  6
CONTINUOUS
 62
    7
 10
229.47972605307947
 20
81.738299603326809
 11
226.58194857421228
 21
80.961842468019242
  0
TEXT
  8
_0-0_
 62
    7
 10
204.32617935807946
 20
81.738299603326809
 40
3
 41
1
 50
0
  1
G-1 1/4
  0
LINE
  8
_0-0_
  6
CONTINUOUS
 62
    7
 10
181.27102031307945
 20
200.85209324332678
 11
239.44013114307947
 21
200.85209324332678
  0
LINE
  8
_0-0_
  6
CONTINUOUS
 62
    7
 10
181.27102031307945
 20
200.85209324332678
 11
184.16879779194667
 21
201.62855037863434
  0
LINE
  8
_0-0_
  6
CONTINUOUS
 62
    7
 10
181.27102031307945
 20
200.85209324332678
 11
184.16879779194667
 21
200.07563610801924
  0
LINE
  8
_0-0_
  6
CONTINUOUS
 62
    7
 10
239.44013114307947
 20
200.85209324332678
 11
236.54235366421227
 21
201.62855037863434
  0
LINE
  8
_0-0_
  6
CONTINUOUS
 62
    7
 10
239.44013114307947
 20
200.85209324332678
 11
236.54235366421227
 21
200.07563610801924
  0
TEXT
  8
_0-0_
 62
    7
 10
206.98057572807946
 20
200.85209324332678
 40
3
 41
1
 50
0
  1
φ63
  0
LINE
  8
_0-0_
  6
CONTINUOUS
 62
    7
 10
273.71170343307949
 20
95.556887813326796
 11
273.71170343307949
 21
135.71441522332682
  0
LINE
  8
_0-0_
  6
CONTINUOUS
 62
    7
 10
273.71170343307949
 20
95.556887813326796
 11
272.93524629777193
 21
98.454665292194008
  0
LINE
  8
_0-0_
  6
CONTINUOUS
 62
    7
 10
273.71170343307949
 20
95.556887813326796
 11
274.488160568387
 21
98.454665292194008
  0
LINE
  8
_0-0_
  6
CONTINUOUS
 62
    7
 10
273.71170343307949
 20
135.71441522332682
 11
272.93524629777193
 21
132.81663774445963
  0
LINE
  8
_0-0_
  6
CONTINUOUS
 62
    7
 10
273.71170343307949
 20
135.71441522332682
 11
274.488160568387
 21
132.81663774445963
  0
TEXT
  8
_0-0_
 62
    7
 10
273.71170343307949
 20
114.01065151832681
 40
3
 41
1
 50
90
  1
40
  0
LINE
  8
_0-0_
  6
CONTINUOUS
 62
    7
 10
273.71170343307949
 20
135.71441522332682
 11
273.71170343307949
 21
176.6591513633268
  0
LINE
  8
_0-0_
  6
CONTINUOUS
 62
    7
 10
273.71170343307949
 20
135.71441522332682
 11
272.93524629777193
 21
138.61219270219402
  0
LINE
  8
_0-0_
  6
CONTINUOUS
 62
    7
 10
273.71170343307949
 20
135.71441522332682
 11
274.488160568387
 21
138.61219270219402
  0
LINE
  8
_0-0_
  6
CONTINUOUS
 62
    7
 10
273.71170343307949
 20
176.6591513633268
 11
272.93524629777193
 21
173.7613738844596
  0
LINE
  8
_0-0_
  6
CONTINUOUS
 62
    7
 10
273.71170343307949
 20
176.6591513633268
 11
274.488160568387
 21
173.7613738844596
  0
TEXT
  8
_0-0_
 62
    7
 10
273.71170343307949
 20
151.06178329332681
 40
3
 41
1
 50
90
  1
31～50
  0
LINE
  8
_0-0_
  6
CONTINUOUS
 62
    7
 10
260.89690979307949
 20
176.6591513633268
 11
260.89690979307949
 21
171.6591513633268
  0
LINE
  8
_0-0_
  6
CONTINUOUS
 62
    7
 10
260.89690979307949
 20
186.6985339133268
 11
260.89690979307949
 21
191.6985339133268
  0
LINE
  8
_0-0_
  6
CONTINUOUS
 62
    7
 10
260.89690979307949
 20
176.6591513633268
 11
260.89690979307949
 21
186.6985339133268
  0
LINE
  8
_0-0_
  6
CONTINUOUS
 62
    7
 10
260.89690979307949
 20
176.6591513633268
 11
261.67336692838705
 21
173.7613738844596
  0
LINE
  8
_0-0_
  6
CONTINUOUS
 62
    7
 10
260.89690979307949
 20
176.6591513633268
 11
260.12045265777192
 21
173.7613738844596
  0
LINE
  8
_0-0_
  6
CONTINUOUS
 62
    7
 10
260.89690979307949
 20
186.6985339133268
 11
261.67336692838705
 21
189.59631139219402
  0
LINE
  8
_0-0_
  6
CONTINUOUS
 62
    7
 10
260.89690979307949
 20
186.6985339133268
 11
260.12045265777192
 21
189.59631139219402
  0
TEXT
  8
_0-0_
 62
    7
 10
260.89690979307949
 20
186.6985339133268
 40
3
 41
1
 50
90
  1
3.5～10
  0
LINE
  8
_0-0_
  6
CONTINUOUS
 62
    7
 10
240.81814562307946
 20
95.556887813326796
 11
240.81814562307946
 21
90.556887813326796
  0
LINE
  8
_0-0_
  6
CONTINUOUS
 62
    7
 10
240.81814562307946
 20
104.78935772332679
 11
240.81814562307946
 21
109.78935772332679
  0
LINE
  8
_0-0_
  6
CONTINUOUS
 62
    7
 10
240.81814562307946
 20
95.556887813326796
 11
240.81814562307946
 21
104.78935772332679
  0
LINE
  8
_0-0_
  6
CONTINUOUS
 62
    7
 10
240.81814562307946
 20
95.556887813326796
 11
241.59460275838703
 21
92.659110334459598
  0
LINE
  8
_0-0_
  6
CONTINUOUS
 62
    7
 10
240.81814562307946
 20
95.556887813326796
 11
240.04168848777189
 21
92.659110334459598
  0
LINE
  8
_0-0_
  6
CONTINUOUS
 62
    7
 10
240.81814562307946
 20
104.78935772332679
 11
241.59460275838703
 21
107.68713520219399
  0
LINE
  8
_0-0_
  6
CONTINUOUS
 62
    7
 10
240.81814562307946
 20
104.78935772332679
 11
240.04168848777189
 21
107.68713520219399
  0
TEXT
  8
_0-0_
 62
    7
 10
240.83829086851918
 20
98.794900553985173
 40
3
 41
1
 50
90
  1
10
  0
TEXT
  8
_0-0_
 62
    7
 10
257.87621158683709
 20
24.58896659523225
 40
3
 41
1
 50
0
  1
RP-8530.310.5承認図
  0
ENDSEC
  0
EOF
