  0
SECTION
  2
HEADER
  9
$ACADVER
  1
AC1009
  9
$INSBASE
 10
0
 20
0
 30
0
  9
$EXTMIN
 10
0
 20
0
  9
$EXTMAX
 10
594
 20
420
  9
$LIMMIN
 10
0
 20
0
  9
$LIMMAX
 10
594
 20
420
  9
$LTSCALE
 40
2
  0
ENDSEC
  0
SECTION
  2
TABLES
  0
TABLE
  2
LTYPE
 70
     9
  0
LTYPE
  2
CONTINUOUS
 70
    64
  3
実線
 72
    65
 73
     0
 40
0.0
  0
LTYPE
  2
DASHED1
 70
    64
  3
--  --  --  --  --  --  --  --  
 72
    65
 73
     2
 40
2.5
 49
1.25
 49
-1.25
  0
LTYPE
  2
DASHED2
 70
    64
  3
----    ----    ----    ----    
 72
    65
 73
     2
 40
5.0
 49
2.5
 49
-2.5
  0
LTYPE
  2
DASHED3
 70
    64
  3
------  ------  ------  ------  
 72
    65
 73
     2
 40
5.0
 49
3.75
 49
-1.25
  0
LTYPE
  2
CENTER1
 70
    64
  3
----- - ----- - ----- - ----- - 
 72
    65
 73
     4
 40
10.0
 49
6.25
 49
-1.25
 49
1.25
 49
-1.25
  0
LTYPE
  2
CENTER2
 70
    64
  3
----------  --  ----------  --  
 72
    65
 73
     4
 40
20.0
 49
12.5
 49
-2.5
 49
2.5
 49
-2.5
  0
LTYPE
  2
PHANTOM1
 70
    64
  3
--- - - --- - - --- - - --- - - 
 72
    65
 73
     6
 40
10.0
 49
3.25
 49
-1.25
 49
1.25
 49
-1.25
 49
1.25
 49
-1.25
  0
LTYPE
  2
PHANTOM2
 70
    64
  3
--------  -  -  --------  -  -  
 72
    65
 73
     6
 40
20.0
 49
10.0
 49
-2.5
 49
1.25
 49
-2.5
 49
1.25
 49
-2.5
  0
LTYPE
  2
DOT
 70
    64
  3
-   -   -   -   -   -   -   -   
 72
    65
 73
     2
 40
2.5
 49
0.625
 49
-1.875
  0
LTYPE
  2
DUMMY
 70
    64
  3
ダミー
 72
    65
 73
     0
 40
0.0
  0
LTYPE
  2
RAND1
 70
    64
  3
ランダム線1
 72
    65
 73
     4
 40
10.0
 49
1.0
 49
-2.0
 49
3.0
 49
-4.0
  0
LTYPE
  2
RAND2
 70
    64
  3
ランダム線2
 72
    65
 73
     4
 40
14.0
 49
2.0
 49
-3.0
 49
4.0
 49
-5.0
  0
LTYPE
  2
RAND3
 70
    64
  3
ランダム線3
 72
    65
 73
     4
 40
18.0
 49
3.0
 49
-4.0
 49
5.0
 49
-6.0
  0
LTYPE
  2
RAND4
 70
    64
  3
ランダム線4
 72
    65
 73
     4
 40
22.0
 49
4.0
 49
-5.0
 49
6.0
 49
-7.0
  0
LTYPE
  2
RAND5
 70
    64
  3
ランダム線5
 72
    65
 73
     4
 40
26.0
 49
5.0
 49
-6.0
 49
7.0
 49
-8.0
  0
LTYPE
  2
LONG1
 70
    64
  3
----------  --  ----------  --  
 72
    65
 73
     4
 40
40.0
 49
32.5
 49
-2.5
 49
2.5
 49
-2.5
  0
LTYPE
  2
LONG2
 70
    64
  3
--------  -  -  --------  -  -  
 72
    65
 73
     6
 40
40.0
 49
30.0
 49
-2.5
 49
1.25
 49
-2.5
 49
1.25
 49
-2.5
  0
LTYPE
  2
LONG3
 70
    64
  3
+++++++++++++++..+++++++++++++++
 72
    65
 73
     2
 40
40.0
 49
37.5
 49
-2.5
  0
LTYPE
  2
LONG4
 70
    64
  3
+++++++++++++++..+++++++++++++++
 72
    65
 73
     2
 40
80.0
 49
75.0
 49
-5.0
  0
LTYPE
  2
LONG5
 70
    64
  3
----------  --  ----------  --  
 72
    65
 73
     4
 40
60.0
 49
37.5
 49
-7.5
 49
7.5
 49
-7.5
  0
LTYPE
  2
dashed
 70
   64
  3
-------   -------------   ------
 72
   65
 73
    2
 40
7.5
 49
6
 49
-1.5
  0
LTYPE
  2
dashed_spaced
 70
   64
  3
----        --------        ----
 72
   65
 73
    2
 40
12
 49
6
 49
-6
  0
LTYPE
  2
long_dashed_dotted
 70
   64
  3
------------- --- --------------
 72
   65
 73
    4
 40
15.25
 49
12
 49
-1.5
 49
0.25
 49
-1.5
  0
LTYPE
  2
long_dashed_double-dotted
 70
   64
  3
----------- --- --- ------------
 72
   65
 73
    6
 40
17
 49
12
 49
-1.5
 49
0.25
 49
-1.5
 49
0.25
 49
-1.5
  0
LTYPE
  2
long_dashed_triplicate-dotted
 70
   64
  3
--------- --- --- --- ----------
 72
   65
 73
    8
 40
18.75
 49
12
 49
-1.5
 49
0.25
 49
-1.5
 49
0.25
 49
-1.5
 49
0.25
 49
-1.5
  0
LTYPE
  2
dotted
 70
   64
  3
   -       -       -       -    
 72
   65
 73
    2
 40
1.75
 49
0.25
 49
-1.5
  0
LTYPE
  2
chain
 70
   64
  3
-------------- -- --------------
 72
   65
 73
    4
 40
18.5
 49
12
 49
-1.5
 49
3.5
 49
-1.5
  0
LTYPE
  2
chain_double_dash
 70
   64
  3
------------ -- -- -------------
 72
   65
 73
    6
 40
23.5
 49
12
 49
-1.5
 49
3.5
 49
-1.5
 49
3.5
 49
-1.5
  0
LTYPE
  2
dashed_dotted
 70
   64
  3
-----------     -     ----------
 72
   65
 73
    4
 40
9.25
 49
6
 49
-1.5
 49
0.25
 49
-1.5
  0
LTYPE
  2
double-dashed_dotted
 70
   64
  3
------   -----------   -   -----
 72
   65
 73
    6
 40
16.75
 49
6
 49
-1.5
 49
6
 49
-1.5
 49
0.25
 49
-1.5
  0
LTYPE
  2
dashed_double-dotted
 70
   64
  3
---------    -    -    ---------
 72
   65
 73
    6
 40
11
 49
6
 49
-1.5
 49
0.25
 49
-1.5
 49
0.25
 49
-1.5
  0
LTYPE
  2
double-dashed_double-dotted
 70
   64
  3
-----   ---------   -   -   ----
 72
   65
 73
    8
 40
18.5
 49
6
 49
-1.5
 49
6
 49
-1.5
 49
0.25
 49
-1.5
 49
0.25
 49
-1.5
  0
LTYPE
  2
dashed_triplicate-dotted
 70
   64
  3
-------    -    -    -    ------
 72
   65
 73
    8
 40
12.75
 49
6
 49
-1.5
 49
0.25
 49
-1.5
 49
0.25
 49
-1.5
 49
0.25
 49
-1.5
  0
LTYPE
  2
double-dashed_triplicate-dotted
 70
   64
  3
-----  ---------  -  -  -  -----
 72
   65
 73
   10
 40
20.25
 49
6
 49
-1.5
 49
6
 49
-1.5
 49
0.25
 49
-1.5
 49
0.25
 49
-1.5
 49
0.25
 49
-1.5
  0
LTYPE
  2
undefined
 70
   64
  3
--------------------------------
 72
   65
 73
    0
 40
0
  0
ENDTAB
  0
TABLE
  2
STYLE
  5
3
100
AcDbSymbolTable
 70
     1
  0
STYLE
  5
10
100
AcDbSymbolTableRecord
100
AcDbTextStyleTableRecord
  2
STANDARD
 70
     0
 40
0.0
 41
1.0
 50
0.0
 71
     0
 42
0.2
  3
txt
  4
bigfont.shx
  0
STYLE
  5
26
100
AcDbSymbolTableRecord
100
AcDbTextStyleTableRecord
  2
TATEGAKI
 70
    68
 40
0.0
 41
1.0
 50
0.0
 71
     0
 42
1.0
  3
txt
  4
bigfont.shx
  0
ENDTAB
  0
TABLE
  2
LAYER
 70
    3
  0
LAYER
  2
_0-0_
 70
   64
 62
    7
  6
CONTINUOUS
  0
LAYER
  2
_0-1_
 70
   64
 62
    7
  6
CONTINUOUS
  0
LAYER
  2
ADD_LINE
 70
   64
 62
    7
  6
CONTINUOUS
  0
ENDTAB
  0
ENDSEC
  0
SECTION
  2
BLOCKS
  0
ENDSEC
  0
SECTION
  2
ENTITIES
  0
LINE
  8
_0-1_
  6
CONTINUOUS
 62
    1
 10
575.0076896283914
 20
16.497576866325744
 11
20.677933193614535
 21
16.49757686632563
  0
LINE
  8
ADD_LINE
  6
DOT
 62
    7
 10
582.99999994280029
 20
10.000000039999804
 11
582.99999994280029
 21
410.00000000000006
  0
LINE
  8
ADD_LINE
  6
DOT
 62
    7
 10
582.99999994280029
 20
410.00000000000006
 11
11
 21
410
  0
LINE
  8
ADD_LINE
  6
DOT
 62
    7
 10
11
 20
410
 11
11
 21
10.000000039999804
  0
LINE
  8
ADD_LINE
  6
DOT
 62
    7
 10
11
 20
10.000000039999804
 11
582.99999994280029
 21
10.000000039999804
  0
LINE
  8
_0-1_
  6
CONTINUOUS
 62
    1
 10
20.677933193614535
 20
401.39069076820829
 11
575.0076896283914
 21
401.39069076820834
  0
LINE
  8
_0-1_
  6
CONTINUOUS
 62
    1
 10
575.0076896283914
 20
401.39069076820834
 11
575.0076896283914
 21
16.497576866325744
  0
LINE
  8
_0-1_
  6
CONTINUOUS
 62
    1
 10
20.677933193614535
 20
16.49757686632563
 11
20.677933193614535
 21
401.39069076820829
  0
LINE
  8
_0-1_
  6
CONTINUOUS
 62
    1
 10
445.0076896283914
 20
52.497576862725737
 11
445.0076896283914
 21
16.497576866325744
  0
LINE
  8
_0-1_
  6
CONTINUOUS
 62
    1
 10
575.0076896283914
 20
52.497576862725651
 11
190.11457572650875
 21
52.497576862725651
  0
LINE
  8
_0-1_
  6
CONTINUOUS
 62
    7
 10
213.85858586458744
 20
23.459434510626039
 11
222.26628546898348
 21
23.459434510626039
  0
LINE
  8
_0-1_
  6
CONTINUOUS
 62
    7
 10
222.26628546898348
 20
23.459434510626039
 11
222.26628546898348
 21
31.87897293210986
  0
LINE
  8
_0-1_
  6
CONTINUOUS
 62
    7
 10
213.85858586458744
 20
31.87897293210986
 11
213.85858586458744
 21
23.459434510626039
  0
LINE
  8
_0-1_
  6
CONTINUOUS
 62
    7
 10
222.26628546898348
 20
31.87897293210986
 11
213.85858586458744
 21
31.87897293210986
  0
LINE
  8
_0-1_
  6
CONTINUOUS
 62
    7
 10
223.21892979390032
 20
34.624556458357716
 11
227.51892979390027
 21
42.072374930903692
  0
LINE
  8
_0-1_
  6
CONTINUOUS
 62
    7
 10
223.21892979390032
 20
34.624556458357716
 11
231.81892979390034
 21
34.624556458357716
  0
LINE
  8
_0-1_
  6
CONTINUOUS
 62
    7
 10
227.51892979390027
 20
42.072374930903692
 11
231.81892979390034
 21
34.624556458357716
  0
CIRCLE
  8
_0-1_
  6
CONTINUOUS
 62
    7
 10
234.28446871424012
 20
43.663914886914057
 40
2.9517431670324767
  0
LINE
  8
_0-1_
  6
CONTINUOUS
 62
    2
 10
240.21806050914131
 20
27.852434834984848
 11
243.84259044683222
 21
27.852434834984848
  0
LINE
  8
_0-1_
  6
CONTINUOUS
 62
    2
 10
244.77520576314225
 20
25.852434834984962
 11
245.98760567434533
 21
23.252434834984825
  0
LINE
  8
_0-1_
  6
CONTINUOUS
 62
    2
 10
239.28544519283128
 20
25.852434834984962
 11
238.07304528162831
 21
23.252434834984825
  0
LINE
  8
_0-1_
  6
CONTINUOUS
 62
    2
 10
242.03032547798682
 20
31.738849602471106
 11
243.84259044683222
 21
27.852434834984848
  0
LINE
  8
_0-1_
  6
CONTINUOUS
 62
    2
 10
242.03032547798682
 20
31.738849602471106
 11
240.21806050914131
 21
27.852434834984848
  0
LINE
  8
_0-1_
  6
CONTINUOUS
 62
    2
 10
240.84036584575665
 20
34.762690929351407
 11
235.47304528162829
 21
23.252434834984825
  0
LINE
  8
_0-1_
  6
CONTINUOUS
 62
    2
 10
256.52611142394699
 20
32.762690929351407
 11
256.67573944045375
 21
32.680577439832433
  0
LINE
  8
_0-1_
  6
CONTINUOUS
 62
    2
 10
256.67573944045375
 20
32.680577439832433
 11
256.93093234604976
 21
32.537118374336416
  0
LINE
  8
_0-1_
  6
CONTINUOUS
 62
    2
 10
256.93093234604976
 20
32.537118374336416
 11
257.17838515939911
 21
32.388425743375279
  0
LINE
  8
_0-1_
  6
CONTINUOUS
 62
    2
 10
257.17838515939911
 20
32.388425743375279
 11
257.41319908794048
 21
32.231187163744295
  0
LINE
  8
_0-1_
  6
CONTINUOUS
 62
    2
 10
257.41319908794048
 20
32.231187163744295
 11
257.63047533911288
 21
32.062090252237482
  0
LINE
  8
_0-1_
  6
CONTINUOUS
 62
    2
 10
257.63047533911288
 20
32.062090252237482
 11
257.82531512035496
 21
31.877822625649657
  0
LINE
  8
_0-1_
  6
CONTINUOUS
 62
    2
 10
257.82531512035496
 20
31.877822625649657
 11
257.92611142394708
 21
31.762690929351407
  0
LINE
  8
_0-1_
  6
CONTINUOUS
 62
    2
 10
257.92611142394708
 20
31.762690929351407
 11
258.07000869841295
 21
31.559621869802328
  0
LINE
  8
_0-1_
  6
CONTINUOUS
 62
    2
 10
258.07000869841295
 20
31.559621869802328
 11
258.26091983992421
 21
31.171265970771088
  0
LINE
  8
_0-1_
  6
CONTINUOUS
 62
    2
 10
258.26091983992421
 20
31.171265970771088
 11
258.3897933866931
 21
30.742160656889524
  0
LINE
  8
_0-1_
  6
CONTINUOUS
 62
    2
 10
258.3897933866931
 20
30.742160656889524
 11
258.46866629444787
 21
30.281203180307813
  0
LINE
  8
_0-1_
  6
CONTINUOUS
 62
    2
 10
258.46866629444787
 20
30.281203180307813
 11
258.50957551891656
 21
29.797290793177382
  0
LINE
  8
_0-1_
  6
CONTINUOUS
 62
    2
 10
258.50957551891656
 20
29.797290793177382
 11
258.52455801582732
 21
29.299320747648522
  0
LINE
  8
_0-1_
  6
CONTINUOUS
 62
    2
 10
258.52455801582732
 20
29.299320747648522
 11
258.52611142394699
 21
29.007562882168173
  0
LINE
  8
_0-1_
  6
CONTINUOUS
 62
    2
 10
258.52611142394699
 20
29.007562882168173
 11
258.52455801582732
 21
28.715805016687938
  0
LINE
  8
_0-1_
  6
CONTINUOUS
 62
    2
 10
258.52455801582732
 20
28.715805016687938
 11
258.50957551891656
 21
28.217834971159078
  0
LINE
  8
_0-1_
  6
CONTINUOUS
 62
    2
 10
258.50957551891656
 20
28.217834971159078
 11
258.46866629444787
 21
27.733922584028761
  0
LINE
  8
_0-1_
  6
CONTINUOUS
 62
    2
 10
258.46866629444787
 20
27.733922584028761
 11
258.3897933866931
 21
27.27296510744705
  0
LINE
  8
_0-1_
  6
CONTINUOUS
 62
    2
 10
258.3897933866931
 20
27.27296510744705
 11
258.26091983992421
 21
26.843859793565144
  0
LINE
  8
_0-1_
  6
CONTINUOUS
 62
    2
 10
258.26091983992421
 20
26.843859793565144
 11
258.07000869841295
 21
26.455503894534019
  0
LINE
  8
_0-1_
  6
CONTINUOUS
 62
    2
 10
258.07000869841295
 20
26.455503894534019
 11
257.92611142394708
 21
26.252434834984825
  0
LINE
  8
_0-1_
  6
CONTINUOUS
 62
    2
 10
257.92611142394708
 20
26.252434834984825
 11
257.82531512035496
 21
26.137303138686917
  0
LINE
  8
_0-1_
  6
CONTINUOUS
 62
    2
 10
257.82531512035496
 20
26.137303138686917
 11
257.63047533911288
 21
25.953035512099092
  0
LINE
  8
_0-1_
  6
CONTINUOUS
 62
    2
 10
257.63047533911288
 20
25.953035512099092
 11
257.41319908794048
 21
25.783938600592052
  0
LINE
  8
_0-1_
  6
CONTINUOUS
 62
    2
 10
257.41319908794048
 20
25.783938600592052
 11
257.17838515939911
 21
25.626700020961067
  0
LINE
  8
_0-1_
  6
CONTINUOUS
 62
    2
 10
257.17838515939911
 20
25.626700020961067
 11
256.93093234604976
 21
25.478007390000045
  0
LINE
  8
_0-1_
  6
CONTINUOUS
 62
    2
 10
256.93093234604976
 20
25.478007390000045
 11
256.67573944045375
 21
25.334548324503686
  0
LINE
  8
_0-1_
  6
CONTINUOUS
 62
    2
 10
256.67573944045375
 20
25.334548324503686
 11
256.52611142394699
 21
25.252434834984825
  0
LINE
  8
_0-1_
  6
CONTINUOUS
 62
    2
 10
256.52611142394699
 20
23.252434834984825
 11
256.65708887699577
 21
23.286342444894359
  0
LINE
  8
_0-1_
  6
CONTINUOUS
 62
    2
 10
256.65708887699577
 20
23.286342444894359
 11
256.88304360791562
 21
23.345391286276396
  0
LINE
  8
_0-1_
  6
CONTINUOUS
 62
    2
 10
256.88304360791562
 20
23.345391286276396
 11
257.10936371663638
 21
23.406071919288394
  0
LINE
  8
_0-1_
  6
CONTINUOUS
 62
    2
 10
257.10936371663638
 20
23.406071919288394
 11
257.33628045493037
 21
23.469417123442355
  0
LINE
  8
_0-1_
  6
CONTINUOUS
 62
    2
 10
257.33628045493037
 20
23.469417123442355
 11
257.56402507457028
 21
23.536459678250054
  0
LINE
  8
_0-1_
  6
CONTINUOUS
 62
    2
 10
257.56402507457028
 20
23.536459678250054
 11
257.79282882732866
 21
23.608232363224857
  0
LINE
  8
_0-1_
  6
CONTINUOUS
 62
    2
 10
257.79282882732866
 20
23.608232363224857
 11
257.92611142394708
 21
23.652434834984803
  0
LINE
  8
_0-1_
  6
CONTINUOUS
 62
    2
 10
257.92611142394708
 20
23.652434834984803
 11
258.19111990253361
 21
23.746400301346085
  0
LINE
  8
_0-1_
  6
CONTINUOUS
 62
    2
 10
258.19111990253361
 20
23.746400301346085
 11
258.64492508472824
 21
23.930681387931969
  0
LINE
  8
_0-1_
  6
CONTINUOUS
 62
    2
 10
258.64492508472824
 20
23.930681387931969
 11
259.0834249414994
 21
24.147005859804636
  0
LINE
  8
_0-1_
  6
CONTINUOUS
 62
    2
 10
259.0834249414994
 20
24.147005859804636
 11
259.49339424573145
 21
24.399852098700222
  0
LINE
  8
_0-1_
  6
CONTINUOUS
 62
    2
 10
259.49339424573145
 20
24.399852098700222
 11
259.86160777030886
 21
24.693698486355089
  0
LINE
  8
_0-1_
  6
CONTINUOUS
 62
    2
 10
259.86160777030886
 20
24.693698486355089
 11
260.17484028811623
 21
25.03302340450503
  0
LINE
  8
_0-1_
  6
CONTINUOUS
 62
    2
 10
260.17484028811623
 20
25.03302340450503
 11
260.32611142394694
 21
25.252434834984825
  0
LINE
  8
_0-1_
  6
CONTINUOUS
 62
    2
 10
260.32611142394694
 20
25.252434834984825
 11
260.37625242544073
 21
25.338804081030645
  0
LINE
  8
_0-1_
  6
CONTINUOUS
 62
    2
 10
260.37625242544073
 20
25.338804081030645
 11
260.45507101839075
 21
25.492868297704405
  0
LINE
  8
_0-1_
  6
CONTINUOUS
 62
    2
 10
260.45507101839075
 20
25.492868297704405
 11
260.52532726241066
 21
25.652490813614605
  0
LINE
  8
_0-1_
  6
CONTINUOUS
 62
    2
 10
260.52532726241066
 20
25.652490813614605
 11
260.58829751012127
 21
25.816552012785365
  0
LINE
  8
_0-1_
  6
CONTINUOUS
 62
    2
 10
260.58829751012127
 20
25.816552012785365
 11
260.6452581141433
 21
25.983932279241145
  0
LINE
  8
_0-1_
  6
CONTINUOUS
 62
    2
 10
260.6452581141433
 20
25.983932279241145
 11
260.69748542709772
 21
26.15351199700595
  0
LINE
  8
_0-1_
  6
CONTINUOUS
 62
    2
 10
260.69748542709772
 20
26.15351199700595
 11
260.72611142394703
 21
26.252434834984825
  0
LINE
  8
_0-1_
  6
CONTINUOUS
 62
    2
 10
260.72611142394703
 20
26.252434834984825
 11
260.79574175382697
 21
26.508889497314982
  0
LINE
  8
_0-1_
  6
CONTINUOUS
 62
    2
 10
260.79574175382697
 20
26.508889497314982
 11
260.9010481802311
 21
26.953059308101871
  0
LINE
  8
_0-1_
  6
CONTINUOUS
 62
    2
 10
260.9010481802311
 20
26.953059308101871
 11
260.987075146596
 21
27.399367574635818
  0
LINE
  8
_0-1_
  6
CONTINUOUS
 62
    2
 10
260.987075146596
 20
27.399367574635818
 11
261.05310892472153
 21
27.847347385181621
  0
LINE
  8
_0-1_
  6
CONTINUOUS
 62
    2
 10
261.05310892472153
 20
27.847347385181621
 11
261.09843578640834
 21
28.296531828004078
  0
LINE
  8
_0-1_
  6
CONTINUOUS
 62
    2
 10
261.09843578640834
 20
28.296531828004078
 11
261.12234200345688
 21
28.746453991368099
  0
LINE
  8
_0-1_
  6
CONTINUOUS
 62
    2
 10
261.12234200345688
 20
28.746453991368099
 11
261.12611142394701
 21
29.007562882168173
  0
LINE
  8
_0-1_
  6
CONTINUOUS
 62
    2
 10
261.12611142394701
 20
29.007562882168173
 11
261.12234200345688
 21
29.268671772968361
  0
LINE
  8
_0-1_
  6
CONTINUOUS
 62
    2
 10
261.12234200345688
 20
29.268671772968361
 11
261.09843578640834
 21
29.718593936332269
  0
LINE
  8
_0-1_
  6
CONTINUOUS
 62
    2
 10
261.09843578640834
 20
29.718593936332269
 11
261.05310892472153
 21
30.167778379154498
  0
LINE
  8
_0-1_
  6
CONTINUOUS
 62
    2
 10
261.05310892472153
 20
30.167778379154498
 11
260.987075146596
 21
30.615758189700301
  0
LINE
  8
_0-1_
  6
CONTINUOUS
 62
    2
 10
260.987075146596
 20
30.615758189700301
 11
260.9010481802311
 21
31.062066456234476
  0
LINE
  8
_0-1_
  6
CONTINUOUS
 62
    2
 10
260.9010481802311
 20
31.062066456234476
 11
260.79574175382697
 21
31.506236267021251
  0
LINE
  8
_0-1_
  6
CONTINUOUS
 62
    2
 10
260.79574175382697
 20
31.506236267021251
 11
260.72611142394703
 21
31.762690929351407
  0
LINE
  8
_0-1_
  6
CONTINUOUS
 62
    2
 10
260.72611142394703
 20
31.762690929351407
 11
260.69748542709772
 21
31.861613767330397
  0
LINE
  8
_0-1_
  6
CONTINUOUS
 62
    2
 10
260.69748542709772
 20
31.861613767330397
 11
260.6452581141433
 21
32.031193485094974
  0
LINE
  8
_0-1_
  6
CONTINUOUS
 62
    2
 10
260.6452581141433
 20
32.031193485094974
 11
260.58829751012127
 21
32.198573751550754
  0
LINE
  8
_0-1_
  6
CONTINUOUS
 62
    2
 10
260.58829751012127
 20
32.198573751550754
 11
260.52532726241066
 21
32.362634950721855
  0
LINE
  8
_0-1_
  6
CONTINUOUS
 62
    2
 10
260.52532726241066
 20
32.362634950721855
 11
260.45507101839075
 21
32.522257466631942
  0
LINE
  8
_0-1_
  6
CONTINUOUS
 62
    2
 10
260.45507101839075
 20
32.522257466631942
 11
260.37625242544073
 21
32.676321683305474
  0
LINE
  8
_0-1_
  6
CONTINUOUS
 62
    2
 10
260.37625242544073
 20
32.676321683305474
 11
260.32611142394694
 21
32.762690929351407
  0
LINE
  8
_0-1_
  6
CONTINUOUS
 62
    2
 10
260.32611142394694
 20
32.762690929351407
 11
260.17484028811623
 21
32.98210235983143
  0
LINE
  8
_0-1_
  6
CONTINUOUS
 62
    2
 10
260.17484028811623
 20
32.98210235983143
 11
259.86160777030886
 21
33.321427277981371
  0
LINE
  8
_0-1_
  6
CONTINUOUS
 62
    2
 10
259.86160777030886
 20
33.321427277981371
 11
259.49339424573145
 21
33.61527366563601
  0
LINE
  8
_0-1_
  6
CONTINUOUS
 62
    2
 10
259.49339424573145
 20
33.61527366563601
 11
259.0834249414994
 21
33.868119904531483
  0
LINE
  8
_0-1_
  6
CONTINUOUS
 62
    2
 10
259.0834249414994
 20
33.868119904531483
 11
258.64492508472824
 21
34.084444376404264
  0
LINE
  8
_0-1_
  6
CONTINUOUS
 62
    2
 10
258.64492508472824
 20
34.084444376404264
 11
258.19111990253361
 21
34.268725462990147
  0
LINE
  8
_0-1_
  6
CONTINUOUS
 62
    2
 10
258.19111990253361
 20
34.268725462990147
 11
257.92611142394708
 21
34.36269092935143
  0
LINE
  8
_0-1_
  6
CONTINUOUS
 62
    2
 10
257.92611142394708
 20
34.36269092935143
 11
257.79282882732866
 21
34.406893401111262
  0
LINE
  8
_0-1_
  6
CONTINUOUS
 62
    2
 10
257.79282882732866
 20
34.406893401111262
 11
257.56402507457028
 21
34.478666086086292
  0
LINE
  8
_0-1_
  6
CONTINUOUS
 62
    2
 10
257.56402507457028
 20
34.478666086086292
 11
257.33628045493037
 21
34.545708640894219
  0
LINE
  8
_0-1_
  6
CONTINUOUS
 62
    2
 10
257.33628045493037
 20
34.545708640894219
 11
257.10936371663638
 21
34.609053845047839
  0
LINE
  8
_0-1_
  6
CONTINUOUS
 62
    2
 10
257.10936371663638
 20
34.609053845047839
 11
256.88304360791562
 21
34.669734478059723
  0
LINE
  8
_0-1_
  6
CONTINUOUS
 62
    2
 10
256.88304360791562
 20
34.669734478059723
 11
256.65708887699577
 21
34.72878331944176
  0
LINE
  8
_0-1_
  6
CONTINUOUS
 62
    2
 10
256.65708887699577
 20
34.72878331944176
 11
256.52611142394699
 21
34.762690929351407
  0
LINE
  8
_0-1_
  6
CONTINUOUS
 62
    2
 10
263.72611142394703
 20
34.762690929351407
 11
267.79343198807533
 21
26.040293831647233
  0
LINE
  8
_0-1_
  6
CONTINUOUS
 62
    2
 10
271.86075255220373
 20
34.762690929351407
 11
267.79343198807533
 21
26.040293831647233
  0
LINE
  8
_0-1_
  6
CONTINUOUS
 62
    2
 10
261.12611142394701
 20
34.762690929351407
 11
266.49343198807537
 21
23.252434834984825
  0
LINE
  8
_0-1_
  6
CONTINUOUS
 62
    2
 10
269.09343198807539
 20
23.252434834984825
 11
274.46075255220376
 21
34.762690929351407
  0
LINE
  8
_0-1_
  6
CONTINUOUS
 62
    2
 10
276.46075255220376
 20
34.762690929351407
 11
271.09343198807539
 21
23.252434834984825
  0
LINE
  8
_0-1_
  6
CONTINUOUS
 62
    2
 10
279.13162047309766
 20
34.762690929351407
 11
284.4989410372259
 21
23.252434834984825
  0
LINE
  8
_0-1_
  6
CONTINUOUS
 62
    2
 10
239.28544519283128
 20
25.852434834984962
 11
244.77520576314225
 21
25.852434834984962
  0
LINE
  8
_0-1_
  6
CONTINUOUS
 62
    2
 10
274.90583189927838
 20
25.852434834984962
 11
280.68654112602303
 21
25.852434834984962
  0
LINE
  8
_0-1_
  6
CONTINUOUS
 62
    2
 10
275.83844721558842
 20
27.852434834984848
 11
279.753925809713
 21
27.852434834984848
  0
LINE
  8
_0-1_
  6
CONTINUOUS
 62
    2
 10
288.25203795999198
 20
32.762690929351407
 11
294.19470552217058
 21
23.252434834984825
  0
LINE
  8
_0-1_
  6
CONTINUOUS
 62
    2
 10
295.40955671524159
 20
25.459842335626519
 11
295.40955671524159
 21
34.762690929351407
  0
LINE
  8
_0-1_
  6
CONTINUOUS
 62
    2
 10
297.60955671524164
 20
23.252434834984825
 11
297.60955671524164
 21
34.762690929351407
  0
LINE
  8
_0-1_
  6
CONTINUOUS
 62
    2
 10
289.59649174357003
 20
34.762690929351407
 11
295.40955671524159
 21
25.459842335626519
  0
LINE
  8
_0-1_
  6
CONTINUOUS
 62
    2
 10
285.65203795999196
 20
34.762690929351407
 11
285.65203795999196
 21
23.252434834984825
  0
LINE
  8
_0-1_
  6
CONTINUOUS
 62
    2
 10
256.52611142394699
 20
32.762690929351407
 11
252.52611142394699
 21
32.762690929351407
  0
LINE
  8
_0-1_
  6
CONTINUOUS
 62
    2
 10
252.52611142394699
 20
25.252434834984825
 11
256.52611142394699
 21
25.252434834984825
  0
LINE
  8
_0-1_
  6
CONTINUOUS
 62
    2
 10
279.753925809713
 20
27.852434834984848
 11
277.79618651265071
 21
32.050820306088582
  0
LINE
  8
_0-1_
  6
CONTINUOUS
 62
    2
 10
275.83844721558842
 20
27.852434834984848
 11
277.79618651265071
 21
32.050820306088582
  0
LINE
  8
_0-1_
  6
CONTINUOUS
 62
    2
 10
273.69343198807542
 20
23.252434834984825
 11
274.90583189927838
 21
25.852434834984962
  0
LINE
  8
_0-1_
  6
CONTINUOUS
 62
    2
 10
281.898941037226
 20
23.252434834984825
 11
280.68654112602303
 21
25.852434834984962
  0
LINE
  8
_0-1_
  6
CONTINUOUS
 62
    2
 10
288.25203795999198
 20
32.762690929351407
 11
288.25203795999198
 21
23.252434834984825
  0
LINE
  8
_0-1_
  6
CONTINUOUS
 62
    2
 10
235.47304528162829
 20
23.252434834984825
 11
238.07304528162831
 21
23.252434834984825
  0
LINE
  8
_0-1_
  6
CONTINUOUS
 62
    2
 10
245.98760567434533
 20
23.252434834984825
 11
248.58760567434524
 21
23.252434834984825
  0
LINE
  8
_0-1_
  6
CONTINUOUS
 62
    2
 10
243.22028511021699
 20
34.762690929351407
 11
248.58760567434524
 21
23.252434834984825
  0
LINE
  8
_0-1_
  6
CONTINUOUS
 62
    2
 10
243.22028511021699
 20
34.762690929351407
 11
240.84036584575665
 21
34.762690929351407
  0
LINE
  8
_0-1_
  6
CONTINUOUS
 62
    2
 10
249.92611142394708
 20
34.762690929351407
 11
249.92611142394708
 21
23.252434834984825
  0
LINE
  8
_0-1_
  6
CONTINUOUS
 62
    2
 10
252.52611142394699
 20
32.762690929351407
 11
252.52611142394699
 21
25.252434834984825
  0
LINE
  8
_0-1_
  6
CONTINUOUS
 62
    2
 10
249.92611142394708
 20
23.252434834984825
 11
256.52611142394699
 21
23.252434834984825
  0
LINE
  8
_0-1_
  6
CONTINUOUS
 62
    2
 10
256.52611142394699
 20
34.762690929351407
 11
249.92611142394708
 21
34.762690929351407
  0
LINE
  8
_0-1_
  6
CONTINUOUS
 62
    2
 10
263.72611142394703
 20
34.762690929351407
 11
261.12611142394701
 21
34.762690929351407
  0
LINE
  8
_0-1_
  6
CONTINUOUS
 62
    2
 10
266.49343198807537
 20
23.252434834984825
 11
269.09343198807539
 21
23.252434834984825
  0
LINE
  8
_0-1_
  6
CONTINUOUS
 62
    2
 10
274.46075255220376
 20
34.762690929351407
 11
271.86075255220373
 21
34.762690929351407
  0
LINE
  8
_0-1_
  6
CONTINUOUS
 62
    2
 10
271.09343198807539
 20
23.252434834984825
 11
273.69343198807542
 21
23.252434834984825
  0
LINE
  8
_0-1_
  6
CONTINUOUS
 62
    2
 10
281.898941037226
 20
23.252434834984825
 11
284.4989410372259
 21
23.252434834984825
  0
LINE
  8
_0-1_
  6
CONTINUOUS
 62
    2
 10
285.65203795999196
 20
23.252434834984825
 11
288.25203795999198
 21
23.252434834984825
  0
LINE
  8
_0-1_
  6
CONTINUOUS
 62
    2
 10
294.19470552217058
 20
23.252434834984825
 11
297.60955671524164
 21
23.252434834984825
  0
LINE
  8
_0-1_
  6
CONTINUOUS
 62
    2
 10
297.60955671524164
 20
34.762690929351407
 11
295.40955671524159
 21
34.762690929351407
  0
LINE
  8
_0-1_
  6
CONTINUOUS
 62
    2
 10
289.59649174357003
 20
34.762690929351407
 11
285.65203795999196
 21
34.762690929351407
  0
LINE
  8
_0-1_
  6
CONTINUOUS
 62
    2
 10
279.13162047309766
 20
34.762690929351407
 11
276.46075255220376
 21
34.762690929351407
  0
LINE
  8
_0-1_
  6
CONTINUOUS
 62
    2
 10
235.61772007442062
 20
23.562690929351362
 11
238.21772007442064
 21
23.562690929351362
  0
LINE
  8
_0-1_
  6
CONTINUOUS
 62
    2
 10
245.842930881553
 20
23.562690929351362
 11
248.44293088155291
 21
23.562690929351362
  0
LINE
  8
_0-1_
  6
CONTINUOUS
 62
    2
 10
249.92611142394708
 20
23.562690929351362
 11
257.64764753753991
 21
23.562690929351362
  0
LINE
  8
_0-1_
  6
CONTINUOUS
 62
    2
 10
266.34875719528304
 20
23.562690929351362
 11
269.23810678086772
 21
23.562690929351362
  0
LINE
  8
_0-1_
  6
CONTINUOUS
 62
    2
 10
271.23810678086784
 20
23.562690929351362
 11
273.83810678086775
 21
23.562690929351362
  0
LINE
  8
_0-1_
  6
CONTINUOUS
 62
    2
 10
281.75426624443367
 20
23.562690929351362
 11
284.35426624443357
 21
23.562690929351362
  0
LINE
  8
_0-1_
  6
CONTINUOUS
 62
    2
 10
285.65203795999196
 20
23.562690929351362
 11
288.25203795999198
 21
23.562690929351362
  0
LINE
  8
_0-1_
  6
CONTINUOUS
 62
    2
 10
294.00083599755783
 20
23.562690929351362
 11
297.60955671524164
 21
23.562690929351362
  0
LINE
  8
_0-1_
  6
CONTINUOUS
 62
    2
 10
235.80424313768265
 20
23.962690929351453
 11
238.40424313768267
 21
23.962690929351453
  0
LINE
  8
_0-1_
  6
CONTINUOUS
 62
    2
 10
245.65640781829097
 20
23.962690929351453
 11
248.25640781829088
 21
23.962690929351453
  0
LINE
  8
_0-1_
  6
CONTINUOUS
 62
    2
 10
249.92611142394708
 20
23.962690929351453
 11
258.70980992741943
 21
23.962690929351453
  0
LINE
  8
_0-1_
  6
CONTINUOUS
 62
    2
 10
266.16223413202101
 20
23.962690929351453
 11
269.42462984412975
 21
23.962690929351453
  0
LINE
  8
_0-1_
  6
CONTINUOUS
 62
    2
 10
271.42462984412975
 20
23.962690929351453
 11
274.02462984412978
 21
23.962690929351453
  0
LINE
  8
_0-1_
  6
CONTINUOUS
 62
    2
 10
281.56774318117164
 20
23.962690929351453
 11
284.16774318117155
 21
23.962690929351453
  0
LINE
  8
_0-1_
  6
CONTINUOUS
 62
    2
 10
285.65203795999196
 20
23.962690929351453
 11
288.25203795999198
 21
23.962690929351453
  0
LINE
  8
_0-1_
  6
CONTINUOUS
 62
    2
 10
293.75088825679416
 20
23.962690929351453
 11
297.60955671524164
 21
23.962690929351453
  0
LINE
  8
_0-1_
  6
CONTINUOUS
 62
    2
 10
235.99076620094468
 20
24.36269092935143
 11
238.5907662009447
 21
24.36269092935143
  0
LINE
  8
_0-1_
  6
CONTINUOUS
 62
    2
 10
245.46988475502894
 20
24.36269092935143
 11
248.06988475502885
 21
24.36269092935143
  0
LINE
  8
_0-1_
  6
CONTINUOUS
 62
    2
 10
249.92611142394708
 20
24.36269092935143
 11
259.43314047723993
 21
24.36269092935143
  0
LINE
  8
_0-1_
  6
CONTINUOUS
 62
    2
 10
265.97571106875898
 20
24.36269092935143
 11
269.61115290739178
 21
24.36269092935143
  0
LINE
  8
_0-1_
  6
CONTINUOUS
 62
    2
 10
271.61115290739178
 20
24.36269092935143
 11
274.21115290739181
 21
24.36269092935143
  0
LINE
  8
_0-1_
  6
CONTINUOUS
 62
    2
 10
281.38122011790961
 20
24.36269092935143
 11
283.98122011790952
 21
24.36269092935143
  0
LINE
  8
_0-1_
  6
CONTINUOUS
 62
    2
 10
285.65203795999196
 20
24.36269092935143
 11
288.25203795999198
 21
24.36269092935143
  0
LINE
  8
_0-1_
  6
CONTINUOUS
 62
    2
 10
293.50094051603037
 20
24.36269092935143
 11
297.60955671524164
 21
24.36269092935143
  0
LINE
  8
_0-1_
  6
CONTINUOUS
 62
    2
 10
236.17728926420659
 20
24.762690929351521
 11
238.77728926420673
 21
24.762690929351521
  0
LINE
  8
_0-1_
  6
CONTINUOUS
 62
    2
 10
245.28336169176691
 20
24.762690929351521
 11
247.88336169176694
 21
24.762690929351521
  0
LINE
  8
_0-1_
  6
CONTINUOUS
 62
    2
 10
249.92611142394708
 20
24.762690929351521
 11
259.92529503721312
 21
24.762690929351521
  0
LINE
  8
_0-1_
  6
CONTINUOUS
 62
    2
 10
265.78918800549695
 20
24.762690929351521
 11
269.7976759706537
 21
24.762690929351521
  0
LINE
  8
_0-1_
  6
CONTINUOUS
 62
    2
 10
271.7976759706537
 20
24.762690929351521
 11
274.39767597065372
 21
24.762690929351521
  0
LINE
  8
_0-1_
  6
CONTINUOUS
 62
    2
 10
281.19469705464758
 20
24.762690929351521
 11
283.7946970546476
 21
24.762690929351521
  0
LINE
  8
_0-1_
  6
CONTINUOUS
 62
    2
 10
285.65203795999196
 20
24.762690929351521
 11
288.25203795999198
 21
24.762690929351521
  0
LINE
  8
_0-1_
  6
CONTINUOUS
 62
    2
 10
293.2509927752667
 20
24.762690929351521
 11
297.60955671524164
 21
24.762690929351521
  0
LINE
  8
_0-1_
  6
CONTINUOUS
 62
    2
 10
236.36381232746862
 20
25.162690929351385
 11
238.96381232746864
 21
25.162690929351385
  0
LINE
  8
_0-1_
  6
CONTINUOUS
 62
    2
 10
245.09683862850488
 20
25.162690929351385
 11
247.69683862850491
 21
25.162690929351385
  0
LINE
  8
_0-1_
  6
CONTINUOUS
 62
    2
 10
249.92611142394708
 20
25.162690929351385
 11
260.26423833689137
 21
25.162690929351385
  0
LINE
  8
_0-1_
  6
CONTINUOUS
 62
    2
 10
265.60266494223504
 20
25.162690929351385
 11
269.98419903391573
 21
25.162690929351385
  0
LINE
  8
_0-1_
  6
CONTINUOUS
 62
    2
 10
271.98419903391573
 20
25.162690929351385
 11
274.58419903391575
 21
25.162690929351385
  0
LINE
  8
_0-1_
  6
CONTINUOUS
 62
    2
 10
281.00817399138555
 20
25.162690929351385
 11
283.60817399138568
 21
25.162690929351385
  0
LINE
  8
_0-1_
  6
CONTINUOUS
 62
    2
 10
285.65203795999196
 20
25.162690929351385
 11
288.25203795999198
 21
25.162690929351385
  0
LINE
  8
_0-1_
  6
CONTINUOUS
 62
    2
 10
293.00104503450291
 20
25.162690929351385
 11
297.60955671524164
 21
25.162690929351385
  0
LINE
  8
_0-1_
  6
CONTINUOUS
 62
    2
 10
236.55033539073065
 20
25.562690929351248
 11
239.15033539073067
 21
25.562690929351248
  0
LINE
  8
_0-1_
  6
CONTINUOUS
 62
    2
 10
244.91031556524285
 20
25.562690929351248
 11
247.51031556524299
 21
25.562690929351248
  0
LINE
  8
_0-1_
  6
CONTINUOUS
 62
    2
 10
249.92611142394708
 20
25.562690929351248
 11
252.52611142394699
 21
25.562690929351248
  0
LINE
  8
_0-1_
  6
CONTINUOUS
 62
    2
 10
257.07186185897478
 20
25.562690929351248
 11
260.48580274705159
 21
25.562690929351248
  0
LINE
  8
_0-1_
  6
CONTINUOUS
 62
    2
 10
265.41614187897301
 20
25.562690929351248
 11
270.17072209717776
 21
25.562690929351248
  0
LINE
  8
_0-1_
  6
CONTINUOUS
 62
    2
 10
272.17072209717776
 20
25.562690929351248
 11
274.77072209717778
 21
25.562690929351248
  0
LINE
  8
_0-1_
  6
CONTINUOUS
 62
    2
 10
280.82165092812363
 20
25.562690929351248
 11
283.42165092812365
 21
25.562690929351248
  0
LINE
  8
_0-1_
  6
CONTINUOUS
 62
    2
 10
285.65203795999196
 20
25.562690929351248
 11
288.25203795999198
 21
25.562690929351248
  0
LINE
  8
_0-1_
  6
CONTINUOUS
 62
    2
 10
292.75109729373912
 20
25.562690929351248
 11
295.34528978113576
 21
25.562690929351248
  0
LINE
  8
_0-1_
  6
CONTINUOUS
 62
    2
 10
295.40955671524159
 20
25.562690929351248
 11
297.60955671524164
 21
25.562690929351248
  0
LINE
  8
_0-1_
  6
CONTINUOUS
 62
    2
 10
236.73685845399268
 20
25.962690929351453
 11
247.32379250198096
 21
25.962690929351453
  0
LINE
  8
_0-1_
  6
CONTINUOUS
 62
    2
 10
249.92611142394708
 20
25.962690929351453
 11
252.52611142394699
 21
25.962690929351453
  0
LINE
  8
_0-1_
  6
CONTINUOUS
 62
    2
 10
257.6406847254284
 20
25.962690929351453
 11
260.63802954326343
 21
25.962690929351453
  0
LINE
  8
_0-1_
  6
CONTINUOUS
 62
    2
 10
265.22961881571098
 20
25.962690929351453
 11
270.35724516043979
 21
25.962690929351453
  0
LINE
  8
_0-1_
  6
CONTINUOUS
 62
    2
 10
272.35724516043979
 20
25.962690929351453
 11
283.23512786486162
 21
25.962690929351453
  0
LINE
  8
_0-1_
  6
CONTINUOUS
 62
    2
 10
285.65203795999196
 20
25.962690929351453
 11
288.25203795999198
 21
25.962690929351453
  0
LINE
  8
_0-1_
  6
CONTINUOUS
 62
    2
 10
292.50114955297545
 20
25.962690929351453
 11
295.09534204037209
 21
25.962690929351453
  0
LINE
  8
_0-1_
  6
CONTINUOUS
 62
    2
 10
295.40955671524159
 20
25.962690929351453
 11
297.60955671524164
 21
25.962690929351453
  0
LINE
  8
_0-1_
  6
CONTINUOUS
 62
    2
 10
236.92338151725471
 20
26.362690929351544
 11
247.13726943871893
 21
26.362690929351544
  0
LINE
  8
_0-1_
  6
CONTINUOUS
 62
    2
 10
249.92611142394708
 20
26.362690929351544
 11
252.52611142394699
 21
26.362690929351544
  0
LINE
  8
_0-1_
  6
CONTINUOUS
 62
    2
 10
258.00424027089116
 20
26.362690929351544
 11
260.75604719564353
 21
26.362690929351544
  0
LINE
  8
_0-1_
  6
CONTINUOUS
 62
    2
 10
265.04309575244906
 20
26.362690929351544
 11
267.64309575244897
 21
26.362690929351544
  0
LINE
  8
_0-1_
  6
CONTINUOUS
 62
    2
 10
267.9437682237018
 20
26.362690929351544
 11
270.54376822370182
 21
26.362690929351544
  0
LINE
  8
_0-1_
  6
CONTINUOUS
 62
    2
 10
272.54376822370182
 20
26.362690929351544
 11
283.04860480159959
 21
26.362690929351544
  0
LINE
  8
_0-1_
  6
CONTINUOUS
 62
    2
 10
285.65203795999196
 20
26.362690929351544
 11
288.25203795999198
 21
26.362690929351544
  0
LINE
  8
_0-1_
  6
CONTINUOUS
 62
    2
 10
292.25120181221178
 20
26.362690929351544
 11
294.8453942996083
 21
26.362690929351544
  0
LINE
  8
_0-1_
  6
CONTINUOUS
 62
    2
 10
295.40955671524159
 20
26.362690929351544
 11
297.60955671524164
 21
26.362690929351544
  0
LINE
  8
_0-1_
  6
CONTINUOUS
 62
    2
 10
237.10990458051674
 20
26.762690929351521
 11
246.9507463754569
 21
26.762690929351521
  0
LINE
  8
_0-1_
  6
CONTINUOUS
 62
    2
 10
249.92611142394708
 20
26.762690929351521
 11
252.52611142394699
 21
26.762690929351521
  0
LINE
  8
_0-1_
  6
CONTINUOUS
 62
    2
 10
258.22101819156285
 20
26.762690929351521
 11
260.85591451022538
 21
26.762690929351521
  0
LINE
  8
_0-1_
  6
CONTINUOUS
 62
    2
 10
264.85657268918703
 20
26.762690929351521
 11
267.45657268918694
 21
26.762690929351521
  0
LINE
  8
_0-1_
  6
CONTINUOUS
 62
    2
 10
268.13029128696371
 20
26.762690929351521
 11
270.73029128696373
 21
26.762690929351521
  0
LINE
  8
_0-1_
  6
CONTINUOUS
 62
    2
 10
272.73029128696373
 20
26.762690929351521
 11
282.86208173833757
 21
26.762690929351521
  0
LINE
  8
_0-1_
  6
CONTINUOUS
 62
    2
 10
285.65203795999196
 20
26.762690929351521
 11
288.25203795999198
 21
26.762690929351521
  0
LINE
  8
_0-1_
  6
CONTINUOUS
 62
    2
 10
292.00125407144799
 20
26.762690929351521
 11
294.59544655884463
 21
26.762690929351521
  0
LINE
  8
_0-1_
  6
CONTINUOUS
 62
    2
 10
295.40955671524159
 20
26.762690929351521
 11
297.60955671524164
 21
26.762690929351521
  0
LINE
  8
_0-1_
  6
CONTINUOUS
 62
    2
 10
237.29642764377866
 20
27.162690929351385
 11
246.76422331219487
 21
27.162690929351385
  0
LINE
  8
_0-1_
  6
CONTINUOUS
 62
    2
 10
249.92611142394708
 20
27.162690929351385
 11
252.52611142394699
 21
27.162690929351385
  0
LINE
  8
_0-1_
  6
CONTINUOUS
 62
    2
 10
258.35667465339282
 20
27.162690929351385
 11
260.94145516746948
 21
27.162690929351385
  0
LINE
  8
_0-1_
  6
CONTINUOUS
 62
    2
 10
264.670049625925
 20
27.162690929351385
 11
267.27004962592503
 21
27.162690929351385
  0
LINE
  8
_0-1_
  6
CONTINUOUS
 62
    2
 10
268.31681435022574
 20
27.162690929351385
 11
270.91681435022576
 21
27.162690929351385
  0
LINE
  8
_0-1_
  6
CONTINUOUS
 62
    2
 10
272.91681435022576
 20
27.162690929351385
 11
282.67555867507554
 21
27.162690929351385
  0
LINE
  8
_0-1_
  6
CONTINUOUS
 62
    2
 10
285.65203795999196
 20
27.162690929351385
 11
288.25203795999198
 21
27.162690929351385
  0
LINE
  8
_0-1_
  6
CONTINUOUS
 62
    2
 10
291.75130633068432
 20
27.162690929351385
 11
294.34549881808084
 21
27.162690929351385
  0
LINE
  8
_0-1_
  6
CONTINUOUS
 62
    2
 10
295.40955671524159
 20
27.162690929351385
 11
297.60955671524164
 21
27.162690929351385
  0
LINE
  8
_0-1_
  6
CONTINUOUS
 62
    2
 10
237.48295070704069
 20
27.562690929351362
 11
246.57770024893284
 21
27.562690929351362
  0
LINE
  8
_0-1_
  6
CONTINUOUS
 62
    2
 10
249.92611142394708
 20
27.562690929351362
 11
252.52611142394699
 21
27.562690929351362
  0
LINE
  8
_0-1_
  6
CONTINUOUS
 62
    2
 10
258.43936741290202
 20
27.562690929351362
 11
261.01114957565301
 21
27.562690929351362
  0
LINE
  8
_0-1_
  6
CONTINUOUS
 62
    2
 10
264.48352656266297
 20
27.562690929351362
 11
267.083526562663
 21
27.562690929351362
  0
LINE
  8
_0-1_
  6
CONTINUOUS
 62
    2
 10
268.50333741348777
 20
27.562690929351362
 11
271.10333741348768
 21
27.562690929351362
  0
LINE
  8
_0-1_
  6
CONTINUOUS
 62
    2
 10
273.10333741348779
 20
27.562690929351362
 11
282.48903561181362
 21
27.562690929351362
  0
LINE
  8
_0-1_
  6
CONTINUOUS
 62
    2
 10
285.65203795999196
 20
27.562690929351362
 11
288.25203795999198
 21
27.562690929351362
  0
LINE
  8
_0-1_
  6
CONTINUOUS
 62
    2
 10
291.50135858992053
 20
27.562690929351362
 11
294.09555107731717
 21
27.562690929351362
  0
LINE
  8
_0-1_
  6
CONTINUOUS
 62
    2
 10
295.40955671524159
 20
27.562690929351362
 11
297.60955671524164
 21
27.562690929351362
  0
LINE
  8
_0-1_
  6
CONTINUOUS
 62
    2
 10
237.6694737703026
 20
27.962690929351453
 11
240.26947377030262
 21
27.962690929351453
  0
LINE
  8
_0-1_
  6
CONTINUOUS
 62
    2
 10
243.7911771856709
 20
27.962690929351453
 11
246.39117718567093
 21
27.962690929351453
  0
LINE
  8
_0-1_
  6
CONTINUOUS
 62
    2
 10
249.92611142394708
 20
27.962690929351453
 11
252.52611142394699
 21
27.962690929351453
  0
LINE
  8
_0-1_
  6
CONTINUOUS
 62
    2
 10
258.48800602585175
 20
27.962690929351453
 11
261.06474815434444
 21
27.962690929351453
  0
LINE
  8
_0-1_
  6
CONTINUOUS
 62
    2
 10
264.29700349940094
 20
27.962690929351453
 11
266.89700349940108
 21
27.962690929351453
  0
LINE
  8
_0-1_
  6
CONTINUOUS
 62
    2
 10
268.6898604767498
 20
27.962690929351453
 11
271.28986047674971
 21
27.962690929351453
  0
LINE
  8
_0-1_
  6
CONTINUOUS
 62
    2
 10
273.28986047674971
 20
27.962690929351453
 11
275.88986047674973
 21
27.962690929351453
  0
LINE
  8
_0-1_
  6
CONTINUOUS
 62
    2
 10
279.70251254855157
 20
27.962690929351453
 11
282.30251254855159
 21
27.962690929351453
  0
LINE
  8
_0-1_
  6
CONTINUOUS
 62
    2
 10
285.65203795999196
 20
27.962690929351453
 11
288.25203795999198
 21
27.962690929351453
  0
LINE
  8
_0-1_
  6
CONTINUOUS
 62
    2
 10
291.25141084915685
 20
27.962690929351453
 11
293.84560333655338
 21
27.962690929351453
  0
LINE
  8
_0-1_
  6
CONTINUOUS
 62
    2
 10
295.40955671524159
 20
27.962690929351453
 11
297.60955671524164
 21
27.962690929351453
  0
LINE
  8
_0-1_
  6
CONTINUOUS
 62
    2
 10
237.85599683356463
 20
28.362690929351658
 11
240.45599683356465
 21
28.362690929351658
  0
LINE
  8
_0-1_
  6
CONTINUOUS
 62
    2
 10
243.60465412240887
 20
28.362690929351658
 11
246.2046541224089
 21
28.362690929351658
  0
LINE
  8
_0-1_
  6
CONTINUOUS
 62
    2
 10
249.92611142394708
 20
28.362690929351658
 11
252.52611142394699
 21
28.362690929351658
  0
LINE
  8
_0-1_
  6
CONTINUOUS
 62
    2
 10
258.51393382111883
 20
28.362690929351658
 11
261.10195109186634
 21
28.362690929351658
  0
LINE
  8
_0-1_
  6
CONTINUOUS
 62
    2
 10
264.11048043613891
 20
28.362690929351658
 11
266.71048043613905
 21
28.362690929351658
  0
LINE
  8
_0-1_
  6
CONTINUOUS
 62
    2
 10
268.87638354001183
 20
28.362690929351658
 11
271.47638354001174
 21
28.362690929351658
  0
LINE
  8
_0-1_
  6
CONTINUOUS
 62
    2
 10
273.47638354001174
 20
28.362690929351658
 11
276.07638354001176
 21
28.362690929351658
  0
LINE
  8
_0-1_
  6
CONTINUOUS
 62
    2
 10
279.51598948528965
 20
28.362690929351658
 11
282.11598948528967
 21
28.362690929351658
  0
LINE
  8
_0-1_
  6
CONTINUOUS
 62
    2
 10
285.65203795999196
 20
28.362690929351658
 11
288.25203795999198
 21
28.362690929351658
  0
LINE
  8
_0-1_
  6
CONTINUOUS
 62
    2
 10
291.00146310839307
 20
28.362690929351658
 11
293.59565559578971
 21
28.362690929351658
  0
LINE
  8
_0-1_
  6
CONTINUOUS
 62
    2
 10
295.40955671524159
 20
28.362690929351658
 11
297.60955671524164
 21
28.362690929351658
  0
LINE
  8
_0-1_
  6
CONTINUOUS
 62
    2
 10
238.04251989682666
 20
28.762690929351407
 11
240.64251989682657
 21
28.762690929351407
  0
LINE
  8
_0-1_
  6
CONTINUOUS
 62
    2
 10
243.41813105914684
 20
28.762690929351407
 11
246.01813105914698
 21
28.762690929351407
  0
LINE
  8
_0-1_
  6
CONTINUOUS
 62
    2
 10
249.92611142394708
 20
28.762690929351407
 11
252.52611142394699
 21
28.762690929351407
  0
LINE
  8
_0-1_
  6
CONTINUOUS
 62
    2
 10
258.52480765076791
 20
28.762690929351407
 11
261.12257640316091
 21
28.762690929351407
  0
LINE
  8
_0-1_
  6
CONTINUOUS
 62
    2
 10
263.923957372877
 20
28.762690929351407
 11
266.52395737287702
 21
28.762690929351407
  0
LINE
  8
_0-1_
  6
CONTINUOUS
 62
    2
 10
269.06290660327375
 20
28.762690929351407
 11
271.66290660327377
 21
28.762690929351407
  0
LINE
  8
_0-1_
  6
CONTINUOUS
 62
    2
 10
273.66290660327377
 20
28.762690929351407
 11
276.26290660327368
 21
28.762690929351407
  0
LINE
  8
_0-1_
  6
CONTINUOUS
 62
    2
 10
279.32946642202762
 20
28.762690929351407
 11
281.92946642202764
 21
28.762690929351407
  0
LINE
  8
_0-1_
  6
CONTINUOUS
 62
    2
 10
285.65203795999196
 20
28.762690929351407
 11
288.25203795999198
 21
28.762690929351407
  0
LINE
  8
_0-1_
  6
CONTINUOUS
 62
    2
 10
290.75151536762939
 20
28.762690929351407
 11
293.34570785502592
 21
28.762690929351407
  0
LINE
  8
_0-1_
  6
CONTINUOUS
 62
    2
 10
295.40955671524159
 20
28.762690929351407
 11
297.60955671524164
 21
28.762690929351407
  0
LINE
  8
_0-1_
  6
CONTINUOUS
 62
    2
 10
238.22904296008869
 20
29.162690929351498
 11
240.8290429600886
 21
29.162690929351498
  0
LINE
  8
_0-1_
  6
CONTINUOUS
 62
    2
 10
243.23160799588493
 20
29.162690929351498
 11
245.83160799588495
 21
29.162690929351498
  0
LINE
  8
_0-1_
  6
CONTINUOUS
 62
    2
 10
249.92611142394708
 20
29.162690929351498
 11
252.52611142394699
 21
29.162690929351498
  0
LINE
  8
_0-1_
  6
CONTINUOUS
 62
    2
 10
258.52528547477266
 20
29.162690929351498
 11
261.12387196424163
 21
29.162690929351498
  0
LINE
  8
_0-1_
  6
CONTINUOUS
 62
    2
 10
263.73743430961508
 20
29.162690929351498
 11
266.33743430961499
 21
29.162690929351498
  0
LINE
  8
_0-1_
  6
CONTINUOUS
 62
    2
 10
269.24942966653578
 20
29.162690929351498
 11
271.8494296665358
 21
29.162690929351498
  0
LINE
  8
_0-1_
  6
CONTINUOUS
 62
    2
 10
273.8494296665358
 20
29.162690929351498
 11
276.44942966653571
 21
29.162690929351498
  0
LINE
  8
_0-1_
  6
CONTINUOUS
 62
    2
 10
279.14294335876571
 20
29.162690929351498
 11
281.74294335876561
 21
29.162690929351498
  0
LINE
  8
_0-1_
  6
CONTINUOUS
 62
    2
 10
285.65203795999196
 20
29.162690929351498
 11
288.25203795999198
 21
29.162690929351498
  0
LINE
  8
_0-1_
  6
CONTINUOUS
 62
    2
 10
290.50156762686561
 20
29.162690929351498
 11
293.09576011426225
 21
29.162690929351498
  0
LINE
  8
_0-1_
  6
CONTINUOUS
 62
    2
 10
295.40955671524159
 20
29.162690929351498
 11
297.60955671524164
 21
29.162690929351498
  0
LINE
  8
_0-1_
  6
CONTINUOUS
 62
    2
 10
238.41556602335072
 20
29.562690929351476
 11
241.01556602335063
 21
29.562690929351476
  0
LINE
  8
_0-1_
  6
CONTINUOUS
 62
    2
 10
243.04508493262301
 20
29.562690929351476
 11
245.64508493262292
 21
29.562690929351476
  0
LINE
  8
_0-1_
  6
CONTINUOUS
 62
    2
 10
249.92611142394708
 20
29.562690929351476
 11
252.52611142394699
 21
29.562690929351476
  0
LINE
  8
_0-1_
  6
CONTINUOUS
 62
    2
 10
258.51663395901062
 20
29.562690929351476
 11
261.10671955508406
 21
29.562690929351476
  0
LINE
  8
_0-1_
  6
CONTINUOUS
 62
    2
 10
263.55091124635305
 20
29.562690929351476
 11
266.15091124635296
 21
29.562690929351476
  0
LINE
  8
_0-1_
  6
CONTINUOUS
 62
    2
 10
269.43595272979769
 20
29.562690929351476
 11
272.03595272979771
 21
29.562690929351476
  0
LINE
  8
_0-1_
  6
CONTINUOUS
 62
    2
 10
274.03595272979783
 20
29.562690929351476
 11
276.63595272979774
 21
29.562690929351476
  0
LINE
  8
_0-1_
  6
CONTINUOUS
 62
    2
 10
278.95642029550368
 20
29.562690929351476
 11
281.55642029550359
 21
29.562690929351476
  0
LINE
  8
_0-1_
  6
CONTINUOUS
 62
    2
 10
285.65203795999196
 20
29.562690929351476
 11
288.25203795999198
 21
29.562690929351476
  0
LINE
  8
_0-1_
  6
CONTINUOUS
 62
    2
 10
290.25161988610182
 20
29.562690929351476
 11
292.84581237349846
 21
29.562690929351476
  0
LINE
  8
_0-1_
  6
CONTINUOUS
 62
    2
 10
295.40955671524159
 20
29.562690929351476
 11
297.60955671524164
 21
29.562690929351476
  0
LINE
  8
_0-1_
  6
CONTINUOUS
 62
    2
 10
238.60208908661264
 20
29.962690929351226
 11
241.20208908661266
 21
29.962690929351226
  0
LINE
  8
_0-1_
  6
CONTINUOUS
 62
    2
 10
242.85856186936098
 20
29.962690929351226
 11
245.45856186936089
 21
29.962690929351226
  0
LINE
  8
_0-1_
  6
CONTINUOUS
 62
    2
 10
249.92611142394708
 20
29.962690929351226
 11
252.52611142394699
 21
29.962690929351226
  0
LINE
  8
_0-1_
  6
CONTINUOUS
 62
    2
 10
258.49559284048576
 20
29.962690929351226
 11
261.07380414384477
 21
29.962690929351226
  0
LINE
  8
_0-1_
  6
CONTINUOUS
 62
    2
 10
263.36438818309102
 20
29.962690929351226
 11
265.96438818309105
 21
29.962690929351226
  0
LINE
  8
_0-1_
  6
CONTINUOUS
 62
    2
 10
269.62247579305972
 20
29.962690929351226
 11
272.22247579305974
 21
29.962690929351226
  0
LINE
  8
_0-1_
  6
CONTINUOUS
 62
    2
 10
274.22247579305974
 20
29.962690929351226
 11
276.82247579305977
 21
29.962690929351226
  0
LINE
  8
_0-1_
  6
CONTINUOUS
 62
    2
 10
278.76989723224165
 20
29.962690929351226
 11
281.36989723224167
 21
29.962690929351226
  0
LINE
  8
_0-1_
  6
CONTINUOUS
 62
    2
 10
285.65203795999196
 20
29.962690929351226
 11
288.25203795999198
 21
29.962690929351226
  0
LINE
  8
_0-1_
  6
CONTINUOUS
 62
    2
 10
290.00167214533815
 20
29.962690929351226
 11
292.59586463273479
 21
29.962690929351226
  0
LINE
  8
_0-1_
  6
CONTINUOUS
 62
    2
 10
295.40955671524159
 20
29.962690929351226
 11
297.60955671524164
 21
29.962690929351226
  0
LINE
  8
_0-1_
  6
CONTINUOUS
 62
    2
 10
238.78861214987467
 20
30.362690929351658
 11
241.38861214987469
 21
30.362690929351658
  0
LINE
  8
_0-1_
  6
CONTINUOUS
 62
    2
 10
242.67203880609895
 20
30.362690929351658
 11
245.27203880609886
 21
30.362690929351658
  0
LINE
  8
_0-1_
  6
CONTINUOUS
 62
    2
 10
249.92611142394708
 20
30.362690929351658
 11
252.52611142394699
 21
30.362690929351658
  0
LINE
  8
_0-1_
  6
CONTINUOUS
 62
    2
 10
258.45472319548537
 20
30.362690929351658
 11
261.02437813866686
 21
30.362690929351658
  0
LINE
  8
_0-1_
  6
CONTINUOUS
 62
    2
 10
263.17786511982899
 20
30.362690929351658
 11
265.77786511982902
 21
30.362690929351658
  0
LINE
  8
_0-1_
  6
CONTINUOUS
 62
    2
 10
269.80899885632175
 20
30.362690929351658
 11
272.40899885632177
 21
30.362690929351658
  0
LINE
  8
_0-1_
  6
CONTINUOUS
 62
    2
 10
274.40899885632177
 20
30.362690929351658
 11
277.0089988563218
 21
30.362690929351658
  0
LINE
  8
_0-1_
  6
CONTINUOUS
 62
    2
 10
278.58337416897962
 20
30.362690929351658
 11
281.18337416897964
 21
30.362690929351658
  0
LINE
  8
_0-1_
  6
CONTINUOUS
 62
    2
 10
285.65203795999196
 20
30.362690929351658
 11
288.25203795999198
 21
30.362690929351658
  0
LINE
  8
_0-1_
  6
CONTINUOUS
 62
    2
 10
289.75172440457447
 20
30.362690929351658
 11
292.345916891971
 21
30.362690929351658
  0
LINE
  8
_0-1_
  6
CONTINUOUS
 62
    2
 10
295.40955671524159
 20
30.362690929351658
 11
297.60955671524164
 21
30.362690929351658
  0
LINE
  8
_0-1_
  6
CONTINUOUS
 62
    2
 10
238.97513521313658
 20
30.762690929351407
 11
241.57513521313672
 21
30.762690929351407
  0
LINE
  8
_0-1_
  6
CONTINUOUS
 62
    2
 10
242.48551574283692
 20
30.762690929351407
 11
245.08551574283695
 21
30.762690929351407
  0
LINE
  8
_0-1_
  6
CONTINUOUS
 62
    2
 10
249.92611142394708
 20
30.762690929351407
 11
252.52611142394699
 21
30.762690929351407
  0
LINE
  8
_0-1_
  6
CONTINUOUS
 62
    2
 10
258.38362751332193
 20
30.762690929351407
 11
260.9587535160108
 21
30.762690929351407
  0
LINE
  8
_0-1_
  6
CONTINUOUS
 62
    2
 10
262.99134205656696
 20
30.762690929351407
 11
265.59134205656699
 21
30.762690929351407
  0
LINE
  8
_0-1_
  6
CONTINUOUS
 62
    2
 10
269.99552191958378
 20
30.762690929351407
 11
272.59552191958369
 21
30.762690929351407
  0
LINE
  8
_0-1_
  6
CONTINUOUS
 62
    2
 10
274.59552191958369
 20
30.762690929351407
 11
277.19552191958383
 21
30.762690929351407
  0
LINE
  8
_0-1_
  6
CONTINUOUS
 62
    2
 10
278.39685110571759
 20
30.762690929351407
 11
280.99685110571761
 21
30.762690929351407
  0
LINE
  8
_0-1_
  6
CONTINUOUS
 62
    2
 10
285.65203795999196
 20
30.762690929351407
 11
288.25203795999198
 21
30.762690929351407
  0
LINE
  8
_0-1_
  6
CONTINUOUS
 62
    2
 10
289.50177666381069
 20
30.762690929351407
 11
292.09596915120733
 21
30.762690929351407
  0
LINE
  8
_0-1_
  6
CONTINUOUS
 62
    2
 10
295.40955671524159
 20
30.762690929351407
 11
297.60955671524164
 21
30.762690929351407
  0
LINE
  8
_0-1_
  6
CONTINUOUS
 62
    2
 10
239.16165827639861
 20
31.162690929351498
 11
241.76165827639875
 21
31.162690929351498
  0
LINE
  8
_0-1_
  6
CONTINUOUS
 62
    2
 10
242.29899267957489
 20
31.162690929351498
 11
244.89899267957492
 21
31.162690929351498
  0
LINE
  8
_0-1_
  6
CONTINUOUS
 62
    2
 10
249.92611142394708
 20
31.162690929351498
 11
252.52611142394699
 21
31.162690929351498
  0
LINE
  8
_0-1_
  6
CONTINUOUS
 62
    2
 10
258.263495189065
 20
31.162690929351498
 11
260.8771915303297
 21
31.162690929351498
  0
LINE
  8
_0-1_
  6
CONTINUOUS
 62
    2
 10
262.80481899330493
 20
31.162690929351498
 11
265.40481899330507
 21
31.162690929351498
  0
LINE
  8
_0-1_
  6
CONTINUOUS
 62
    2
 10
270.18204498284581
 20
31.162690929351498
 11
272.78204498284572
 21
31.162690929351498
  0
LINE
  8
_0-1_
  6
CONTINUOUS
 62
    2
 10
274.78204498284572
 20
31.162690929351498
 11
277.38204498284574
 21
31.162690929351498
  0
LINE
  8
_0-1_
  6
CONTINUOUS
 62
    2
 10
278.21032804245556
 20
31.162690929351498
 11
280.81032804245558
 21
31.162690929351498
  0
LINE
  8
_0-1_
  6
CONTINUOUS
 62
    2
 10
285.65203795999196
 20
31.162690929351498
 11
288.25203795999198
 21
31.162690929351498
  0
LINE
  8
_0-1_
  6
CONTINUOUS
 62
    2
 10
289.2518289230469
 20
31.162690929351498
 11
291.84602141044354
 21
31.162690929351498
  0
LINE
  8
_0-1_
  6
CONTINUOUS
 62
    2
 10
295.40955671524159
 20
31.162690929351498
 11
297.60955671524164
 21
31.162690929351498
  0
LINE
  8
_0-1_
  6
CONTINUOUS
 62
    2
 10
239.34818133966064
 20
31.562690929351476
 11
241.94818133966066
 21
31.562690929351476
  0
LINE
  8
_0-1_
  6
CONTINUOUS
 62
    2
 10
242.11246961631286
 20
31.562690929351476
 11
244.712469616313
 21
31.562690929351476
  0
LINE
  8
_0-1_
  6
CONTINUOUS
 62
    2
 10
249.92611142394708
 20
31.562690929351476
 11
252.52611142394699
 21
31.562690929351476
  0
LINE
  8
_0-1_
  6
CONTINUOUS
 62
    2
 10
258.06783392444561
 20
31.562690929351476
 11
260.78041367702156
 21
31.562690929351476
  0
LINE
  8
_0-1_
  6
CONTINUOUS
 62
    2
 10
262.61829593004302
 20
31.562690929351476
 11
265.21829593004304
 21
31.562690929351476
  0
LINE
  8
_0-1_
  6
CONTINUOUS
 62
    2
 10
270.36856804610773
 20
31.562690929351476
 11
272.96856804610775
 21
31.562690929351476
  0
LINE
  8
_0-1_
  6
CONTINUOUS
 62
    2
 10
274.96856804610775
 20
31.562690929351476
 11
277.56856804610766
 21
31.562690929351476
  0
LINE
  8
_0-1_
  6
CONTINUOUS
 62
    2
 10
278.02380497919364
 20
31.562690929351476
 11
280.62380497919366
 21
31.562690929351476
  0
LINE
  8
_0-1_
  6
CONTINUOUS
 62
    2
 10
285.65203795999196
 20
31.562690929351476
 11
288.25203795999198
 21
31.562690929351476
  0
LINE
  8
_0-1_
  6
CONTINUOUS
 62
    2
 10
289.00188118228323
 20
31.562690929351476
 11
291.59607366967987
 21
31.562690929351476
  0
LINE
  8
_0-1_
  6
CONTINUOUS
 62
    2
 10
295.40955671524159
 20
31.562690929351476
 11
297.60955671524164
 21
31.562690929351476
  0
LINE
  8
_0-1_
  6
CONTINUOUS
 62
    2
 10
239.53470440292267
 20
31.962690929351226
 11
244.52594655305097
 21
31.962690929351226
  0
LINE
  8
_0-1_
  6
CONTINUOUS
 62
    2
 10
249.92611142394708
 20
31.962690929351226
 11
252.52611142394699
 21
31.962690929351226
  0
LINE
  8
_0-1_
  6
CONTINUOUS
 62
    2
 10
257.73557759003631
 20
31.962690929351226
 11
260.66635559245117
 21
31.962690929351226
  0
LINE
  8
_0-1_
  6
CONTINUOUS
 62
    2
 10
262.43177286678099
 20
31.962690929351226
 11
265.03177286678101
 21
31.962690929351226
  0
LINE
  8
_0-1_
  6
CONTINUOUS
 62
    2
 10
270.55509110936976
 20
31.962690929351226
 11
273.15509110936978
 21
31.962690929351226
  0
LINE
  8
_0-1_
  6
CONTINUOUS
 62
    2
 10
275.15509110936978
 20
31.962690929351226
 11
277.75509110936969
 21
31.962690929351226
  0
LINE
  8
_0-1_
  6
CONTINUOUS
 62
    2
 10
277.83728191593161
 20
31.962690929351226
 11
280.43728191593164
 21
31.962690929351226
  0
LINE
  8
_0-1_
  6
CONTINUOUS
 62
    2
 10
285.65203795999196
 20
31.962690929351226
 11
288.25203795999198
 21
31.962690929351226
  0
LINE
  8
_0-1_
  6
CONTINUOUS
 62
    2
 10
288.75193344151944
 20
31.962690929351226
 11
291.34612592891608
 21
31.962690929351226
  0
LINE
  8
_0-1_
  6
CONTINUOUS
 62
    2
 10
295.40955671524159
 20
31.962690929351226
 11
297.60955671524164
 21
31.962690929351226
  0
LINE
  8
_0-1_
  6
CONTINUOUS
 62
    2
 10
239.7212274661847
 20
32.362690929351544
 11
244.33942348978894
 21
32.362690929351544
  0
LINE
  8
_0-1_
  6
CONTINUOUS
 62
    2
 10
249.92611142394708
 20
32.362690929351544
 11
252.52611142394699
 21
32.362690929351544
  0
LINE
  8
_0-1_
  6
CONTINUOUS
 62
    2
 10
257.21681652144389
 20
32.362690929351544
 11
260.52530262398011
 21
32.362690929351544
  0
LINE
  8
_0-1_
  6
CONTINUOUS
 62
    2
 10
262.24524980351907
 20
32.362690929351544
 11
264.84524980351898
 21
32.362690929351544
  0
LINE
  8
_0-1_
  6
CONTINUOUS
 62
    2
 10
270.74161417263178
 20
32.362690929351544
 11
273.34161417263181
 21
32.362690929351544
  0
LINE
  8
_0-1_
  6
CONTINUOUS
 62
    2
 10
275.34161417263181
 20
32.362690929351544
 11
280.25075885266961
 21
32.362690929351544
  0
LINE
  8
_0-1_
  6
CONTINUOUS
 62
    2
 10
285.65203795999196
 20
32.362690929351544
 11
288.25203795999198
 21
32.362690929351544
  0
LINE
  8
_0-1_
  6
CONTINUOUS
 62
    2
 10
288.50198570075577
 20
32.362690929351544
 11
291.09617818815241
 21
32.362690929351544
  0
LINE
  8
_0-1_
  6
CONTINUOUS
 62
    2
 10
295.40955671524159
 20
32.362690929351544
 11
297.60955671524164
 21
32.362690929351544
  0
LINE
  8
_0-1_
  6
CONTINUOUS
 62
    2
 10
239.90775052944673
 20
32.762690929351407
 11
244.15290042652691
 21
32.762690929351407
  0
LINE
  8
_0-1_
  6
CONTINUOUS
 62
    2
 10
249.92611142394708
 20
32.762690929351407
 11
252.52611142394699
 21
32.762690929351407
  0
LINE
  8
_0-1_
  6
CONTINUOUS
 62
    2
 10
256.52611142394699
 20
32.762690929351407
 11
260.32611142394694
 21
32.762690929351407
  0
LINE
  8
_0-1_
  6
CONTINUOUS
 62
    2
 10
262.05872674025704
 20
32.762690929351407
 11
264.65872674025695
 21
32.762690929351407
  0
LINE
  8
_0-1_
  6
CONTINUOUS
 62
    2
 10
270.9281372358937
 20
32.762690929351407
 11
273.52813723589372
 21
32.762690929351407
  0
LINE
  8
_0-1_
  6
CONTINUOUS
 62
    2
 10
275.52813723589372
 20
32.762690929351407
 11
280.06423578940758
 21
32.762690929351407
  0
LINE
  8
_0-1_
  6
CONTINUOUS
 62
    2
 10
285.65203795999196
 20
32.762690929351407
 11
288.25203795999198
 21
32.762690929351407
  0
LINE
  8
_0-1_
  6
CONTINUOUS
 62
    2
 10
288.25203795999198
 20
32.762690929351407
 11
290.84623044738862
 21
32.762690929351407
  0
LINE
  8
_0-1_
  6
CONTINUOUS
 62
    2
 10
295.40955671524159
 20
32.762690929351407
 11
297.60955671524164
 21
32.762690929351407
  0
LINE
  8
_0-1_
  6
CONTINUOUS
 62
    2
 10
240.09427359270865
 20
33.162690929351498
 11
243.96637736326488
 21
33.162690929351498
  0
LINE
  8
_0-1_
  6
CONTINUOUS
 62
    2
 10
249.92611142394708
 20
33.162690929351498
 11
260.0081380823766
 21
33.162690929351498
  0
LINE
  8
_0-1_
  6
CONTINUOUS
 62
    2
 10
261.87220367699501
 20
33.162690929351498
 11
264.47220367699504
 21
33.162690929351498
  0
LINE
  8
_0-1_
  6
CONTINUOUS
 62
    2
 10
271.11466029915573
 20
33.162690929351498
 11
273.71466029915575
 21
33.162690929351498
  0
LINE
  8
_0-1_
  6
CONTINUOUS
 62
    2
 10
275.71466029915575
 20
33.162690929351498
 11
279.87771272614555
 21
33.162690929351498
  0
LINE
  8
_0-1_
  6
CONTINUOUS
 62
    2
 10
285.65203795999196
 20
33.162690929351498
 11
290.59628270662495
 21
33.162690929351498
  0
LINE
  8
_0-1_
  6
CONTINUOUS
 62
    2
 10
295.40955671524159
 20
33.162690929351498
 11
297.60955671524164
 21
33.162690929351498
  0
LINE
  8
_0-1_
  6
CONTINUOUS
 62
    2
 10
240.28079665597068
 20
33.562690929351362
 11
243.77985430000285
 21
33.562690929351362
  0
LINE
  8
_0-1_
  6
CONTINUOUS
 62
    2
 10
249.92611142394708
 20
33.562690929351362
 11
259.55928470915978
 21
33.562690929351362
  0
LINE
  8
_0-1_
  6
CONTINUOUS
 62
    2
 10
261.68568061373298
 20
33.562690929351362
 11
264.28568061373301
 21
33.562690929351362
  0
LINE
  8
_0-1_
  6
CONTINUOUS
 62
    2
 10
271.30118336241776
 20
33.562690929351362
 11
273.90118336241778
 21
33.562690929351362
  0
LINE
  8
_0-1_
  6
CONTINUOUS
 62
    2
 10
275.90118336241778
 20
33.562690929351362
 11
279.69118966288363
 21
33.562690929351362
  0
LINE
  8
_0-1_
  6
CONTINUOUS
 62
    2
 10
285.65203795999196
 20
33.562690929351362
 11
290.34633496586116
 21
33.562690929351362
  0
LINE
  8
_0-1_
  6
CONTINUOUS
 62
    2
 10
295.40955671524159
 20
33.562690929351362
 11
297.60955671524164
 21
33.562690929351362
  0
LINE
  8
_0-1_
  6
CONTINUOUS
 62
    2
 10
240.46731971923259
 20
33.962690929351226
 11
243.59333123674094
 21
33.962690929351226
  0
LINE
  8
_0-1_
  6
CONTINUOUS
 62
    2
 10
249.92611142394708
 20
33.962690929351226
 11
258.89172503589384
 21
33.962690929351226
  0
LINE
  8
_0-1_
  6
CONTINUOUS
 62
    2
 10
261.49915755047095
 20
33.962690929351226
 11
264.09915755047109
 21
33.962690929351226
  0
LINE
  8
_0-1_
  6
CONTINUOUS
 62
    2
 10
271.48770642567979
 20
33.962690929351226
 11
274.0877064256797
 21
33.962690929351226
  0
LINE
  8
_0-1_
  6
CONTINUOUS
 62
    2
 10
276.0877064256797
 20
33.962690929351226
 11
279.5046665996216
 21
33.962690929351226
  0
LINE
  8
_0-1_
  6
CONTINUOUS
 62
    2
 10
285.65203795999196
 20
33.962690929351226
 11
290.09638722509749
 21
33.962690929351226
  0
LINE
  8
_0-1_
  6
CONTINUOUS
 62
    2
 10
295.40955671524159
 20
33.962690929351226
 11
297.60955671524164
 21
33.962690929351226
  0
LINE
  8
_0-1_
  6
CONTINUOUS
 62
    2
 10
240.65384278249462
 20
34.36269092935143
 11
243.40680817347891
 21
34.36269092935143
  0
LINE
  8
_0-1_
  6
CONTINUOUS
 62
    2
 10
249.92611142394708
 20
34.36269092935143
 11
257.92611142394708
 21
34.36269092935143
  0
LINE
  8
_0-1_
  6
CONTINUOUS
 62
    2
 10
261.31263448720904
 20
34.36269092935143
 11
263.91263448720906
 21
34.36269092935143
  0
LINE
  8
_0-1_
  6
CONTINUOUS
 62
    2
 10
271.67422948894182
 20
34.36269092935143
 11
274.27422948894173
 21
34.36269092935143
  0
LINE
  8
_0-1_
  6
CONTINUOUS
 62
    2
 10
276.27422948894173
 20
34.36269092935143
 11
279.31814353635968
 21
34.36269092935143
  0
LINE
  8
_0-1_
  6
CONTINUOUS
 62
    2
 10
285.65203795999196
 20
34.36269092935143
 11
289.8464394843337
 21
34.36269092935143
  0
LINE
  8
_0-1_
  6
CONTINUOUS
 62
    2
 10
295.40955671524159
 20
34.36269092935143
 11
297.60955671524164
 21
34.36269092935143
  0
LINE
  8
_0-1_
  6
CONTINUOUS
 62
    2
 10
240.84036584575665
 20
34.762690929351407
 11
243.22028511021699
 21
34.762690929351407
  0
LINE
  8
_0-1_
  6
CONTINUOUS
 62
    2
 10
249.92611142394708
 20
34.762690929351407
 11
256.52611142394699
 21
34.762690929351407
  0
LINE
  8
_0-1_
  6
CONTINUOUS
 62
    2
 10
261.12611142394701
 20
34.762690929351407
 11
263.72611142394703
 21
34.762690929351407
  0
LINE
  8
_0-1_
  6
CONTINUOUS
 62
    2
 10
271.86075255220373
 20
34.762690929351407
 11
274.46075255220376
 21
34.762690929351407
  0
LINE
  8
_0-1_
  6
CONTINUOUS
 62
    2
 10
276.46075255220376
 20
34.762690929351407
 11
279.13162047309766
 21
34.762690929351407
  0
LINE
  8
_0-1_
  6
CONTINUOUS
 62
    2
 10
285.65203795999196
 20
34.762690929351407
 11
289.59649174357003
 21
34.762690929351407
  0
LINE
  8
_0-1_
  6
CONTINUOUS
 62
    2
 10
295.40955671524159
 20
34.762690929351407
 11
297.60955671524164
 21
34.762690929351407
  0
LINE
  8
_0-1_
  6
CONTINUOUS
 62
    2
 10
235.52445854278972
 20
23.362690929351544
 11
238.12445854278963
 21
23.362690929351544
  0
LINE
  8
_0-1_
  6
CONTINUOUS
 62
    2
 10
245.9361924131839
 20
23.362690929351544
 11
248.53619241318393
 21
23.362690929351544
  0
LINE
  8
_0-1_
  6
CONTINUOUS
 62
    2
 10
249.92611142394708
 20
23.362690929351544
 11
256.94756595890647
 21
23.362690929351544
  0
LINE
  8
_0-1_
  6
CONTINUOUS
 62
    2
 10
266.44201872691406
 20
23.362690929351544
 11
269.14484524923682
 21
23.362690929351544
  0
LINE
  8
_0-1_
  6
CONTINUOUS
 62
    2
 10
271.14484524923682
 20
23.362690929351544
 11
273.74484524923673
 21
23.362690929351544
  0
LINE
  8
_0-1_
  6
CONTINUOUS
 62
    2
 10
281.84752777606468
 20
23.362690929351544
 11
284.44752777606459
 21
23.362690929351544
  0
LINE
  8
_0-1_
  6
CONTINUOUS
 62
    2
 10
285.65203795999196
 20
23.362690929351544
 11
288.25203795999198
 21
23.362690929351544
  0
LINE
  8
_0-1_
  6
CONTINUOUS
 62
    2
 10
294.12580986793967
 20
23.362690929351544
 11
297.60955671524164
 21
23.362690929351544
  0
LINE
  8
_0-1_
  6
CONTINUOUS
 62
    2
 10
235.71098160605163
 20
23.762690929351407
 11
238.31098160605166
 21
23.762690929351407
  0
LINE
  8
_0-1_
  6
CONTINUOUS
 62
    2
 10
245.74966934992199
 20
23.762690929351407
 11
248.3496693499219
 21
23.762690929351407
  0
LINE
  8
_0-1_
  6
CONTINUOUS
 62
    2
 10
249.92611142394708
 20
23.762690929351407
 11
258.23123672378188
 21
23.762690929351407
  0
LINE
  8
_0-1_
  6
CONTINUOUS
 62
    2
 10
266.25549566365203
 20
23.762690929351407
 11
269.33136831249874
 21
23.762690929351407
  0
LINE
  8
_0-1_
  6
CONTINUOUS
 62
    2
 10
271.33136831249874
 20
23.762690929351407
 11
273.93136831249876
 21
23.762690929351407
  0
LINE
  8
_0-1_
  6
CONTINUOUS
 62
    2
 10
281.66100471280265
 20
23.762690929351407
 11
284.26100471280256
 21
23.762690929351407
  0
LINE
  8
_0-1_
  6
CONTINUOUS
 62
    2
 10
285.65203795999196
 20
23.762690929351407
 11
288.25203795999198
 21
23.762690929351407
  0
LINE
  8
_0-1_
  6
CONTINUOUS
 62
    2
 10
293.87586212717599
 20
23.762690929351407
 11
297.60955671524164
 21
23.762690929351407
  0
LINE
  8
_0-1_
  6
CONTINUOUS
 62
    2
 10
235.89750466931366
 20
24.162690929351385
 11
238.49750466931368
 21
24.162690929351385
  0
LINE
  8
_0-1_
  6
CONTINUOUS
 62
    2
 10
245.56314628665996
 20
24.162690929351385
 11
248.16314628665987
 21
24.162690929351385
  0
LINE
  8
_0-1_
  6
CONTINUOUS
 62
    2
 10
249.92611142394708
 20
24.162690929351385
 11
259.10885698698689
 21
24.162690929351385
  0
LINE
  8
_0-1_
  6
CONTINUOUS
 62
    2
 10
266.06897260039
 20
24.162690929351385
 11
269.51789137576077
 21
24.162690929351385
  0
LINE
  8
_0-1_
  6
CONTINUOUS
 62
    2
 10
271.51789137576077
 20
24.162690929351385
 11
274.11789137576079
 21
24.162690929351385
  0
LINE
  8
_0-1_
  6
CONTINUOUS
 62
    2
 10
281.47448164954062
 20
24.162690929351385
 11
284.07448164954053
 21
24.162690929351385
  0
LINE
  8
_0-1_
  6
CONTINUOUS
 62
    2
 10
285.65203795999196
 20
24.162690929351385
 11
288.25203795999198
 21
24.162690929351385
  0
LINE
  8
_0-1_
  6
CONTINUOUS
 62
    2
 10
293.62591438641221
 20
24.162690929351385
 11
297.60955671524164
 21
24.162690929351385
  0
LINE
  8
_0-1_
  6
CONTINUOUS
 62
    2
 10
236.08402773257569
 20
24.562690929351362
 11
238.68402773257571
 21
24.562690929351362
  0
LINE
  8
_0-1_
  6
CONTINUOUS
 62
    2
 10
245.37662322339793
 20
24.562690929351362
 11
247.97662322339795
 21
24.562690929351362
  0
LINE
  8
_0-1_
  6
CONTINUOUS
 62
    2
 10
249.92611142394708
 20
24.562690929351362
 11
259.69744460092113
 21
24.562690929351362
  0
LINE
  8
_0-1_
  6
CONTINUOUS
 62
    2
 10
265.88244953712797
 20
24.562690929351362
 11
269.70441443902268
 21
24.562690929351362
  0
LINE
  8
_0-1_
  6
CONTINUOUS
 62
    2
 10
271.70441443902268
 20
24.562690929351362
 11
274.30441443902282
 21
24.562690929351362
  0
LINE
  8
_0-1_
  6
CONTINUOUS
 62
    2
 10
281.28795858627859
 20
24.562690929351362
 11
283.88795858627861
 21
24.562690929351362
  0
LINE
  8
_0-1_
  6
CONTINUOUS
 62
    2
 10
285.65203795999196
 20
24.562690929351362
 11
288.25203795999198
 21
24.562690929351362
  0
LINE
  8
_0-1_
  6
CONTINUOUS
 62
    2
 10
293.37596664564853
 20
24.562690929351362
 11
297.60955671524164
 21
24.562690929351362
  0
LINE
  8
_0-1_
  6
CONTINUOUS
 62
    2
 10
236.27055079583761
 20
24.962690929351453
 11
238.87055079583763
 21
24.962690929351453
  0
LINE
  8
_0-1_
  6
CONTINUOUS
 62
    2
 10
245.1901001601359
 20
24.962690929351453
 11
247.79010016013592
 21
24.962690929351453
  0
LINE
  8
_0-1_
  6
CONTINUOUS
 62
    2
 10
249.92611142394708
 20
24.962690929351453
 11
260.10991603087018
 21
24.962690929351453
  0
LINE
  8
_0-1_
  6
CONTINUOUS
 62
    2
 10
265.69592647386594
 20
24.962690929351453
 11
269.89093750228471
 21
24.962690929351453
  0
LINE
  8
_0-1_
  6
CONTINUOUS
 62
    2
 10
271.89093750228471
 20
24.962690929351453
 11
274.49093750228474
 21
24.962690929351453
  0
LINE
  8
_0-1_
  6
CONTINUOUS
 62
    2
 10
281.10143552301656
 20
24.962690929351453
 11
283.70143552301658
 21
24.962690929351453
  0
LINE
  8
_0-1_
  6
CONTINUOUS
 62
    2
 10
285.65203795999196
 20
24.962690929351453
 11
288.25203795999198
 21
24.962690929351453
  0
LINE
  8
_0-1_
  6
CONTINUOUS
 62
    2
 10
293.12601890488486
 20
24.962690929351453
 11
297.60955671524164
 21
24.962690929351453
  0
LINE
  8
_0-1_
  6
CONTINUOUS
 62
    2
 10
236.45707385909964
 20
25.36269092935143
 11
239.05707385909966
 21
25.36269092935143
  0
LINE
  8
_0-1_
  6
CONTINUOUS
 62
    2
 10
245.00357709687387
 20
25.36269092935143
 11
247.60357709687389
 21
25.36269092935143
  0
LINE
  8
_0-1_
  6
CONTINUOUS
 62
    2
 10
249.92611142394708
 20
25.36269092935143
 11
252.52611142394699
 21
25.36269092935143
  0
LINE
  8
_0-1_
  6
CONTINUOUS
 62
    2
 10
256.72580105961515
 20
25.36269092935143
 11
260.38847283466544
 21
25.36269092935143
  0
LINE
  8
_0-1_
  6
CONTINUOUS
 62
    2
 10
265.50940341060391
 20
25.36269092935143
 11
270.07746056554674
 21
25.36269092935143
  0
LINE
  8
_0-1_
  6
CONTINUOUS
 62
    2
 10
272.07746056554674
 20
25.36269092935143
 11
274.67746056554677
 21
25.36269092935143
  0
LINE
  8
_0-1_
  6
CONTINUOUS
 62
    2
 10
280.91491245975453
 20
25.36269092935143
 11
283.51491245975467
 21
25.36269092935143
  0
LINE
  8
_0-1_
  6
CONTINUOUS
 62
    2
 10
285.65203795999196
 20
25.36269092935143
 11
288.25203795999198
 21
25.36269092935143
  0
LINE
  8
_0-1_
  6
CONTINUOUS
 62
    2
 10
292.87607116412107
 20
25.36269092935143
 11
297.60955671524164
 21
25.36269092935143
  0
LINE
  8
_0-1_
  6
CONTINUOUS
 62
    2
 10
236.64359692236167
 20
25.762690929351521
 11
239.24359692236169
 21
25.762690929351521
  0
LINE
  8
_0-1_
  6
CONTINUOUS
 62
    2
 10
244.81705403361195
 20
25.762690929351521
 11
247.41705403361198
 21
25.762690929351521
  0
LINE
  8
_0-1_
  6
CONTINUOUS
 62
    2
 10
249.92611142394708
 20
25.762690929351521
 11
252.52611142394699
 21
25.762690929351521
  0
LINE
  8
_0-1_
  6
CONTINUOUS
 62
    2
 10
257.38146864895987
 20
25.762690929351521
 11
260.56762445773006
 21
25.762690929351521
  0
LINE
  8
_0-1_
  6
CONTINUOUS
 62
    2
 10
265.32288034734199
 20
25.762690929351521
 11
270.26398362880877
 21
25.762690929351521
  0
LINE
  8
_0-1_
  6
CONTINUOUS
 62
    2
 10
272.26398362880877
 20
25.762690929351521
 11
274.86398362880868
 21
25.762690929351521
  0
LINE
  8
_0-1_
  6
CONTINUOUS
 62
    2
 10
280.72838939649262
 20
25.762690929351521
 11
283.32838939649264
 21
25.762690929351521
  0
LINE
  8
_0-1_
  6
CONTINUOUS
 62
    2
 10
285.65203795999196
 20
25.762690929351521
 11
288.25203795999198
 21
25.762690929351521
  0
LINE
  8
_0-1_
  6
CONTINUOUS
 62
    2
 10
292.62612342335728
 20
25.762690929351521
 11
295.22031591075392
 21
25.762690929351521
  0
LINE
  8
_0-1_
  6
CONTINUOUS
 62
    2
 10
295.40955671524159
 20
25.762690929351521
 11
297.60955671524164
 21
25.762690929351521
  0
LINE
  8
_0-1_
  6
CONTINUOUS
 62
    2
 10
236.8301199856237
 20
26.162690929351385
 11
247.23053097034995
 21
26.162690929351385
  0
LINE
  8
_0-1_
  6
CONTINUOUS
 62
    2
 10
249.92611142394708
 20
26.162690929351385
 11
252.52611142394699
 21
26.162690929351385
  0
LINE
  8
_0-1_
  6
CONTINUOUS
 62
    2
 10
257.84754180108359
 20
26.162690929351385
 11
260.7001415992595
 21
26.162690929351385
  0
LINE
  8
_0-1_
  6
CONTINUOUS
 62
    2
 10
265.13635728407996
 20
26.162690929351385
 11
267.73635728407999
 21
26.162690929351385
  0
LINE
  8
_0-1_
  6
CONTINUOUS
 62
    2
 10
267.85050669207078
 20
26.162690929351385
 11
270.4505066920708
 21
26.162690929351385
  0
LINE
  8
_0-1_
  6
CONTINUOUS
 62
    2
 10
272.4505066920708
 20
26.162690929351385
 11
283.14186633323061
 21
26.162690929351385
  0
LINE
  8
_0-1_
  6
CONTINUOUS
 62
    2
 10
285.65203795999196
 20
26.162690929351385
 11
288.25203795999198
 21
26.162690929351385
  0
LINE
  8
_0-1_
  6
CONTINUOUS
 62
    2
 10
292.37617568259361
 20
26.162690929351385
 11
294.97036816999014
 21
26.162690929351385
  0
LINE
  8
_0-1_
  6
CONTINUOUS
 62
    2
 10
295.40955671524159
 20
26.162690929351385
 11
297.60955671524164
 21
26.162690929351385
  0
LINE
  8
_0-1_
  6
CONTINUOUS
 62
    2
 10
237.01664304888573
 20
26.562690929351362
 11
247.04400790708792
 21
26.562690929351362
  0
LINE
  8
_0-1_
  6
CONTINUOUS
 62
    2
 10
249.92611142394708
 20
26.562690929351362
 11
252.52611142394699
 21
26.562690929351362
  0
LINE
  8
_0-1_
  6
CONTINUOUS
 62
    2
 10
258.12270057002684
 20
26.562690929351362
 11
260.80849731804051
 21
26.562690929351362
  0
LINE
  8
_0-1_
  6
CONTINUOUS
 62
    2
 10
264.94983422081805
 20
26.562690929351362
 11
267.54983422081796
 21
26.562690929351362
  0
LINE
  8
_0-1_
  6
CONTINUOUS
 62
    2
 10
268.0370297553327
 20
26.562690929351362
 11
270.63702975533272
 21
26.562690929351362
  0
LINE
  8
_0-1_
  6
CONTINUOUS
 62
    2
 10
272.63702975533283
 20
26.562690929351362
 11
282.95534326996858
 21
26.562690929351362
  0
LINE
  8
_0-1_
  6
CONTINUOUS
 62
    2
 10
285.65203795999196
 20
26.562690929351362
 11
288.25203795999198
 21
26.562690929351362
  0
LINE
  8
_0-1_
  6
CONTINUOUS
 62
    2
 10
292.12622794182982
 20
26.562690929351362
 11
294.72042042922646
 21
26.562690929351362
  0
LINE
  8
_0-1_
  6
CONTINUOUS
 62
    2
 10
295.40955671524159
 20
26.562690929351362
 11
297.60955671524164
 21
26.562690929351362
  0
LINE
  8
_0-1_
  6
CONTINUOUS
 62
    2
 10
237.20316611214764
 20
26.962690929351453
 11
246.85748484382589
 21
26.962690929351453
  0
LINE
  8
_0-1_
  6
CONTINUOUS
 62
    2
 10
249.92611142394708
 20
26.962690929351453
 11
252.52611142394699
 21
26.962690929351453
  0
LINE
  8
_0-1_
  6
CONTINUOUS
 62
    2
 10
258.29660849126435
 20
26.962690929351453
 11
260.90290469784327
 21
26.962690929351453
  0
LINE
  8
_0-1_
  6
CONTINUOUS
 62
    2
 10
264.76331115755602
 20
26.962690929351453
 11
267.36331115755593
 21
26.962690929351453
  0
LINE
  8
_0-1_
  6
CONTINUOUS
 62
    2
 10
268.22355281859473
 20
26.962690929351453
 11
270.82355281859475
 21
26.962690929351453
  0
LINE
  8
_0-1_
  6
CONTINUOUS
 62
    2
 10
272.82355281859475
 20
26.962690929351453
 11
282.76882020670655
 21
26.962690929351453
  0
LINE
  8
_0-1_
  6
CONTINUOUS
 62
    2
 10
285.65203795999196
 20
26.962690929351453
 11
288.25203795999198
 21
26.962690929351453
  0
LINE
  8
_0-1_
  6
CONTINUOUS
 62
    2
 10
291.87628020106615
 20
26.962690929351453
 11
294.47047268846279
 21
26.962690929351453
  0
LINE
  8
_0-1_
  6
CONTINUOUS
 62
    2
 10
295.40955671524159
 20
26.962690929351453
 11
297.60955671524164
 21
26.962690929351453
  0
LINE
  8
_0-1_
  6
CONTINUOUS
 62
    2
 10
237.38968917540967
 20
27.362690929351544
 11
246.67096178056386
 21
27.362690929351544
  0
LINE
  8
_0-1_
  6
CONTINUOUS
 62
    2
 10
249.92611142394708
 20
27.362690929351544
 11
252.52611142394699
 21
27.362690929351544
  0
LINE
  8
_0-1_
  6
CONTINUOUS
 62
    2
 10
258.40514607502951
 20
27.362690929351544
 11
260.98000563709581
 21
27.362690929351544
  0
LINE
  8
_0-1_
  6
CONTINUOUS
 62
    2
 10
264.57678809429399
 20
27.362690929351544
 11
267.17678809429401
 21
27.362690929351544
  0
LINE
  8
_0-1_
  6
CONTINUOUS
 62
    2
 10
268.41007588185676
 20
27.362690929351544
 11
271.01007588185678
 21
27.362690929351544
  0
LINE
  8
_0-1_
  6
CONTINUOUS
 62
    2
 10
273.01007588185678
 20
27.362690929351544
 11
282.58229714344452
 21
27.362690929351544
  0
LINE
  8
_0-1_
  6
CONTINUOUS
 62
    2
 10
285.65203795999196
 20
27.362690929351544
 11
288.25203795999198
 21
27.362690929351544
  0
LINE
  8
_0-1_
  6
CONTINUOUS
 62
    2
 10
291.62633246030236
 20
27.362690929351544
 11
294.220524947699
 21
27.362690929351544
  0
LINE
  8
_0-1_
  6
CONTINUOUS
 62
    2
 10
295.40955671524159
 20
27.362690929351544
 11
297.60955671524164
 21
27.362690929351544
  0
LINE
  8
_0-1_
  6
CONTINUOUS
 62
    2
 10
237.57621223867159
 20
27.762690929351521
 11
246.48443871730194
 21
27.762690929351521
  0
LINE
  8
_0-1_
  6
CONTINUOUS
 62
    2
 10
249.92611142394708
 20
27.762690929351521
 11
252.52611142394699
 21
27.762690929351521
  0
LINE
  8
_0-1_
  6
CONTINUOUS
 62
    2
 10
258.47109832703825
 20
27.762690929351521
 11
261.04063026945721
 21
27.762690929351521
  0
LINE
  8
_0-1_
  6
CONTINUOUS
 62
    2
 10
264.39026503103196
 20
27.762690929351521
 11
266.9902650310321
 21
27.762690929351521
  0
LINE
  8
_0-1_
  6
CONTINUOUS
 62
    2
 10
268.59659894511879
 20
27.762690929351521
 11
271.19659894511869
 21
27.762690929351521
  0
LINE
  8
_0-1_
  6
CONTINUOUS
 62
    2
 10
273.19659894511869
 20
27.762690929351521
 11
282.3957740801826
 21
27.762690929351521
  0
LINE
  8
_0-1_
  6
CONTINUOUS
 62
    2
 10
285.65203795999196
 20
27.762690929351521
 11
288.25203795999198
 21
27.762690929351521
  0
LINE
  8
_0-1_
  6
CONTINUOUS
 62
    2
 10
291.37638471953869
 20
27.762690929351521
 11
293.97057720693522
 21
27.762690929351521
  0
LINE
  8
_0-1_
  6
CONTINUOUS
 62
    2
 10
295.40955671524159
 20
27.762690929351521
 11
297.60955671524164
 21
27.762690929351521
  0
LINE
  8
_0-1_
  6
CONTINUOUS
 62
    2
 10
237.76273530193362
 20
28.162690929351498
 11
240.36273530193375
 21
28.162690929351498
  0
LINE
  8
_0-1_
  6
CONTINUOUS
 62
    2
 10
243.69791565403989
 20
28.162690929351498
 11
246.29791565403991
 21
28.162690929351498
  0
LINE
  8
_0-1_
  6
CONTINUOUS
 62
    2
 10
249.92611142394708
 20
28.162690929351498
 11
252.52611142394699
 21
28.162690929351498
  0
LINE
  8
_0-1_
  6
CONTINUOUS
 62
    2
 10
258.50491372466536
 20
28.162690929351498
 11
261.08493000276383
 21
28.162690929351498
  0
LINE
  8
_0-1_
  6
CONTINUOUS
 62
    2
 10
264.20374196776993
 20
28.162690929351498
 11
266.80374196777007
 21
28.162690929351498
  0
LINE
  8
_0-1_
  6
CONTINUOUS
 62
    2
 10
268.78312200838081
 20
28.162690929351498
 11
271.38312200838072
 21
28.162690929351498
  0
LINE
  8
_0-1_
  6
CONTINUOUS
 62
    2
 10
273.38312200838072
 20
28.162690929351498
 11
275.98312200838075
 21
28.162690929351498
  0
LINE
  8
_0-1_
  6
CONTINUOUS
 62
    2
 10
279.60925101692055
 20
28.162690929351498
 11
282.20925101692058
 21
28.162690929351498
  0
LINE
  8
_0-1_
  6
CONTINUOUS
 62
    2
 10
285.65203795999196
 20
28.162690929351498
 11
288.25203795999198
 21
28.162690929351498
  0
LINE
  8
_0-1_
  6
CONTINUOUS
 62
    2
 10
291.1264369787749
 20
28.162690929351498
 11
293.72062946617154
 21
28.162690929351498
  0
LINE
  8
_0-1_
  6
CONTINUOUS
 62
    2
 10
295.40955671524159
 20
28.162690929351498
 11
297.60955671524164
 21
28.162690929351498
  0
LINE
  8
_0-1_
  6
CONTINUOUS
 62
    2
 10
237.94925836519565
 20
28.562690929351476
 11
240.54925836519567
 21
28.562690929351476
  0
LINE
  8
_0-1_
  6
CONTINUOUS
 62
    2
 10
243.51139259077786
 20
28.562690929351476
 11
246.111392590778
 21
28.562690929351476
  0
LINE
  8
_0-1_
  6
CONTINUOUS
 62
    2
 10
249.92611142394708
 20
28.562690929351476
 11
252.52611142394699
 21
28.562690929351476
  0
LINE
  8
_0-1_
  6
CONTINUOUS
 62
    2
 10
258.51995125009682
 20
28.562690929351476
 11
261.11257791534604
 21
28.562690929351476
  0
LINE
  8
_0-1_
  6
CONTINUOUS
 62
    2
 10
264.01721890450801
 20
28.562690929351476
 11
266.61721890450804
 21
28.562690929351476
  0
LINE
  8
_0-1_
  6
CONTINUOUS
 62
    2
 10
268.96964507164273
 20
28.562690929351476
 11
271.56964507164275
 21
28.562690929351476
  0
LINE
  8
_0-1_
  6
CONTINUOUS
 62
    2
 10
273.56964507164275
 20
28.562690929351476
 11
276.16964507164278
 21
28.562690929351476
  0
LINE
  8
_0-1_
  6
CONTINUOUS
 62
    2
 10
279.42272795365864
 20
28.562690929351476
 11
282.02272795365866
 21
28.562690929351476
  0
LINE
  8
_0-1_
  6
CONTINUOUS
 62
    2
 10
285.65203795999196
 20
28.562690929351476
 11
288.25203795999198
 21
28.562690929351476
  0
LINE
  8
_0-1_
  6
CONTINUOUS
 62
    2
 10
290.87648923801123
 20
28.562690929351476
 11
293.47068172540776
 21
28.562690929351476
  0
LINE
  8
_0-1_
  6
CONTINUOUS
 62
    2
 10
295.40955671524159
 20
28.562690929351476
 11
297.60955671524164
 21
28.562690929351476
  0
LINE
  8
_0-1_
  6
CONTINUOUS
 62
    2
 10
238.13578142845768
 20
28.962690929351226
 11
240.7357814284577
 21
28.962690929351226
  0
LINE
  8
_0-1_
  6
CONTINUOUS
 62
    2
 10
243.32486952751583
 20
28.962690929351226
 11
245.92486952751597
 21
28.962690929351226
  0
LINE
  8
_0-1_
  6
CONTINUOUS
 62
    2
 10
249.92611142394708
 20
28.962690929351226
 11
252.52611142394699
 21
28.962690929351226
  0
LINE
  8
_0-1_
  6
CONTINUOUS
 62
    2
 10
258.52587251194461
 20
28.962690929351226
 11
261.12546364340665
 21
28.962690929351226
  0
LINE
  8
_0-1_
  6
CONTINUOUS
 62
    2
 10
263.83069584124598
 20
28.962690929351226
 11
266.43069584124601
 21
28.962690929351226
  0
LINE
  8
_0-1_
  6
CONTINUOUS
 62
    2
 10
269.15616813490476
 20
28.962690929351226
 11
271.75616813490478
 21
28.962690929351226
  0
LINE
  8
_0-1_
  6
CONTINUOUS
 62
    2
 10
273.75616813490478
 20
28.962690929351226
 11
276.35616813490481
 21
28.962690929351226
  0
LINE
  8
_0-1_
  6
CONTINUOUS
 62
    2
 10
279.23620489039661
 20
28.962690929351226
 11
281.83620489039663
 21
28.962690929351226
  0
LINE
  8
_0-1_
  6
CONTINUOUS
 62
    2
 10
285.65203795999196
 20
28.962690929351226
 11
288.25203795999198
 21
28.962690929351226
  0
LINE
  8
_0-1_
  6
CONTINUOUS
 62
    2
 10
290.62654149724744
 20
28.962690929351226
 11
293.22073398464408
 21
28.962690929351226
  0
LINE
  8
_0-1_
  6
CONTINUOUS
 62
    2
 10
295.40955671524159
 20
28.962690929351226
 11
297.60955671524164
 21
28.962690929351226
  0
LINE
  8
_0-1_
  6
CONTINUOUS
 62
    2
 10
238.32230449171971
 20
29.362690929351658
 11
240.92230449171961
 21
29.362690929351658
  0
LINE
  8
_0-1_
  6
CONTINUOUS
 62
    2
 10
243.13834646425391
 20
29.362690929351658
 11
245.73834646425394
 21
29.362690929351658
  0
LINE
  8
_0-1_
  6
CONTINUOUS
 62
    2
 10
249.92611142394708
 20
29.362690929351658
 11
252.52611142394699
 21
29.362690929351658
  0
LINE
  8
_0-1_
  6
CONTINUOUS
 62
    2
 10
258.52265138798862
 20
29.362690929351658
 11
261.11734637856375
 21
29.362690929351658
  0
LINE
  8
_0-1_
  6
CONTINUOUS
 62
    2
 10
263.64417277798407
 20
29.362690929351658
 11
266.24417277798398
 21
29.362690929351658
  0
LINE
  8
_0-1_
  6
CONTINUOUS
 62
    2
 10
269.34269119816679
 20
29.362690929351658
 11
271.94269119816681
 21
29.362690929351658
  0
LINE
  8
_0-1_
  6
CONTINUOUS
 62
    2
 10
273.94269119816681
 20
29.362690929351658
 11
276.54269119816672
 21
29.362690929351658
  0
LINE
  8
_0-1_
  6
CONTINUOUS
 62
    2
 10
279.04968182713469
 20
29.362690929351658
 11
281.6496818271346
 21
29.362690929351658
  0
LINE
  8
_0-1_
  6
CONTINUOUS
 62
    2
 10
285.65203795999196
 20
29.362690929351658
 11
288.25203795999198
 21
29.362690929351658
  0
LINE
  8
_0-1_
  6
CONTINUOUS
 62
    2
 10
290.37659375648377
 20
29.362690929351658
 11
292.9707862438803
 21
29.362690929351658
  0
LINE
  8
_0-1_
  6
CONTINUOUS
 62
    2
 10
295.40955671524159
 20
29.362690929351658
 11
297.60955671524164
 21
29.362690929351658
  0
LINE
  8
_0-1_
  6
CONTINUOUS
 62
    2
 10
238.50882755498174
 20
29.762690929351407
 11
241.10882755498164
 21
29.762690929351407
  0
LINE
  8
_0-1_
  6
CONTINUOUS
 62
    2
 10
242.951823400992
 20
29.762690929351407
 11
245.55182340099191
 21
29.762690929351407
  0
LINE
  8
_0-1_
  6
CONTINUOUS
 62
    2
 10
249.92611142394708
 20
29.762690929351407
 11
252.52611142394699
 21
29.762690929351407
  0
LINE
  8
_0-1_
  6
CONTINUOUS
 62
    2
 10
258.51061653003262
 20
29.762690929351407
 11
261.09398599226415
 21
29.762690929351407
  0
LINE
  8
_0-1_
  6
CONTINUOUS
 62
    2
 10
263.45764971472204
 20
29.762690929351407
 11
266.05764971472195
 21
29.762690929351407
  0
LINE
  8
_0-1_
  6
CONTINUOUS
 62
    2
 10
269.52921426142871
 20
29.762690929351407
 11
272.12921426142873
 21
29.762690929351407
  0
LINE
  8
_0-1_
  6
CONTINUOUS
 62
    2
 10
274.12921426142884
 20
29.762690929351407
 11
276.72921426142875
 21
29.762690929351407
  0
LINE
  8
_0-1_
  6
CONTINUOUS
 62
    2
 10
278.86315876387266
 20
29.762690929351407
 11
281.46315876387257
 21
29.762690929351407
  0
LINE
  8
_0-1_
  6
CONTINUOUS
 62
    2
 10
285.65203795999196
 20
29.762690929351407
 11
288.25203795999198
 21
29.762690929351407
  0
LINE
  8
_0-1_
  6
CONTINUOUS
 62
    2
 10
290.12664601571998
 20
29.762690929351407
 11
292.72083850311662
 21
29.762690929351407
  0
LINE
  8
_0-1_
  6
CONTINUOUS
 62
    2
 10
295.40955671524159
 20
29.762690929351407
 11
297.60955671524164
 21
29.762690929351407
  0
LINE
  8
_0-1_
  6
CONTINUOUS
 62
    2
 10
238.69535061824365
 20
30.162690929351498
 11
241.29535061824367
 21
30.162690929351498
  0
LINE
  8
_0-1_
  6
CONTINUOUS
 62
    2
 10
242.76530033772997
 20
30.162690929351498
 11
245.36530033772988
 21
30.162690929351498
  0
LINE
  8
_0-1_
  6
CONTINUOUS
 62
    2
 10
249.92611142394708
 20
30.162690929351498
 11
252.52611142394699
 21
30.162690929351498
  0
LINE
  8
_0-1_
  6
CONTINUOUS
 62
    2
 10
258.47868514167226
 20
30.162690929351498
 11
261.05362229542538
 21
30.162690929351498
  0
LINE
  8
_0-1_
  6
CONTINUOUS
 62
    2
 10
263.27112665146001
 20
30.162690929351498
 11
265.87112665146003
 21
30.162690929351498
  0
LINE
  8
_0-1_
  6
CONTINUOUS
 62
    2
 10
269.71573732469074
 20
30.162690929351498
 11
272.31573732469076
 21
30.162690929351498
  0
LINE
  8
_0-1_
  6
CONTINUOUS
 62
    2
 10
274.31573732469076
 20
30.162690929351498
 11
276.91573732469078
 21
30.162690929351498
  0
LINE
  8
_0-1_
  6
CONTINUOUS
 62
    2
 10
278.67663570061063
 20
30.162690929351498
 11
281.27663570061065
 21
30.162690929351498
  0
LINE
  8
_0-1_
  6
CONTINUOUS
 62
    2
 10
285.65203795999196
 20
30.162690929351498
 11
288.25203795999198
 21
30.162690929351498
  0
LINE
  8
_0-1_
  6
CONTINUOUS
 62
    2
 10
289.87669827495631
 20
30.162690929351498
 11
292.47089076235284
 21
30.162690929351498
  0
LINE
  8
_0-1_
  6
CONTINUOUS
 62
    2
 10
295.40955671524159
 20
30.162690929351498
 11
297.60955671524164
 21
30.162690929351498
  0
LINE
  8
_0-1_
  6
CONTINUOUS
 62
    2
 10
238.88187368150568
 20
30.562690929351476
 11
241.4818736815057
 21
30.562690929351476
  0
LINE
  8
_0-1_
  6
CONTINUOUS
 62
    2
 10
242.57877727446794
 20
30.562690929351476
 11
245.17877727446796
 21
30.562690929351476
  0
LINE
  8
_0-1_
  6
CONTINUOUS
 62
    2
 10
249.92611142394708
 20
30.562690929351476
 11
252.52611142394699
 21
30.562690929351476
  0
LINE
  8
_0-1_
  6
CONTINUOUS
 62
    2
 10
258.42050185761286
 20
30.562690929351476
 11
260.99489744486277
 21
30.562690929351476
  0
LINE
  8
_0-1_
  6
CONTINUOUS
 62
    2
 10
263.08460358819798
 20
30.562690929351476
 11
265.684603588198
 21
30.562690929351476
  0
LINE
  8
_0-1_
  6
CONTINUOUS
 62
    2
 10
269.90226038795277
 20
30.562690929351476
 11
272.50226038795267
 21
30.562690929351476
  0
LINE
  8
_0-1_
  6
CONTINUOUS
 62
    2
 10
274.50226038795267
 20
30.562690929351476
 11
277.10226038795281
 21
30.562690929351476
  0
LINE
  8
_0-1_
  6
CONTINUOUS
 62
    2
 10
278.4901126373486
 20
30.562690929351476
 11
281.09011263734862
 21
30.562690929351476
  0
LINE
  8
_0-1_
  6
CONTINUOUS
 62
    2
 10
285.65203795999196
 20
30.562690929351476
 11
288.25203795999198
 21
30.562690929351476
  0
LINE
  8
_0-1_
  6
CONTINUOUS
 62
    2
 10
289.62675053419252
 20
30.562690929351476
 11
292.22094302158916
 21
30.562690929351476
  0
LINE
  8
_0-1_
  6
CONTINUOUS
 62
    2
 10
295.40955671524159
 20
30.562690929351476
 11
297.60955671524164
 21
30.562690929351476
  0
LINE
  8
_0-1_
  6
CONTINUOUS
 62
    2
 10
239.0683967447676
 20
30.962690929351453
 11
241.66839674476773
 21
30.962690929351453
  0
LINE
  8
_0-1_
  6
CONTINUOUS
 62
    2
 10
242.39225421120591
 20
30.962690929351453
 11
244.99225421120593
 21
30.962690929351453
  0
LINE
  8
_0-1_
  6
CONTINUOUS
 62
    2
 10
249.92611142394708
 20
30.962690929351453
 11
252.52611142394699
 21
30.962690929351453
  0
LINE
  8
_0-1_
  6
CONTINUOUS
 62
    2
 10
258.32356135119346
 20
30.962690929351453
 11
260.92020304638459
 21
30.962690929351453
  0
LINE
  8
_0-1_
  6
CONTINUOUS
 62
    2
 10
262.89808052493595
 20
30.962690929351453
 11
265.49808052493597
 21
30.962690929351453
  0
LINE
  8
_0-1_
  6
CONTINUOUS
 62
    2
 10
270.08878345121479
 20
30.962690929351453
 11
272.6887834512147
 21
30.962690929351453
  0
LINE
  8
_0-1_
  6
CONTINUOUS
 62
    2
 10
274.6887834512147
 20
30.962690929351453
 11
277.28878345121484
 21
30.962690929351453
  0
LINE
  8
_0-1_
  6
CONTINUOUS
 62
    2
 10
278.30358957408657
 20
30.962690929351453
 11
280.9035895740866
 21
30.962690929351453
  0
LINE
  8
_0-1_
  6
CONTINUOUS
 62
    2
 10
285.65203795999196
 20
30.962690929351453
 11
288.25203795999198
 21
30.962690929351453
  0
LINE
  8
_0-1_
  6
CONTINUOUS
 62
    2
 10
289.37680279342874
 20
30.962690929351453
 11
291.97099528082538
 21
30.962690929351453
  0
LINE
  8
_0-1_
  6
CONTINUOUS
 62
    2
 10
295.40955671524159
 20
30.962690929351453
 11
297.60955671524164
 21
30.962690929351453
  0
LINE
  8
_0-1_
  6
CONTINUOUS
 62
    2
 10
239.25491980802963
 20
31.362690929351658
 11
241.85491980802965
 21
31.362690929351658
  0
LINE
  8
_0-1_
  6
CONTINUOUS
 62
    2
 10
242.20573114794388
 20
31.362690929351658
 11
244.8057311479439
 21
31.362690929351658
  0
LINE
  8
_0-1_
  6
CONTINUOUS
 62
    2
 10
249.92611142394708
 20
31.362690929351658
 11
252.52611142394699
 21
31.362690929351658
  0
LINE
  8
_0-1_
  6
CONTINUOUS
 62
    2
 10
258.16681760677295
 20
31.362690929351658
 11
260.82977433814472
 21
31.362690929351658
  0
LINE
  8
_0-1_
  6
CONTINUOUS
 62
    2
 10
262.71155746167403
 20
31.362690929351658
 11
265.31155746167406
 21
31.362690929351658
  0
LINE
  8
_0-1_
  6
CONTINUOUS
 62
    2
 10
270.27530651447682
 20
31.362690929351658
 11
272.87530651447673
 21
31.362690929351658
  0
LINE
  8
_0-1_
  6
CONTINUOUS
 62
    2
 10
274.87530651447673
 20
31.362690929351658
 11
277.47530651447676
 21
31.362690929351658
  0
LINE
  8
_0-1_
  6
CONTINUOUS
 62
    2
 10
278.11706651082466
 20
31.362690929351658
 11
280.71706651082468
 21
31.362690929351658
  0
LINE
  8
_0-1_
  6
CONTINUOUS
 62
    2
 10
285.65203795999196
 20
31.362690929351658
 11
288.25203795999198
 21
31.362690929351658
  0
LINE
  8
_0-1_
  6
CONTINUOUS
 62
    2
 10
289.12685505266506
 20
31.362690929351658
 11
291.7210475400617
 21
31.362690929351658
  0
LINE
  8
_0-1_
  6
CONTINUOUS
 62
    2
 10
295.40955671524159
 20
31.362690929351658
 11
297.60955671524164
 21
31.362690929351658
  0
LINE
  8
_0-1_
  6
CONTINUOUS
 62
    2
 10
239.44144287129166
 20
31.762690929351407
 11
244.61920808468199
 21
31.762690929351407
  0
LINE
  8
_0-1_
  6
CONTINUOUS
 62
    2
 10
249.92611142394708
 20
31.762690929351407
 11
252.52611142394699
 21
31.762690929351407
  0
LINE
  8
_0-1_
  6
CONTINUOUS
 62
    2
 10
257.92611142394708
 20
31.762690929351407
 11
260.72611142394703
 21
31.762690929351407
  0
LINE
  8
_0-1_
  6
CONTINUOUS
 62
    2
 10
262.525034398412
 20
31.762690929351407
 11
265.12503439841203
 21
31.762690929351407
  0
LINE
  8
_0-1_
  6
CONTINUOUS
 62
    2
 10
270.46182957773874
 20
31.762690929351407
 11
273.06182957773876
 21
31.762690929351407
  0
LINE
  8
_0-1_
  6
CONTINUOUS
 62
    2
 10
275.06182957773876
 20
31.762690929351407
 11
277.66182957773867
 21
31.762690929351407
  0
LINE
  8
_0-1_
  6
CONTINUOUS
 62
    2
 10
277.93054344756263
 20
31.762690929351407
 11
280.53054344756265
 21
31.762690929351407
  0
LINE
  8
_0-1_
  6
CONTINUOUS
 62
    2
 10
285.65203795999196
 20
31.762690929351407
 11
288.25203795999198
 21
31.762690929351407
  0
LINE
  8
_0-1_
  6
CONTINUOUS
 62
    2
 10
288.87690731190139
 20
31.762690929351407
 11
291.47109979929792
 21
31.762690929351407
  0
LINE
  8
_0-1_
  6
CONTINUOUS
 62
    2
 10
295.40955671524159
 20
31.762690929351407
 11
297.60955671524164
 21
31.762690929351407
  0
LINE
  8
_0-1_
  6
CONTINUOUS
 62
    2
 10
239.62796593455369
 20
32.162690929351498
 11
244.43268502141996
 21
32.162690929351498
  0
LINE
  8
_0-1_
  6
CONTINUOUS
 62
    2
 10
249.92611142394708
 20
32.162690929351498
 11
252.52611142394699
 21
32.162690929351498
  0
LINE
  8
_0-1_
  6
CONTINUOUS
 62
    2
 10
257.50121136974781
 20
32.162690929351498
 11
260.60050867019265
 21
32.162690929351498
  0
LINE
  8
_0-1_
  6
CONTINUOUS
 62
    2
 10
262.33851133514997
 20
32.162690929351498
 11
264.93851133515
 21
32.162690929351498
  0
LINE
  8
_0-1_
  6
CONTINUOUS
 62
    2
 10
270.64835264100077
 20
32.162690929351498
 11
273.24835264100079
 21
32.162690929351498
  0
LINE
  8
_0-1_
  6
CONTINUOUS
 62
    2
 10
275.24835264100079
 20
32.162690929351498
 11
280.34402038430062
 21
32.162690929351498
  0
LINE
  8
_0-1_
  6
CONTINUOUS
 62
    2
 10
285.65203795999196
 20
32.162690929351498
 11
288.25203795999198
 21
32.162690929351498
  0
LINE
  8
_0-1_
  6
CONTINUOUS
 62
    2
 10
288.6269595711376
 20
32.162690929351498
 11
291.22115205853424
 21
32.162690929351498
  0
LINE
  8
_0-1_
  6
CONTINUOUS
 62
    2
 10
295.40955671524159
 20
32.162690929351498
 11
297.60955671524164
 21
32.162690929351498
  0
LINE
  8
_0-1_
  6
CONTINUOUS
 62
    2
 10
239.81448899781572
 20
32.562690929351362
 11
244.24616195815793
 21
32.562690929351362
  0
LINE
  8
_0-1_
  6
CONTINUOUS
 62
    2
 10
249.92611142394708
 20
32.562690929351362
 11
252.52611142394699
 21
32.562690929351362
  0
LINE
  8
_0-1_
  6
CONTINUOUS
 62
    2
 10
256.88544247341429
 20
32.562690929351362
 11
260.4343854321562
 21
32.562690929351362
  0
LINE
  8
_0-1_
  6
CONTINUOUS
 62
    2
 10
262.15198827188806
 20
32.562690929351362
 11
264.75198827188797
 21
32.562690929351362
  0
LINE
  8
_0-1_
  6
CONTINUOUS
 62
    2
 10
270.83487570426269
 20
32.562690929351362
 11
273.43487570426282
 21
32.562690929351362
  0
LINE
  8
_0-1_
  6
CONTINUOUS
 62
    2
 10
275.43487570426271
 20
32.562690929351362
 11
280.15749732103859
 21
32.562690929351362
  0
LINE
  8
_0-1_
  6
CONTINUOUS
 62
    2
 10
285.65203795999196
 20
32.562690929351362
 11
288.25203795999198
 21
32.562690929351362
  0
LINE
  8
_0-1_
  6
CONTINUOUS
 62
    2
 10
288.37701183037393
 20
32.562690929351362
 11
290.97120431777046
 21
32.562690929351362
  0
LINE
  8
_0-1_
  6
CONTINUOUS
 62
    2
 10
295.40955671524159
 20
32.562690929351362
 11
297.60955671524164
 21
32.562690929351362
  0
LINE
  8
_0-1_
  6
CONTINUOUS
 62
    2
 10
240.00101206107774
 20
32.962690929351453
 11
244.0596388948959
 21
32.962690929351453
  0
LINE
  8
_0-1_
  6
CONTINUOUS
 62
    2
 10
249.92611142394708
 20
32.962690929351453
 11
260.18822331529202
 21
32.962690929351453
  0
LINE
  8
_0-1_
  6
CONTINUOUS
 62
    2
 10
261.96546520862603
 20
32.962690929351453
 11
264.56546520862594
 21
32.962690929351453
  0
LINE
  8
_0-1_
  6
CONTINUOUS
 62
    2
 10
271.02139876752472
 20
32.962690929351453
 11
273.62139876752474
 21
32.962690929351453
  0
LINE
  8
_0-1_
  6
CONTINUOUS
 62
    2
 10
275.62139876752474
 20
32.962690929351453
 11
279.97097425777656
 21
32.962690929351453
  0
LINE
  8
_0-1_
  6
CONTINUOUS
 62
    2
 10
285.65203795999196
 20
32.962690929351453
 11
290.72125657700678
 21
32.962690929351453
  0
LINE
  8
_0-1_
  6
CONTINUOUS
 62
    2
 10
295.40955671524159
 20
32.962690929351453
 11
297.60955671524164
 21
32.962690929351453
  0
LINE
  8
_0-1_
  6
CONTINUOUS
 62
    2
 10
240.18753512433966
 20
33.362690929351544
 11
243.87311583163387
 21
33.362690929351544
  0
LINE
  8
_0-1_
  6
CONTINUOUS
 62
    2
 10
249.92611142394708
 20
33.362690929351544
 11
259.80990104480111
 21
33.362690929351544
  0
LINE
  8
_0-1_
  6
CONTINUOUS
 62
    2
 10
261.778942145364
 20
33.362690929351544
 11
264.37894214536402
 21
33.362690929351544
  0
LINE
  8
_0-1_
  6
CONTINUOUS
 62
    2
 10
271.20792183078674
 20
33.362690929351544
 11
273.80792183078677
 21
33.362690929351544
  0
LINE
  8
_0-1_
  6
CONTINUOUS
 62
    2
 10
275.80792183078677
 20
33.362690929351544
 11
279.78445119451453
 21
33.362690929351544
  0
LINE
  8
_0-1_
  6
CONTINUOUS
 62
    2
 10
285.65203795999196
 20
33.362690929351544
 11
290.471308836243
 21
33.362690929351544
  0
LINE
  8
_0-1_
  6
CONTINUOUS
 62
    2
 10
295.40955671524159
 20
33.362690929351544
 11
297.60955671524164
 21
33.362690929351544
  0
LINE
  8
_0-1_
  6
CONTINUOUS
 62
    2
 10
240.37405818760158
 20
33.762690929351407
 11
243.68659276837195
 21
33.762690929351407
  0
LINE
  8
_0-1_
  6
CONTINUOUS
 62
    2
 10
249.92611142394708
 20
33.762690929351407
 11
259.25436932172568
 21
33.762690929351407
  0
LINE
  8
_0-1_
  6
CONTINUOUS
 62
    2
 10
261.59241908210197
 20
33.762690929351407
 11
264.19241908210199
 21
33.762690929351407
  0
LINE
  8
_0-1_
  6
CONTINUOUS
 62
    2
 10
271.39444489404877
 20
33.762690929351407
 11
273.99444489404868
 21
33.762690929351407
  0
LINE
  8
_0-1_
  6
CONTINUOUS
 62
    2
 10
275.99444489404868
 20
33.762690929351407
 11
279.59792813125262
 21
33.762690929351407
  0
LINE
  8
_0-1_
  6
CONTINUOUS
 62
    2
 10
285.65203795999196
 20
33.762690929351407
 11
290.22136109547932
 21
33.762690929351407
  0
LINE
  8
_0-1_
  6
CONTINUOUS
 62
    2
 10
295.40955671524159
 20
33.762690929351407
 11
297.60955671524164
 21
33.762690929351407
  0
LINE
  8
_0-1_
  6
CONTINUOUS
 62
    2
 10
240.56058125086361
 20
34.162690929351271
 11
243.50006970510992
 21
34.162690929351271
  0
LINE
  8
_0-1_
  6
CONTINUOUS
 62
    2
 10
249.92611142394708
 20
34.162690929351271
 11
258.4522374254891
 21
34.162690929351271
  0
LINE
  8
_0-1_
  6
CONTINUOUS
 62
    2
 10
261.40589601883994
 20
34.162690929351271
 11
264.00589601884008
 21
34.162690929351271
  0
LINE
  8
_0-1_
  6
CONTINUOUS
 62
    2
 10
271.5809679573108
 20
34.162690929351271
 11
274.18096795731071
 21
34.162690929351271
  0
LINE
  8
_0-1_
  6
CONTINUOUS
 62
    2
 10
276.18096795731071
 20
34.162690929351271
 11
279.41140506799059
 21
34.162690929351271
  0
LINE
  8
_0-1_
  6
CONTINUOUS
 62
    2
 10
285.65203795999196
 20
34.162690929351271
 11
289.97141335471554
 21
34.162690929351271
  0
LINE
  8
_0-1_
  6
CONTINUOUS
 62
    2
 10
295.40955671524159
 20
34.162690929351271
 11
297.60955671524164
 21
34.162690929351271
  0
LINE
  8
_0-1_
  6
CONTINUOUS
 62
    2
 10
240.74710431412564
 20
34.562690929351362
 11
243.31354664184801
 21
34.562690929351362
  0
LINE
  8
_0-1_
  6
CONTINUOUS
 62
    2
 10
249.92611142394708
 20
34.562690929351362
 11
257.27544608622043
 21
34.562690929351362
  0
LINE
  8
_0-1_
  6
CONTINUOUS
 62
    2
 10
261.21937295557802
 20
34.562690929351362
 11
263.81937295557805
 21
34.562690929351362
  0
LINE
  8
_0-1_
  6
CONTINUOUS
 62
    2
 10
271.76749102057283
 20
34.562690929351362
 11
274.36749102057274
 21
34.562690929351362
  0
LINE
  8
_0-1_
  6
CONTINUOUS
 62
    2
 10
276.36749102057274
 20
34.562690929351362
 11
279.22488200472867
 21
34.562690929351362
  0
LINE
  8
_0-1_
  6
CONTINUOUS
 62
    2
 10
285.65203795999196
 20
34.562690929351362
 11
289.72146561395186
 21
34.562690929351362
  0
LINE
  8
_0-1_
  6
CONTINUOUS
 62
    2
 10
295.40955671524159
 20
34.562690929351362
 11
297.60955671524164
 21
34.562690929351362
  0
LINE
  8
_0-1_
  6
CONTINUOUS
 62
    7
 10
213.85858586458744
 20
23.500560365600705
 11
222.26628546898348
 21
23.500560365600705
  0
LINE
  8
_0-1_
  6
CONTINUOUS
 62
    7
 10
213.85858586458744
 20
23.700560365600751
 11
222.26628546898348
 21
23.700560365600751
  0
LINE
  8
_0-1_
  6
CONTINUOUS
 62
    7
 10
213.85858586458744
 20
23.900560365600569
 11
222.26628546898348
 21
23.900560365600569
  0
LINE
  8
_0-1_
  6
CONTINUOUS
 62
    7
 10
213.85858586458744
 20
24.100560365600501
 11
222.26628546898348
 21
24.100560365600501
  0
LINE
  8
_0-1_
  6
CONTINUOUS
 62
    7
 10
213.85858586458744
 20
24.300560365600546
 11
222.26628546898348
 21
24.300560365600546
  0
LINE
  8
_0-1_
  6
CONTINUOUS
 62
    7
 10
213.85858586458744
 20
24.500560365600592
 11
222.26628546898348
 21
24.500560365600592
  0
LINE
  8
_0-1_
  6
CONTINUOUS
 62
    7
 10
213.85858586458744
 20
24.700560365600751
 11
222.26628546898348
 21
24.700560365600751
  0
LINE
  8
_0-1_
  6
CONTINUOUS
 62
    7
 10
213.85858586458744
 20
24.900560365600569
 11
222.26628546898348
 21
24.900560365600569
  0
LINE
  8
_0-1_
  6
CONTINUOUS
 62
    7
 10
213.85858586458744
 20
25.100560365600501
 11
222.26628546898348
 21
25.100560365600501
  0
LINE
  8
_0-1_
  6
CONTINUOUS
 62
    7
 10
213.85858586458744
 20
25.300560365600319
 11
222.26628546898348
 21
25.300560365600319
  0
LINE
  8
_0-1_
  6
CONTINUOUS
 62
    7
 10
213.85858586458744
 20
25.500560365600592
 11
222.26628546898348
 21
25.500560365600592
  0
LINE
  8
_0-1_
  6
CONTINUOUS
 62
    7
 10
213.85858586458744
 20
25.70056036560041
 11
222.26628546898348
 21
25.70056036560041
  0
LINE
  8
_0-1_
  6
CONTINUOUS
 62
    7
 10
213.85858586458744
 20
25.900560365600569
 11
222.26628546898348
 21
25.900560365600569
  0
LINE
  8
_0-1_
  6
CONTINUOUS
 62
    7
 10
213.85858586458744
 20
26.100560365600501
 11
222.26628546898348
 21
26.100560365600501
  0
LINE
  8
_0-1_
  6
CONTINUOUS
 62
    7
 10
213.85858586458744
 20
26.300560365600319
 11
222.26628546898348
 21
26.300560365600319
  0
LINE
  8
_0-1_
  6
CONTINUOUS
 62
    7
 10
213.85858586458744
 20
26.500560365600592
 11
222.26628546898348
 21
26.500560365600592
  0
LINE
  8
_0-1_
  6
CONTINUOUS
 62
    7
 10
213.85858586458744
 20
26.70056036560041
 11
222.26628546898348
 21
26.70056036560041
  0
LINE
  8
_0-1_
  6
CONTINUOUS
 62
    7
 10
213.85858586458744
 20
26.900560365600455
 11
222.26628546898348
 21
26.900560365600455
  0
LINE
  8
_0-1_
  6
CONTINUOUS
 62
    7
 10
213.85858586458744
 20
27.100560365600273
 11
222.26628546898348
 21
27.100560365600273
  0
LINE
  8
_0-1_
  6
CONTINUOUS
 62
    7
 10
213.85858586458744
 20
27.300560365600319
 11
222.26628546898348
 21
27.300560365600319
  0
LINE
  8
_0-1_
  6
CONTINUOUS
 62
    7
 10
213.85858586458744
 20
27.500560365600364
 11
222.26628546898348
 21
27.500560365600364
  0
LINE
  8
_0-1_
  6
CONTINUOUS
 62
    7
 10
213.85858586458744
 20
27.70056036560041
 11
222.26628546898348
 21
27.70056036560041
  0
LINE
  8
_0-1_
  6
CONTINUOUS
 62
    7
 10
213.85858586458744
 20
27.900560365600455
 11
222.26628546898348
 21
27.900560365600455
  0
LINE
  8
_0-1_
  6
CONTINUOUS
 62
    7
 10
213.85858586458744
 20
28.100560365600273
 11
222.26628546898348
 21
28.100560365600273
  0
LINE
  8
_0-1_
  6
CONTINUOUS
 62
    7
 10
213.85858586458744
 20
28.300560365600319
 11
222.26628546898348
 21
28.300560365600319
  0
LINE
  8
_0-1_
  6
CONTINUOUS
 62
    7
 10
213.85858586458744
 20
28.500560365600137
 11
222.26628546898348
 21
28.500560365600137
  0
LINE
  8
_0-1_
  6
CONTINUOUS
 62
    7
 10
213.85858586458744
 20
28.70056036560041
 11
222.26628546898348
 21
28.70056036560041
  0
LINE
  8
_0-1_
  6
CONTINUOUS
 62
    7
 10
213.85858586458744
 20
28.900560365600228
 11
222.26628546898348
 21
28.900560365600228
  0
LINE
  8
_0-1_
  6
CONTINUOUS
 62
    7
 10
213.85858586458744
 20
29.10056036560016
 11
222.26628546898348
 21
29.10056036560016
  0
LINE
  8
_0-1_
  6
CONTINUOUS
 62
    7
 10
213.85858586458744
 20
29.300560365600319
 11
222.26628546898348
 21
29.300560365600319
  0
LINE
  8
_0-1_
  6
CONTINUOUS
 62
    7
 10
213.85858586458744
 20
29.500560365600364
 11
222.26628546898348
 21
29.500560365600364
  0
LINE
  8
_0-1_
  6
CONTINUOUS
 62
    7
 10
213.85858586458744
 20
29.700560365600182
 11
222.26628546898348
 21
29.700560365600182
  0
LINE
  8
_0-1_
  6
CONTINUOUS
 62
    7
 10
213.85858586458744
 20
29.900560365600228
 11
222.26628546898348
 21
29.900560365600228
  0
LINE
  8
_0-1_
  6
CONTINUOUS
 62
    7
 10
213.85858586458744
 20
30.10056036560016
 11
222.26628546898348
 21
30.10056036560016
  0
LINE
  8
_0-1_
  6
CONTINUOUS
 62
    7
 10
213.85858586458744
 20
30.300560365600319
 11
222.26628546898348
 21
30.300560365600319
  0
LINE
  8
_0-1_
  6
CONTINUOUS
 62
    7
 10
213.85858586458744
 20
30.500560365600364
 11
222.26628546898348
 21
30.500560365600364
  0
LINE
  8
_0-1_
  6
CONTINUOUS
 62
    7
 10
213.85858586458744
 20
30.700560365600182
 11
222.26628546898348
 21
30.700560365600182
  0
LINE
  8
_0-1_
  6
CONTINUOUS
 62
    7
 10
213.85858586458744
 20
30.900560365600228
 11
222.26628546898348
 21
30.900560365600228
  0
LINE
  8
_0-1_
  6
CONTINUOUS
 62
    7
 10
213.85858586458744
 20
31.10056036560016
 11
222.26628546898348
 21
31.10056036560016
  0
LINE
  8
_0-1_
  6
CONTINUOUS
 62
    7
 10
213.85858586458744
 20
31.300560365600319
 11
222.26628546898348
 21
31.300560365600319
  0
LINE
  8
_0-1_
  6
CONTINUOUS
 62
    7
 10
213.85858586458744
 20
31.500560365600137
 11
222.26628546898348
 21
31.500560365600137
  0
LINE
  8
_0-1_
  6
CONTINUOUS
 62
    7
 10
213.85858586458744
 20
31.700560365600182
 11
222.26628546898348
 21
31.700560365600182
  0
LINE
  8
_0-1_
  6
CONTINUOUS
 62
    7
 10
232.82091095241913
 20
41.100560365600444
 11
235.74802647606111
 21
41.100560365600444
  0
LINE
  8
_0-1_
  6
CONTINUOUS
 62
    7
 10
232.27631410384993
 20
41.500560365600307
 11
236.29262332463031
 21
41.500560365600307
  0
LINE
  8
_0-1_
  6
CONTINUOUS
 62
    7
 10
231.91732517058108
 20
41.900560365600398
 11
236.65161225789916
 21
41.900560365600398
  0
LINE
  8
_0-1_
  6
CONTINUOUS
 62
    7
 10
231.66644423510797
 20
42.300560365600262
 11
236.90249319337227
 21
42.300560365600262
  0
LINE
  8
_0-1_
  6
CONTINUOUS
 62
    7
 10
231.4943547756352
 20
42.700560365600523
 11
237.07458265284504
 21
42.700560365600523
  0
LINE
  8
_0-1_
  6
CONTINUOUS
 62
    7
 10
231.38698370005432
 20
43.100560365600217
 11
237.18195372842592
 21
43.100560365600217
  0
LINE
  8
_0-1_
  6
CONTINUOUS
 62
    7
 10
231.33724917296195
 20
43.500560365600307
 11
237.23168825551829
 21
43.500560365600307
  0
LINE
  8
_0-1_
  6
CONTINUOUS
 62
    7
 10
231.3422269428097
 20
43.900560365600228
 11
237.22671048567054
 21
43.900560365600228
  0
LINE
  8
_0-1_
  6
CONTINUOUS
 62
    7
 10
231.40220046534307
 20
44.300560365600262
 11
237.16673696313728
 21
44.300560365600262
  0
LINE
  8
_0-1_
  6
CONTINUOUS
 62
    7
 10
231.52074769437388
 20
44.700560365600126
 11
237.04818973410647
 21
44.700560365600126
  0
LINE
  8
_0-1_
  6
CONTINUOUS
 62
    7
 10
231.70593473294639
 20
45.100560365600273
 11
236.86300269553385
 21
45.100560365600273
  0
LINE
  8
_0-1_
  6
CONTINUOUS
 62
    7
 10
231.97372833294639
 20
45.500560365600307
 11
236.59520909553385
 21
45.500560365600307
  0
LINE
  8
_0-1_
  6
CONTINUOUS
 62
    7
 10
232.35827954211845
 20
45.900560365600228
 11
236.21065788636179
 21
45.900560365600228
  0
LINE
  8
_0-1_
  6
CONTINUOUS
 62
    7
 10
232.95748403314929
 20
46.300560365600035
 11
235.61145339533095
 21
46.300560365600035
  0
LINE
  8
_0-1_
  6
CONTINUOUS
 62
    7
 10
237.0808928905908
 20
42.719034180135765
 11
237.0808928905908
 21
44.608795593692406
  0
LINE
  8
_0-1_
  6
CONTINUOUS
 62
    7
 10
236.68089289059083
 20
41.940563822524922
 11
236.68089289059083
 21
45.387265951303249
  0
LINE
  8
_0-1_
  6
CONTINUOUS
 62
    7
 10
236.28089289059085
 20
41.489730388715344
 11
236.28089289059085
 21
45.83809938511294
  0
LINE
  8
_0-1_
  6
CONTINUOUS
 62
    7
 10
235.88089289059087
 20
41.181130648746688
 11
235.88089289059087
 21
46.146699125081483
  0
LINE
  8
_0-1_
  6
CONTINUOUS
 62
    7
 10
235.48089289059089
 20
40.96551593302101
 11
235.48089289059089
 21
46.362313840807161
  0
LINE
  8
_0-1_
  6
CONTINUOUS
 62
    7
 10
235.0808928905908
 20
40.82164532625373
 11
235.0808928905908
 21
46.506184447574554
  0
LINE
  8
_0-1_
  6
CONTINUOUS
 62
    7
 10
234.68089289059083
 20
40.738913075543479
 11
234.68089289059083
 21
46.588916698284805
  0
LINE
  8
_0-1_
  6
CONTINUOUS
 62
    7
 10
234.28089289059085
 20
40.712173885807346
 11
234.28089289059085
 21
46.615655888020939
  0
LINE
  8
_0-1_
  6
CONTINUOUS
 62
    7
 10
231.6867933565477
 20
34.624556458358171
 11
231.77056450106352
 21
34.708327602873766
  0
LINE
  8
_0-1_
  6
CONTINUOUS
 62
    7
 10
231.12110793159809
 20
34.624556458358626
 11
231.56350926498112
 21
35.066957791741658
  0
LINE
  8
_0-1_
  6
CONTINUOUS
 62
    7
 10
230.55542250664735
 20
34.624556458357944
 11
231.35645402889895
 21
35.425587980609322
  0
LINE
  8
_0-1_
  6
CONTINUOUS
 62
    7
 10
229.98973708169774
 20
34.624556458358171
 11
231.14939879281656
 21
35.784218169476929
  0
LINE
  8
_0-1_
  6
CONTINUOUS
 62
    7
 10
229.42405165674711
 20
34.624556458357716
 11
230.94234355673439
 21
36.142848358345049
  0
LINE
  8
_0-1_
  6
CONTINUOUS
 62
    7
 10
228.85836623180137
 20
34.624556458358171
 11
230.73528832065324
 21
36.501478547210439
  0
LINE
  8
_0-1_
  6
CONTINUOUS
 62
    7
 10
228.29268080685063
 20
34.624556458357944
 11
230.52823308457096
 21
36.860108736077876
  0
LINE
  8
_0-1_
  6
CONTINUOUS
 62
    7
 10
227.72699538190102
 20
34.624556458358171
 11
230.32117784848856
 21
37.218738924945711
  0
LINE
  8
_0-1_
  6
CONTINUOUS
 62
    7
 10
227.16130995695028
 20
34.624556458357603
 11
230.11412261240639
 21
37.577369113813717
  0
LINE
  8
_0-1_
  6
CONTINUOUS
 62
    7
 10
226.59562453200465
 20
34.624556458358171
 11
229.90706737632536
 21
37.935999302679051
  0
LINE
  8
_0-1_
  6
CONTINUOUS
 62
    7
 10
226.02993910705391
 20
34.624556458357716
 11
229.70001214024319
 21
38.294629491546715
  0
LINE
  8
_0-1_
  6
CONTINUOUS
 62
    7
 10
225.4642536821043
 20
34.624556458358171
 11
229.49295690416068
 21
38.653259680414436
  0
LINE
  8
_0-1_
  6
CONTINUOUS
 62
    7
 10
224.89856825715469
 20
34.624556458358626
 11
229.28590166807828
 21
39.011889869281873
  0
LINE
  8
_0-1_
  6
CONTINUOUS
 62
    7
 10
224.33288283220395
 20
34.624556458357944
 11
229.07884643199611
 21
39.370520058149935
  0
LINE
  8
_0-1_
  6
CONTINUOUS
 62
    7
 10
223.76719740725821
 20
34.624556458358626
 11
228.87179119591519
 21
39.729150247015326
  0
LINE
  8
_0-1_
  6
CONTINUOUS
 62
    7
 10
223.24272296701406
 20
34.665767443064539
 11
228.6647359598328
 21
40.087780435882991
  0
LINE
  8
_0-1_
  6
CONTINUOUS
 62
    7
 10
224.0154636280447
 20
36.004193529044954
 11
228.4576807237504
 21
40.446410624750825
  0
LINE
  8
_0-1_
  6
CONTINUOUS
 62
    7
 10
224.78820428907807
 20
37.342619615028553
 11
228.25062548766789
 21
40.805040813618319
  0
LINE
  8
_0-1_
  6
CONTINUOUS
 62
    7
 10
225.56094495010643
 20
38.681045701003399
 11
228.0435702515872
 21
41.163671002484108
  0
LINE
  8
_0-1_
  6
CONTINUOUS
 62
    7
 10
226.333685611139
 20
40.019471786985918
 11
227.83651501550492
 21
41.522301191351829
  0
LINE
  8
_0-1_
  6
CONTINUOUS
 62
    7
 10
227.10642627216987
 20
41.357897872966845
 11
227.6294597794224
 21
41.880931380219437
  0
LINE
  8
_0-1_
  6
CONTINUOUS
 62
    7
 10
223.300834679643
 20
34.766419881853068
 11
223.44269810313915
 21
34.624556458357034
  0
LINE
  8
_0-1_
  6
CONTINUOUS
 62
    7
 10
223.50788991572551
 20
35.125050070720732
 11
224.00838352808887
 21
34.624556458357262
  0
LINE
  8
_0-1_
  6
CONTINUOUS
 62
    7
 10
223.71494515180791
 20
35.48368025958834
 11
224.57406895303848
 21
34.624556458357716
  0
LINE
  8
_0-1_
  6
CONTINUOUS
 62
    7
 10
223.92200038788883
 20
35.84231044845373
 11
225.13975437798524
 21
34.624556458357262
  0
LINE
  8
_0-1_
  6
CONTINUOUS
 62
    7
 10
224.129055623971
 20
36.200940637321622
 11
225.70543980293587
 21
34.624556458356807
  0
LINE
  8
_0-1_
  6
CONTINUOUS
 62
    7
 10
224.33611086005351
 20
36.559570826189287
 11
226.27112522788559
 21
34.624556458357148
  0
LINE
  8
_0-1_
  6
CONTINUOUS
 62
    7
 10
224.54316609613579
 20
36.918201015056951
 11
226.8368106528352
 21
34.624556458357603
  0
LINE
  8
_0-1_
  6
CONTINUOUS
 62
    7
 10
224.7502213322183
 20
37.276831203924388
 11
227.40249607778492
 21
34.624556458358171
  0
LINE
  8
_0-1_
  6
CONTINUOUS
 62
    7
 10
224.95727656829899
 20
37.63546139279029
 11
227.96818150273259
 21
34.624556458356693
  0
LINE
  8
_0-1_
  6
CONTINUOUS
 62
    7
 10
225.1643318043815
 20
37.994091581657898
 11
228.53386692768231
 21
34.624556458357148
  0
LINE
  8
_0-1_
  6
CONTINUOUS
 62
    7
 10
225.3713870404639
 20
38.352721770525335
 11
229.09955235263192
 21
34.624556458357603
  0
LINE
  8
_0-1_
  6
CONTINUOUS
 62
    7
 10
225.57844227654618
 20
38.711351959393227
 11
229.66523777758152
 21
34.624556458357944
  0
LINE
  8
_0-1_
  6
CONTINUOUS
 62
    7
 10
225.7854975126271
 20
39.069982148258617
 11
230.2309232025284
 21
34.624556458357603
  0
LINE
  8
_0-1_
  6
CONTINUOUS
 62
    7
 10
225.99255274870939
 20
39.428612337126509
 11
230.79660862747903
 21
34.624556458357034
  0
LINE
  8
_0-1_
  6
CONTINUOUS
 62
    7
 10
226.1996079847919
 20
39.787242525993946
 11
231.36229405242864
 21
34.624556458357262
  0
LINE
  8
_0-1_
  6
CONTINUOUS
 62
    7
 10
226.40666322087407
 20
40.145872714861895
 11
231.66996515599476
 21
34.882570779741428
  0
LINE
  8
_0-1_
  6
CONTINUOUS
 62
    7
 10
226.61371845695658
 20
40.504502903729502
 11
230.89722449496401
 21
36.220996865721958
  0
LINE
  8
_0-1_
  6
CONTINUOUS
 62
    7
 10
226.82077369303738
 20
40.86313309259512
 11
230.1244838339328
 21
37.559422951699474
  0
LINE
  8
_0-1_
  6
CONTINUOUS
 62
    7
 10
227.02782892911978
 20
41.221763281462785
 11
229.35174317290284
 21
38.89784903767989
  0
LINE
  8
_0-1_
  6
CONTINUOUS
 62
    7
 10
227.23488416520195
 20
41.580393470330506
 11
228.5790025118697
 21
40.236275123662921
  0
LINE
  8
_0-1_
  6
CONTINUOUS
 62
    7
 10
227.44193940128446
 20
41.939023659198341
 11
227.80626185083884
 21
41.574701209643621
  0
LINE
  8
_0-1_
  6
CONTINUOUS
 62
    7
 10
222.0808928905908
 20
23.459434510626039
 11
222.0808928905908
 21
31.87897293210986
  0
LINE
  8
_0-1_
  6
CONTINUOUS
 62
    7
 10
221.88089289059087
 20
23.459434510626039
 11
221.88089289059087
 21
31.87897293210986
  0
LINE
  8
_0-1_
  6
CONTINUOUS
 62
    7
 10
221.68089289059094
 20
23.459434510626039
 11
221.68089289059094
 21
31.87897293210986
  0
LINE
  8
_0-1_
  6
CONTINUOUS
 62
    7
 10
221.48089289059078
 20
23.459434510626039
 11
221.48089289059089
 21
31.87897293210986
  0
LINE
  8
_0-1_
  6
CONTINUOUS
 62
    7
 10
221.28089289059085
 20
23.459434510626039
 11
221.28089289059085
 21
31.87897293210986
  0
LINE
  8
_0-1_
  6
CONTINUOUS
 62
    7
 10
221.0808928905908
 20
23.459434510626039
 11
221.0808928905908
 21
31.87897293210986
  0
LINE
  8
_0-1_
  6
CONTINUOUS
 62
    7
 10
220.88089289059087
 20
23.459434510626039
 11
220.88089289059087
 21
31.87897293210986
  0
LINE
  8
_0-1_
  6
CONTINUOUS
 62
    7
 10
220.68089289059083
 20
23.459434510626039
 11
220.68089289059083
 21
31.87897293210986
  0
LINE
  8
_0-1_
  6
CONTINUOUS
 62
    7
 10
220.48089289059089
 20
23.459434510626039
 11
220.48089289059089
 21
31.87897293210986
  0
LINE
  8
_0-1_
  6
CONTINUOUS
 62
    7
 10
220.28089289059085
 20
23.459434510626039
 11
220.28089289059085
 21
31.87897293210986
  0
LINE
  8
_0-1_
  6
CONTINUOUS
 62
    7
 10
220.0808928905908
 20
23.459434510626039
 11
220.0808928905908
 21
31.87897293210986
  0
LINE
  8
_0-1_
  6
CONTINUOUS
 62
    7
 10
219.88089289059076
 20
23.459434510626039
 11
219.88089289059076
 21
31.87897293210986
  0
LINE
  8
_0-1_
  6
CONTINUOUS
 62
    7
 10
219.68089289059094
 20
23.459434510626039
 11
219.68089289059094
 21
31.87897293210986
  0
LINE
  8
_0-1_
  6
CONTINUOUS
 62
    7
 10
219.48089289059089
 20
23.459434510626039
 11
219.48089289059089
 21
31.87897293210986
  0
LINE
  8
_0-1_
  6
CONTINUOUS
 62
    7
 10
219.28089289059085
 20
23.459434510626039
 11
219.28089289059085
 21
31.87897293210986
  0
LINE
  8
_0-1_
  6
CONTINUOUS
 62
    7
 10
219.0808928905908
 20
23.459434510626039
 11
219.0808928905908
 21
31.87897293210986
  0
LINE
  8
_0-1_
  6
CONTINUOUS
 62
    7
 10
218.88089289059087
 20
23.459434510626039
 11
218.88089289059087
 21
31.87897293210986
  0
LINE
  8
_0-1_
  6
CONTINUOUS
 62
    7
 10
218.68089289059083
 20
23.459434510626039
 11
218.68089289059083
 21
31.87897293210986
  0
LINE
  8
_0-1_
  6
CONTINUOUS
 62
    7
 10
218.48089289059089
 20
23.459434510626039
 11
218.48089289059089
 21
31.87897293210986
  0
LINE
  8
_0-1_
  6
CONTINUOUS
 62
    7
 10
218.28089289059085
 20
23.459434510626039
 11
218.28089289059085
 21
31.87897293210986
  0
LINE
  8
_0-1_
  6
CONTINUOUS
 62
    7
 10
218.0808928905908
 20
23.459434510626039
 11
218.0808928905908
 21
31.87897293210986
  0
LINE
  8
_0-1_
  6
CONTINUOUS
 62
    7
 10
217.88089289059087
 20
23.459434510626039
 11
217.88089289059087
 21
31.87897293210986
  0
LINE
  8
_0-1_
  6
CONTINUOUS
 62
    7
 10
217.68089289059083
 20
23.459434510626039
 11
217.68089289059083
 21
31.87897293210986
  0
LINE
  8
_0-1_
  6
CONTINUOUS
 62
    7
 10
217.48089289059089
 20
23.459434510626039
 11
217.48089289059089
 21
31.87897293210986
  0
LINE
  8
_0-1_
  6
CONTINUOUS
 62
    7
 10
217.28089289059085
 20
23.459434510626039
 11
217.28089289059085
 21
31.87897293210986
  0
LINE
  8
_0-1_
  6
CONTINUOUS
 62
    7
 10
217.0808928905908
 20
23.459434510626039
 11
217.0808928905908
 21
31.87897293210986
  0
LINE
  8
_0-1_
  6
CONTINUOUS
 62
    7
 10
216.88089289059087
 20
23.459434510626039
 11
216.88089289059087
 21
31.87897293210986
  0
LINE
  8
_0-1_
  6
CONTINUOUS
 62
    7
 10
216.68089289059094
 20
23.459434510626039
 11
216.68089289059094
 21
31.87897293210986
  0
LINE
  8
_0-1_
  6
CONTINUOUS
 62
    7
 10
216.48089289059089
 20
23.459434510626039
 11
216.48089289059089
 21
31.87897293210986
  0
LINE
  8
_0-1_
  6
CONTINUOUS
 62
    7
 10
216.28089289059085
 20
23.459434510626039
 11
216.28089289059085
 21
31.87897293210986
  0
LINE
  8
_0-1_
  6
CONTINUOUS
 62
    7
 10
216.0808928905908
 20
23.459434510626039
 11
216.0808928905908
 21
31.87897293210986
  0
LINE
  8
_0-1_
  6
CONTINUOUS
 62
    7
 10
215.88089289059087
 20
23.459434510626039
 11
215.88089289059087
 21
31.87897293210986
  0
LINE
  8
_0-1_
  6
CONTINUOUS
 62
    7
 10
215.68089289059083
 20
23.459434510626039
 11
215.68089289059083
 21
31.87897293210986
  0
LINE
  8
_0-1_
  6
CONTINUOUS
 62
    7
 10
215.48089289059089
 20
23.459434510626039
 11
215.48089289059089
 21
31.87897293210986
  0
LINE
  8
_0-1_
  6
CONTINUOUS
 62
    7
 10
215.28089289059085
 20
23.459434510626039
 11
215.28089289059085
 21
31.87897293210986
  0
LINE
  8
_0-1_
  6
CONTINUOUS
 62
    7
 10
215.08089289059092
 20
23.459434510626039
 11
215.08089289059092
 21
31.87897293210986
  0
LINE
  8
_0-1_
  6
CONTINUOUS
 62
    7
 10
214.88089289059076
 20
23.459434510626039
 11
214.88089289059076
 21
31.87897293210986
  0
LINE
  8
_0-1_
  6
CONTINUOUS
 62
    7
 10
214.68089289059083
 20
23.459434510626039
 11
214.68089289059083
 21
31.87897293210986
  0
LINE
  8
_0-1_
  6
CONTINUOUS
 62
    7
 10
214.48089289059089
 20
23.459434510626039
 11
214.48089289059089
 21
31.87897293210986
  0
LINE
  8
_0-1_
  6
CONTINUOUS
 62
    7
 10
214.28089289059085
 20
23.459434510626039
 11
214.28089289059085
 21
31.87897293210986
  0
LINE
  8
_0-1_
  6
CONTINUOUS
 62
    7
 10
214.0808928905908
 20
23.459434510626039
 11
214.0808928905908
 21
31.87897293210986
  0
LINE
  8
_0-1_
  6
CONTINUOUS
 62
    7
 10
213.88089289059087
 20
23.459434510626039
 11
213.88089289059087
 21
31.87897293210986
  0
LINE
  8
_0-1_
  6
CONTINUOUS
 62
    4
 10
218.48038798555967
 20
38.033239697991888
 11
207.10007120527621
 21
23.215602747337158
  0
LINE
  8
_0-1_
  6
CONTINUOUS
 62
    4
 10
207.10007120527621
 20
23.215602747337158
 11
205.98526466353405
 21
22.751100021611052
  0
LINE
  8
_0-1_
  6
CONTINUOUS
 62
    4
 10
205.98526466353405
 20
22.751100021611052
 11
204.96335866693721
 21
22.379497841030599
  0
LINE
  8
_0-1_
  6
CONTINUOUS
 62
    4
 10
204.96335866693721
 20
22.379497841030599
 11
204.40595539606625
 21
22.890450839328793
  0
LINE
  8
_0-1_
  6
CONTINUOUS
 62
    4
 10
204.40595539606625
 20
22.890450839328793
 11
203.94145267034037
 21
23.540754655345069
  0
LINE
  8
_0-1_
  6
CONTINUOUS
 62
    4
 10
203.94145267034037
 20
23.540754655345069
 11
203.56985048975957
 21
24.794912014804851
  0
LINE
  8
_0-1_
  6
CONTINUOUS
 62
    4
 10
203.56985048975957
 20
24.794912014804851
 11
203.94145267034037
 21
25.956168829119662
  0
LINE
  8
_0-1_
  6
CONTINUOUS
 62
    4
 10
203.94145267034037
 20
25.956168829119662
 11
205.33496084751789
 21
27.953530549740805
  0
LINE
  8
_0-1_
  6
CONTINUOUS
 62
    4
 10
205.33496084751789
 20
27.953530549740805
 11
215.83272244892237
 21
42.167313956952086
  0
LINE
  8
_0-1_
  6
CONTINUOUS
 62
    4
 10
215.83272244892237
 20
42.167313956952086
 11
215.83272244892237
 21
43.189219953548758
  0
LINE
  8
_0-1_
  6
CONTINUOUS
 62
    4
 10
215.83272244892237
 20
43.189219953548758
 11
216.11142408435785
 21
43.839523769565034
  0
LINE
  8
_0-1_
  6
CONTINUOUS
 62
    4
 10
216.11142408435785
 20
43.839523769565034
 11
216.85462844551921
 21
44.67562867587165
  0
LINE
  8
_0-1_
  6
CONTINUOUS
 62
    4
 10
216.85462844551921
 20
44.67562867587165
 11
217.08687980838215
 21
44.907880038734305
  0
LINE
  8
_0-1_
  6
CONTINUOUS
 62
    4
 10
217.08687980838215
 20
44.907880038734305
 11
217.50493226153549
 21
45.511733582178152
  0
LINE
  8
_0-1_
  6
CONTINUOUS
 62
    4
 10
217.50493226153549
 20
45.511733582178152
 11
218.20168635012419
 21
45.604634127323237
  0
LINE
  8
_0-1_
  6
CONTINUOUS
 62
    4
 10
218.20168635012419
 20
45.604634127323237
 11
219.40939343701143
 21
45.83688549018629
  0
LINE
  8
_0-1_
  6
CONTINUOUS
 62
    4
 10
219.40939343701143
 20
45.83688549018629
 11
219.87389616273731
 21
45.790435217613634
  0
LINE
  8
_0-1_
  6
CONTINUOUS
 62
    4
 10
219.87389616273731
 20
45.790435217613634
 11
220.84935188676161
 21
45.465283309605496
  0
LINE
  8
_0-1_
  6
CONTINUOUS
 62
    4
 10
220.84935188676161
 20
45.465283309605496
 11
221.22095406734229
 21
45.000780583879845
  0
LINE
  8
_0-1_
  6
CONTINUOUS
 62
    4
 10
221.22095406734229
 20
45.000780583879845
 11
222.24286006393913
 21
43.653722679274637
  0
LINE
  8
_0-1_
  6
CONTINUOUS
 62
    4
 10
222.24286006393913
 20
43.653722679274637
 11
225.40147859887497
 21
38.404841878572455
  0
LINE
  8
_0-1_
  6
CONTINUOUS
 62
    4
 10
227.6392042004461
 20
34.624556458357716
 11
232.13494756250452
 21
26.863847727654417
  0
LINE
  8
_0-1_
  6
CONTINUOUS
 62
    4
 10
232.13494756250452
 20
26.863847727654417
 11
232.56605602732157
 21
25.755283103839162
  0
LINE
  8
_0-1_
  6
CONTINUOUS
 62
    4
 10
232.56605602732157
 20
25.755283103839162
 11
232.38129525668569
 21
25.201000791931762
  0
LINE
  8
_0-1_
  6
CONTINUOUS
 62
    4
 10
232.38129525668569
 20
25.201000791931762
 11
231.82701294477818
 21
24.431164247615612
  0
LINE
  8
_0-1_
  6
CONTINUOUS
 62
    4
 10
231.82701294477818
 20
24.431164247615612
 11
229.67147062069307
 21
23.784501550390047
  0
LINE
  8
_0-1_
  6
CONTINUOUS
 62
    4
 10
229.67147062069307
 20
23.784501550390047
 11
228.37814522624205
 21
23.322599623800357
  0
LINE
  8
_0-1_
  6
CONTINUOUS
 62
    4
 10
228.37814522624205
 20
23.322599623800357
 11
227.23878714065427
 21
23.784501550390047
  0
LINE
  8
_0-1_
  6
CONTINUOUS
 62
    4
 10
227.23878714065427
 20
23.784501550390047
 11
225.48355981961356
 21
25.662902718521337
  0
LINE
  8
_0-1_
  6
CONTINUOUS
 62
    4
 10
225.48355981961356
 20
25.662902718521337
 11
225.42197289606827
 21
26.679086957018541
  0
LINE
  8
_0-1_
  6
CONTINUOUS
 62
    4
 10
225.42197289606827
 20
26.679086957018541
 11
218.48038798555967
 21
38.033239697991888
  0
LINE
  8
_0-1_
  6
CONTINUOUS
 62
    4
 10
231.61090701636533
 20
24.366332469092782
 11
232.21600361592357
 21
24.971429068651247
  0
LINE
  8
_0-1_
  6
CONTINUOUS
 62
    4
 10
230.80278498072607
 20
24.123895858400061
 11
232.5291285629977
 21
25.8502394406718
  0
LINE
  8
_0-1_
  6
CONTINUOUS
 62
    4
 10
229.99466294508318
 20
23.881459247707113
 11
232.37073664401157
 21
26.257532946635621
  0
LINE
  8
_0-1_
  6
CONTINUOUS
 62
    4
 10
229.14343604621831
 20
23.595917773792308
 11
232.21234472502533
 21
26.664826452599556
  0
LINE
  8
_0-1_
  6
CONTINUOUS
 62
    4
 10
228.3256957659778
 20
23.343862918502083
 11
232.02884262051066
 21
27.047009773034716
  0
LINE
  8
_0-1_
  6
CONTINUOUS
 62
    4
 10
227.9231888289969
 20
23.507041406467494
 11
231.82134566503214
 21
27.405198242502848
  0
LINE
  8
_0-1_
  6
CONTINUOUS
 62
    4
 10
227.5206818920135
 20
23.670219894434041
 11
231.61384870955249
 21
27.763386711973141
  0
LINE
  8
_0-1_
  6
CONTINUOUS
 62
    4
 10
227.15690566603405
 20
23.87212909340488
 11
231.4063517540726
 21
28.121575181443433
  0
LINE
  8
_0-1_
  6
CONTINUOUS
 62
    4
 10
226.8836508421175
 20
24.164559694438282
 11
231.19885479859272
 21
28.479763650913497
  0
LINE
  8
_0-1_
  6
CONTINUOUS
 62
    4
 10
226.61039601820096
 20
24.45699029547157
 11
230.99135784311306
 21
28.837952120383903
  0
LINE
  8
_0-1_
  6
CONTINUOUS
 62
    4
 10
226.33714119428623
 20
24.749420896503494
 11
230.78386088763455
 21
29.196140589851694
  0
LINE
  8
_0-1_
  6
CONTINUOUS
 62
    4
 10
226.06388637036957
 20
25.041851497536896
 11
230.57636393215478
 21
29.554329059321987
  0
LINE
  8
_0-1_
  6
CONTINUOUS
 62
    4
 10
225.79063154645303
 20
25.334282098570526
 11
230.36886697667478
 21
29.912517528792165
  0
LINE
  8
_0-1_
  6
CONTINUOUS
 62
    4
 10
225.51737672253648
 20
25.626712699603701
 11
230.1613700211949
 21
30.270705998262457
  0
LINE
  8
_0-1_
  6
CONTINUOUS
 62
    4
 10
225.45523533372227
 20
26.130256735736026
 11
229.95387306571661
 21
30.628894467730476
  0
LINE
  8
_0-1_
  6
CONTINUOUS
 62
    4
 10
225.42291045229649
 20
26.663617279260308
 11
229.74637611023684
 21
30.987082937200654
  0
LINE
  8
_0-1_
  6
CONTINUOUS
 62
    4
 10
225.21357128501029
 20
27.019963536924166
 11
229.53887915475696
 21
31.345271406670832
  0
LINE
  8
_0-1_
  6
CONTINUOUS
 62
    4
 10
224.99894460612302
 20
27.37102228298707
 11
229.33138219927696
 21
31.703459876141011
  0
LINE
  8
_0-1_
  6
CONTINUOUS
 62
    4
 10
224.78431792723609
 20
27.722081029050202
 11
229.12388524379719
 21
32.061648345611189
  0
LINE
  8
_0-1_
  6
CONTINUOUS
 62
    4
 10
224.56969124835018
 20
28.073139775110718
 11
228.91638828831879
 21
32.419836815079321
  0
LINE
  8
_0-1_
  6
CONTINUOUS
 62
    4
 10
224.35506456946314
 20
28.424198521173736
 11
228.70889133283902
 21
32.7780252845495
  0
LINE
  8
_0-1_
  6
CONTINUOUS
 62
    4
 10
224.14043789057587
 20
28.775257267236526
 11
228.50139437735913
 21
33.136213754019792
  0
LINE
  8
_0-1_
  6
CONTINUOUS
 62
    4
 10
223.9258112116886
 20
29.12631601329943
 11
228.29389742187925
 21
33.494402223489857
  0
LINE
  8
_0-1_
  6
CONTINUOUS
 62
    4
 10
223.71118453280292
 20
29.477374759360174
 11
228.08640046640085
 21
33.852590692957875
  0
LINE
  8
_0-1_
  6
CONTINUOUS
 62
    4
 10
223.49655785391599
 20
29.828433505423419
 11
227.87890351092108
 21
34.210779162428508
  0
LINE
  8
_0-1_
  6
CONTINUOUS
 62
    4
 10
223.28193117502883
 20
30.179492251486096
 11
227.67140655544119
 21
34.56896763189846
  0
LINE
  8
_0-1_
  6
CONTINUOUS
 62
    4
 10
223.06730449614156
 20
30.530550997548886
 11
227.16130995695028
 21
34.624556458357603
  0
LINE
  8
_0-1_
  6
CONTINUOUS
 62
    4
 10
222.85267781725577
 20
30.881609743609403
 11
226.59562453200465
 21
34.624556458358171
  0
LINE
  8
_0-1_
  6
CONTINUOUS
 62
    4
 10
222.63805113836872
 20
31.232668489672648
 11
226.02993910705391
 21
34.624556458357716
  0
LINE
  8
_0-1_
  6
CONTINUOUS
 62
    4
 10
222.42342445948157
 20
31.583727235735438
 11
225.4642536821043
 21
34.624556458358171
  0
LINE
  8
_0-1_
  6
CONTINUOUS
 62
    4
 10
222.20879778059452
 20
31.934785981798228
 11
224.89856825715469
 21
34.624556458358626
  0
LINE
  8
_0-1_
  6
CONTINUOUS
 62
    4
 10
221.99417110170737
 20
32.28584472786136
 11
224.33288283220395
 21
34.624556458357944
  0
LINE
  8
_0-1_
  6
CONTINUOUS
 62
    4
 10
221.77954442282157
 20
32.63690347392199
 11
223.76719740725821
 21
34.624556458358626
  0
LINE
  8
_0-1_
  6
CONTINUOUS
 62
    4
 10
221.56491774393453
 20
32.987962219985008
 11
223.24272296701406
 21
34.665767443064539
  0
LINE
  8
_0-1_
  6
CONTINUOUS
 62
    4
 10
221.35029106504737
 20
33.339020966047798
 11
224.0154636280447
 21
36.004193529044954
  0
LINE
  8
_0-1_
  6
CONTINUOUS
 62
    4
 10
221.1356643861601
 20
33.690079712110474
 11
224.78820428907807
 21
37.342619615028553
  0
LINE
  8
_0-1_
  6
CONTINUOUS
 62
    4
 10
220.92103770727431
 20
34.041138458171332
 11
225.35762142737508
 21
38.477722178271819
  0
LINE
  8
_0-1_
  6
CONTINUOUS
 62
    4
 10
220.70641102838738
 20
34.392197204234463
 11
225.14509872628878
 21
38.830884902135637
  0
LINE
  8
_0-1_
  6
CONTINUOUS
 62
    4
 10
220.49178434950022
 20
34.74325595029714
 11
224.93257602520237
 21
39.184047625999511
  0
LINE
  8
_0-1_
  6
CONTINUOUS
 62
    4
 10
220.27715767061295
 20
35.094314696360101
 11
224.72005332411607
 21
39.537210349863102
  0
LINE
  8
_0-1_
  6
CONTINUOUS
 62
    4
 10
220.06253099172579
 20
35.445373442423119
 11
224.50753062302999
 21
39.890373073726863
  0
LINE
  8
_0-1_
  6
CONTINUOUS
 62
    4
 10
219.84790431284023
 20
35.796432188483863
 11
224.29500792194517
 21
40.243535797588578
  0
LINE
  8
_0-1_
  6
CONTINUOUS
 62
    4
 10
206.41661676207605
 20
22.930830062669799
 11
208.42003108150573
 21
24.934244382099365
  0
LINE
  8
_0-1_
  6
CONTINUOUS
 62
    4
 10
219.63327763395307
 20
36.147490934546482
 11
224.08248522085898
 21
40.596698521452623
  0
LINE
  8
_0-1_
  6
CONTINUOUS
 62
    4
 10
205.49173651465787
 20
22.571635240201346
 11
210.2929085019457
 21
27.372807227489517
  0
LINE
  8
_0-1_
  6
CONTINUOUS
 62
    4
 10
219.4186509550658
 20
36.498549680609443
 11
223.86996251977268
 21
40.949861245316328
  0
LINE
  8
_0-1_
  6
CONTINUOUS
 62
    4
 10
204.84364824446743
 20
22.489232394961078
 11
212.16578592239023
 21
29.811370072883989
  0
LINE
  8
_0-1_
  6
CONTINUOUS
 62
    4
 10
219.20402427617864
 20
36.849608426672404
 11
223.65743981868627
 21
41.303023969180089
  0
LINE
  8
_0-1_
  6
CONTINUOUS
 62
    4
 10
204.54850802275621
 20
22.759777598196621
 11
214.03866334281952
 21
32.249932918259816
  0
LINE
  8
_0-1_
  6
CONTINUOUS
 62
    4
 10
218.98939759729296
 20
37.200667172733205
 11
223.44491711760168
 21
41.656186693041803
  0
LINE
  8
_0-1_
  6
CONTINUOUS
 62
    4
 10
204.28409724726293
 20
23.061052247653294
 11
215.91154076326575
 21
34.688495763655993
  0
LINE
  8
_0-1_
  6
CONTINUOUS
 62
    4
 10
218.77477091840592
 20
37.551725918796279
 11
223.23239441651526
 21
42.009349416905565
  0
LINE
  8
_0-1_
  6
CONTINUOUS
 62
    4
 10
204.04839498686715
 20
23.391035412207344
 11
217.78441818370766
 21
37.127058609047793
  0
LINE
  8
_0-1_
  6
CONTINUOUS
 62
    4
 10
218.56014423951865
 20
37.902784664858842
 11
223.01987171542919
 21
42.362512140769383
  0
LINE
  8
_0-1_
  6
CONTINUOUS
 62
    4
 10
203.87081864398886
 20
23.779144494279222
 11
222.80734901434289
 21
42.715674864633257
  0
LINE
  8
_0-1_
  6
CONTINUOUS
 62
    4
 10
203.74151911828653
 20
24.215530393527075
 11
222.59482631325659
 21
43.068837588496905
  0
LINE
  8
_0-1_
  6
CONTINUOUS
 62
    4
 10
203.61221959258432
 20
24.65191629277129
 11
222.38230361217188
 21
43.42200031235879
  0
LINE
  8
_0-1_
  6
CONTINUOUS
 62
    4
 10
203.74882488980302
 20
25.354207014940044
 11
222.15894968716225
 21
43.764331812299218
  0
LINE
  8
_0-1_
  6
CONTINUOUS
 62
    4
 10
204.30226357335459
 20
26.473331123441682
 11
221.91492852345812
 21
44.085996073545033
  0
LINE
  8
_0-1_
  6
CONTINUOUS
 62
    4
 10
205.66882859322322
 20
28.405581568260487
 11
221.67090735975421
 21
44.407660334791075
  0
LINE
  8
_0-1_
  6
CONTINUOUS
 62
    4
 10
207.26688991869116
 20
30.569328318674962
 11
221.42688619605178
 21
44.729324596035298
  0
LINE
  8
_0-1_
  6
CONTINUOUS
 62
    4
 10
208.86495124417615
 20
32.733075069109674
 11
221.18171081916626
 21
45.049834644099775
  0
LINE
  8
_0-1_
  6
CONTINUOUS
 62
    4
 10
210.46301256965853
 20
34.896821819542112
 11
220.93029507474398
 21
45.364104324627448
  0
LINE
  8
_0-1_
  6
CONTINUOUS
 62
    4
 10
212.0610738951458
 20
37.060568569979438
 11
220.56167944776951
 21
45.561174122602921
  0
LINE
  8
_0-1_
  6
CONTINUOUS
 62
    4
 10
213.65913522062601
 20
39.224315320409772
 11
220.13741537905707
 21
45.702595478840834
  0
LINE
  8
_0-1_
  6
CONTINUOUS
 62
    4
 10
215.25719654610066
 20
41.388062070830614
 11
219.6790539174159
 21
45.809919442145969
  0
LINE
  8
_0-1_
  6
CONTINUOUS
 62
    4
 10
215.83272244892294
 20
42.529273398603237
 11
219.07627289848051
 21
45.772823848160584
  0
LINE
  8
_0-1_
  6
CONTINUOUS
 62
    4
 10
215.83272244892271
 20
43.094958823552901
 11
218.37590046759067
 21
45.63813684222086
  0
LINE
  8
_0-1_
  6
CONTINUOUS
 62
    4
 10
217.10245333914258
 20
44.930375138722724
 11
217.71133170891596
 21
45.539253508496216
  0
LINE
  8
_0-1_
  6
CONTINUOUS
 62
    4
 10
203.92543823305425
 20
23.594803381182288
 11
205.09344107820118
 21
22.426800536035358
  0
LINE
  8
_0-1_
  6
CONTINUOUS
 62
    4
 10
203.68725489623421
 20
24.398672142952393
 11
205.50827705649772
 21
22.577649982688769
  0
LINE
  8
_0-1_
  6
CONTINUOUS
 62
    4
 10
203.63938987389838
 20
25.012222590238167
 11
205.92311303479414
 21
22.728499429342406
  0
LINE
  8
_0-1_
  6
CONTINUOUS
 62
    4
 10
203.77652573449245
 20
25.440772154594157
 11
206.32474692513949
 21
22.892550963947002
  0
LINE
  8
_0-1_
  6
CONTINUOUS
 62
    4
 10
203.91366159508527
 20
25.869321718947873
 11
206.72405428392528
 21
23.058929030107635
  0
LINE
  8
_0-1_
  6
CONTINUOUS
 62
    4
 10
204.12681454959625
 20
26.221854189386846
 11
207.11440404687289
 21
23.234264692110088
  0
LINE
  8
_0-1_
  6
CONTINUOUS
 62
    4
 10
204.3592880119046
 20
26.555066152028672
 11
207.3601361906899
 21
23.554217973243254
  0
LINE
  8
_0-1_
  6
CONTINUOUS
 62
    4
 10
204.59176147421283
 20
26.888278114670385
 11
207.60586833450691
 21
23.874171254376421
  0
LINE
  8
_0-1_
  6
CONTINUOUS
 62
    4
 10
204.8242349365197
 20
27.221490077310051
 11
207.85160047832244
 21
24.1941245355072
  0
LINE
  8
_0-1_
  6
CONTINUOUS
 62
    4
 10
205.05670839882782
 20
27.554702039951877
 11
208.09733262213911
 21
24.51407781664048
  0
LINE
  8
_0-1_
  6
CONTINUOUS
 62
    4
 10
205.28918186113594
 20
27.887914002593931
 11
208.34306476595623
 21
24.834031097773646
  0
LINE
  8
_0-1_
  6
CONTINUOUS
 62
    4
 10
205.52794865853502
 20
28.214832630145025
 11
208.58879690977312
 21
25.153984378906927
  0
LINE
  8
_0-1_
  6
CONTINUOUS
 62
    4
 10
205.76825863229055
 20
28.540208081335692
 11
208.83452905358865
 21
25.473937660037706
  0
LINE
  8
_0-1_
  6
CONTINUOUS
 62
    4
 10
206.00856860604756
 20
28.865583532528746
 11
209.08026119740543
 21
25.793890941170872
  0
LINE
  8
_0-1_
  6
CONTINUOUS
 62
    4
 10
206.24887857980457
 20
29.190958983722027
 11
209.32599334122233
 21
26.113844222303811
  0
LINE
  8
_0-1_
  6
CONTINUOUS
 62
    4
 10
206.48918855356135
 20
29.516334434914967
 11
209.57172548503945
 21
26.433797503436978
  0
LINE
  8
_0-1_
  6
CONTINUOUS
 62
    4
 10
206.72949852731847
 20
29.841709886108134
 11
209.81745762885646
 21
26.753750784570144
  0
LINE
  8
_0-1_
  6
CONTINUOUS
 62
    4
 10
206.969808501074
 20
30.167085337299028
 11
210.06318977267188
 21
27.073704065701378
  0
LINE
  8
_0-1_
  6
CONTINUOUS
 62
    4
 10
207.21011847483089
 20
30.492460788492195
 11
210.30892191648866
 21
27.393657346834544
  0
LINE
  8
_0-1_
  6
CONTINUOUS
 62
    4
 10
207.45042844858779
 20
30.817836239685363
 11
210.55465406030567
 21
27.71361062796737
  0
LINE
  8
_0-1_
  6
CONTINUOUS
 62
    4
 10
207.69073842234479
 20
31.143211690878303
 11
210.80038620412267
 21
28.033563909100536
  0
LINE
  8
_0-1_
  6
CONTINUOUS
 62
    4
 10
207.93104839610032
 20
31.468587142069197
 11
211.04611834793809
 21
28.353517190231429
  0
LINE
  8
_0-1_
  6
CONTINUOUS
 62
    4
 10
208.17135836985722
 20
31.793962593262364
 11
211.29185049175487
 21
28.673470471364595
  0
LINE
  8
_0-1_
  6
CONTINUOUS
 62
    4
 10
208.41166834361422
 20
32.119338044455532
 11
211.53758263557188
 21
28.993423752497762
  0
LINE
  8
_0-1_
  6
CONTINUOUS
 62
    4
 10
208.65197831737123
 20
32.444713495648699
 11
211.783314779389
 21
29.313377033630928
  0
LINE
  8
_0-1_
  6
CONTINUOUS
 62
    4
 10
208.89228829112824
 20
32.770088946841639
 11
212.0290469232059
 21
29.633330314764095
  0
LINE
  8
_0-1_
  6
CONTINUOUS
 62
    4
 10
209.13259826488377
 20
33.095464398032533
 11
212.27477906702131
 21
29.953283595894987
  0
LINE
  8
_0-1_
  6
CONTINUOUS
 62
    4
 10
209.37290823864066
 20
33.4208398492257
 11
212.52051121083809
 21
30.273236877028154
  0
LINE
  8
_0-1_
  6
CONTINUOUS
 62
    4
 10
209.61321821239767
 20
33.746215300418868
 11
212.76624335465522
 21
30.59319015816132
  0
LINE
  8
_0-1_
  6
CONTINUOUS
 62
    4
 10
209.85352818615456
 20
34.071590751611581
 11
213.01197549847222
 21
30.913143439294259
  0
LINE
  8
_0-1_
  6
CONTINUOUS
 62
    4
 10
210.09383815991009
 20
34.396966202803043
 11
213.25770764228753
 21
31.23309672042538
  0
LINE
  8
_0-1_
  6
CONTINUOUS
 62
    4
 10
210.3341481336671
 20
34.722341653995642
 11
213.50343978610442
 21
31.553050001558546
  0
LINE
  8
_0-1_
  6
CONTINUOUS
 62
    4
 10
210.57445810742399
 20
35.047717105189037
 11
213.74917192992143
 21
31.873003282691712
  0
LINE
  8
_0-1_
  6
CONTINUOUS
 62
    4
 10
210.814768081181
 20
35.373092556382204
 11
213.99490407373844
 21
32.192956563824652
  0
LINE
  8
_0-1_
  6
CONTINUOUS
 62
    4
 10
211.05507805493801
 20
35.69846800757486
 11
214.24063621755533
 21
32.512909844957704
  0
LINE
  8
_0-1_
  6
CONTINUOUS
 62
    4
 10
211.29538802869354
 20
36.023843458765981
 11
214.48636836137075
 21
32.832863126088938
  0
LINE
  8
_0-1_
  6
CONTINUOUS
 62
    4
 10
211.53569800245043
 20
36.349218909958978
 11
214.73210050518765
 21
33.152816407221877
  0
LINE
  8
_0-1_
  6
CONTINUOUS
 62
    4
 10
211.77600797620744
 20
36.674594361152089
 11
214.97783264900465
 21
33.472769688355044
  0
LINE
  8
_0-1_
  6
CONTINUOUS
 62
    4
 10
212.01631794996433
 20
36.999969812345256
 11
215.22356479282166
 21
33.792722969487983
  0
LINE
  8
_0-1_
  6
CONTINUOUS
 62
    4
 10
212.25662792371986
 20
37.32534526353632
 11
215.46929693663697
 21
34.11267625061933
  0
LINE
  8
_0-1_
  6
CONTINUOUS
 62
    4
 10
212.49693789747687
 20
37.650720714729317
 11
215.71502908045386
 21
34.432629531752497
  0
LINE
  8
_0-1_
  6
CONTINUOUS
 62
    4
 10
212.73724787123388
 20
37.976096165922428
 11
215.96076122427087
 21
34.752582812885322
  0
LINE
  8
_0-1_
  6
CONTINUOUS
 62
    4
 10
212.97755784499077
 20
38.301471617115425
 11
216.20649336808788
 21
35.072536094018147
  0
LINE
  8
_0-1_
  6
CONTINUOUS
 62
    4
 10
225.47500711484213
 20
25.804022347264123
 11
227.66889661925768
 21
23.610132842848458
  0
LINE
  8
_0-1_
  6
CONTINUOUS
 62
    4
 10
213.21786781874789
 20
38.626847068308592
 11
216.45222551190477
 21
35.392489375151257
  0
LINE
  8
_0-1_
  6
CONTINUOUS
 62
    4
 10
225.4385112809731
 20
26.406203606083324
 11
228.48422841141019
 21
23.36048647564624
  0
LINE
  8
_0-1_
  6
CONTINUOUS
 62
    4
 10
213.45817779250319
 20
38.952222519499713
 11
216.69795765572019
 21
35.712442656282605
  0
LINE
  8
_0-1_
  6
CONTINUOUS
 62
    4
 10
224.93533718998447
 20
27.475063122018383
 11
228.90104925084438
 21
23.509351061158583
  0
LINE
  8
_0-1_
  6
CONTINUOUS
 62
    4
 10
213.69848776626031
 20
39.277597970692426
 11
216.9436897995372
 21
36.0323959374156
  0
LINE
  8
_0-1_
  6
CONTINUOUS
 62
    4
 10
224.04543508291385
 20
28.930650654038942
 11
229.31787009028119
 21
23.658215646671721
  0
LINE
  8
_0-1_
  6
CONTINUOUS
 62
    4
 10
213.93879774001721
 20
39.602973421885594
 11
217.18942194335409
 21
36.35234921854871
  0
LINE
  8
_0-1_
  6
CONTINUOUS
 62
    4
 10
223.15553297584347
 20
30.386238186059387
 11
229.73746984440049
 21
23.804301317502478
  0
LINE
  8
_0-1_
  6
CONTINUOUS
 62
    4
 10
214.17910771377421
 20
39.92834887307859
 11
217.4351540871711
 21
36.672302499681876
  0
LINE
  8
_0-1_
  6
CONTINUOUS
 62
    4
 10
222.26563086876627
 20
31.841825718086653
 11
230.17261247897716
 21
23.934844107875648
  0
LINE
  8
_0-1_
  6
CONTINUOUS
 62
    4
 10
214.41941768752963
 20
40.253724324269655
 11
217.6808862309864
 21
36.992255780812997
  0
LINE
  8
_0-1_
  6
CONTINUOUS
 62
    4
 10
221.37572876170077
 20
33.297413250098685
 11
230.607755113552
 21
24.06538689824734
  0
LINE
  8
_0-1_
  6
CONTINUOUS
 62
    4
 10
214.65972766128664
 20
40.579099775462765
 11
217.92661837480341
 21
37.31220906194622
  0
LINE
  8
_0-1_
  6
CONTINUOUS
 62
    4
 10
220.48582665463039
 20
34.753000782118903
 11
231.04289774812878
 21
24.195929688620623
  0
LINE
  8
_0-1_
  6
CONTINUOUS
 62
    4
 10
214.90003763504365
 20
40.904475226655762
 11
218.17235051862031
 21
37.632162343079102
  0
LINE
  8
_0-1_
  6
CONTINUOUS
 62
    4
 10
219.59592454755989
 20
36.208588314139689
 11
231.47804038270544
 21
24.32647247899402
  0
LINE
  8
_0-1_
  6
CONTINUOUS
 62
    4
 10
215.14034760880054
 20
41.22985067784893
 11
218.41808266243743
 21
37.952115624212269
  0
LINE
  8
_0-1_
  6
CONTINUOUS
 62
    4
 10
218.70602244048916
 20
37.664175846160191
 11
231.87390549586212
 21
24.496292790787408
  0
LINE
  8
_0-1_
  6
CONTINUOUS
 62
    4
 10
215.38065758255755
 20
41.55522612904187
 11
232.11070404584109
 21
24.825179665758498
  0
LINE
  8
_0-1_
  6
CONTINUOUS
 62
    4
 10
215.62096755631296
 20
41.880601580232991
 11
232.34750259581836
 21
25.154066540727541
  0
LINE
  8
_0-1_
  6
CONTINUOUS
 62
    4
 10
215.83272244892339
 20
42.234532112572509
 11
223.300834679643
 21
34.766419881853068
  0
LINE
  8
_0-1_
  6
CONTINUOUS
 62
    4
 10
223.44269810313915
 20
34.624556458357034
 11
232.50253488490523
 21
25.564719676590954
  0
LINE
  8
_0-1_
  6
CONTINUOUS
 62
    4
 10
215.8327224489226
 20
42.800217537523253
 11
223.50788991572551
 21
35.125050070720732
  0
LINE
  8
_0-1_
  6
CONTINUOUS
 62
    4
 10
224.00838352808887
 20
34.624556458357262
 11
232.36776457395842
 21
26.265175412487821
  0
LINE
  8
_0-1_
  6
CONTINUOUS
 62
    4
 10
215.88572735159994
 20
43.312898059796083
 11
223.71494515180791
 21
35.48368025958834
  0
LINE
  8
_0-1_
  6
CONTINUOUS
 62
    4
 10
224.57406895303848
 20
34.624556458357716
 11
231.85978845983004
 21
27.338836951566151
  0
LINE
  8
_0-1_
  6
CONTINUOUS
 62
    4
 10
216.05543297908343
 20
43.708877857259353
 11
223.92200038788883
 21
35.84231044845373
  0
LINE
  8
_0-1_
  6
CONTINUOUS
 62
    4
 10
225.13975437798524
 20
34.624556458357262
 11
231.08085937266901
 21
28.683451463673606
  0
LINE
  8
_0-1_
  6
CONTINUOUS
 62
    4
 10
216.28979980547297
 20
44.040196455819654
 11
224.129055623971
 21
36.200940637321622
  0
LINE
  8
_0-1_
  6
CONTINUOUS
 62
    4
 10
225.70543980293587
 20
34.624556458356807
 11
230.30193028550229
 21
30.028065975790611
  0
LINE
  8
_0-1_
  6
CONTINUOUS
 62
    4
 10
216.55600471133187
 20
44.33967697491093
 11
224.33611086005351
 21
36.559570826189287
  0
LINE
  8
_0-1_
  6
CONTINUOUS
 62
    4
 10
226.27112522788559
 20
34.624556458357148
 11
229.52300119833558
 21
31.372680487907161
  0
LINE
  8
_0-1_
  6
CONTINUOUS
 62
    4
 10
216.82220961719065
 20
44.639157494002148
 11
224.54316609613579
 21
36.918201015056951
  0
LINE
  8
_0-1_
  6
CONTINUOUS
 62
    4
 10
226.8368106528352
 20
34.624556458357603
 11
228.74407211116784
 21
32.717295000025075
  0
LINE
  8
_0-1_
  6
CONTINUOUS
 62
    4
 10
217.10009045389143
 20
44.926962082247741
 11
224.75022133221682
 21
37.276831203922285
  0
LINE
  8
_0-1_
  6
CONTINUOUS
 62
    4
 10
227.40249607778196
 20
34.624556458357262
 11
227.96514302400033
 21
34.06190951213901
  0
LINE
  8
_0-1_
  6
CONTINUOUS
 62
    4
 10
217.33150721864354
 20
45.26123074244552
 11
224.95727656829899
 21
37.63546139279029
  0
LINE
  8
_0-1_
  6
CONTINUOUS
 62
    4
 10
217.63001244594045
 20
45.528410940098951
 11
225.1643318043815
 21
37.994091581657898
  0
LINE
  8
_0-1_
  6
CONTINUOUS
 62
    4
 10
218.12914664442542
 20
45.594962166563988
 11
225.3713870404639
 21
38.352721770525335
  0
LINE
  8
_0-1_
  6
CONTINUOUS
 62
    4
 10
218.60718047014984
 20
45.682613765789796
 11
224.67089603049044
 21
39.618898205449142
  0
LINE
  8
_0-1_
  6
CONTINUOUS
 62
    4
 10
219.08162631042728
 20
45.773853350458609
 11
223.8160824994535
 21
41.039397161432277
  0
LINE
  8
_0-1_
  6
CONTINUOUS
 62
    4
 10
219.60371139105393
 20
45.817453694782074
 11
222.96126896841861
 21
42.459896117417514
  0
LINE
  8
_0-1_
  6
CONTINUOUS
 62
    4
 10
220.3576748583896
 20
45.629175652396356
 11
221.95916136585333
 21
44.027689144932395
  0
LINE
  8
_0-1_
  6
CONTINUOUS
 62
    7
 10
233.88089289059087
 20
40.739891241544314
 11
233.88089289059087
 21
46.587938532283857
  0
LINE
  8
_0-1_
  6
CONTINUOUS
 62
    7
 10
233.48089289059078
 20
40.823658979472015
 11
233.48089289059078
 21
46.504170794356099
  0
LINE
  8
_0-1_
  6
CONTINUOUS
 62
    7
 10
233.0808928905908
 20
40.968698205298637
 11
233.0808928905908
 21
46.359131568529477
  0
LINE
  8
_0-1_
  6
CONTINUOUS
 62
    7
 10
232.68089289059083
 20
41.185743726171125
 11
232.68089289059083
 21
46.142086047657045
  0
LINE
  8
_0-1_
  6
CONTINUOUS
 62
    7
 10
232.28089289059085
 20
41.496319065961501
 11
232.28089289059085
 21
45.83151070786667
  0
LINE
  8
_0-1_
  6
CONTINUOUS
 62
    7
 10
231.88089289059087
 20
41.950552408015625
 11
231.88089289059087
 21
45.377277365812546
  0
LINE
  8
_0-1_
  6
CONTINUOUS
 62
    7
 10
231.48089289059089
 20
42.740470072552654
 11
231.48089289059089
 21
44.587359701275631
  0
TEXT
  8
_0-1_
 62
    3
 10
355.05241486514092
 20
31.726384565342073
 40
12
 41
1
 50
0
  1
アドヴァン
  0
TEXT
  8
_0-1_
 62
    7
 10
306.05241486514046
 20
23.696405102034333
 40
6
 41
1
 50
-0.0000000000000129
  1
TEL 03-3475-0281　　FAX 03-3475-0429
  0
TEXT
  8
_0-1_
 62
    3
 10
308.05241486514092
 20
32.726384565342101
 40
10
 41
1
 50
-0.0000000000000378
  1
株式会社
  0
LINE
  8
_0-1_
  6
CONTINUOUS
 62
    2
 10
575.0076896283914
 20
34.49757686452574
 11
445.0076896283914
 21
34.49757686452574
  0
LINE
  8
_0-1_
  6
CONTINUOUS
 62
    1
 10
190.11457572650875
 20
52.497576862725651
 11
190.11457572650875
 21
16.497576866325659
  0
TEXT
  8
_0-0_
 62
    7
 10
447.0076896283914
 20
22.497576865425799
 40
6
 41
1
 50
0
  1
Ver1.0
  0
TEXT
  8
_0-0_
 62
    7
 10
106.51005635119759
 20
197.23961988513125
 40
6
 41
1
 50
90
  1
130
  0
TEXT
  8
_0-0_
 62
    7
 10
106.51005635119759
 20
271.18970639224881
 40
6
 41
1
 50
90
  1
10～70
  0
TEXT
  8
_0-0_
 62
    7
 10
319.19405837165624
 20
192.39406417950406
 40
6
 41
1
 50
90
  1
117
  0
TEXT
  8
_0-0_
 62
    7
 10
199.72857854444956
 20
325.56573486784367
 40
6
 41
1
 50
0
  1
82
  0
TEXT
  8
_0-0_
 62
    7
 10
363.84089660644531
 20
325.56573486784367
 40
6
 41
1
 50
0
  1
290
  0
TEXT
  8
_0-0_
 62
    7
 10
456.1071169907836
 20
249.65553645121827
 40
6
 41
1
 50
90
  1
φ65
  0
TEXT
  8
_0-0_
 62
    7
 10
505.4972265337899
 20
249.65553645121827
 40
6
 41
1
 50
90
  1
φ32
  0
TEXT
  8
_0-0_
 62
    7
 10
154.01121936917261
 20
276.65701260957258
 40
6
 41
1
 50
0
  1
φ32
  0
TEXT
  8
_0-0_
 62
    3
 10
463.7576896283914
 20
38.497576863625682
 40
10
 41
1
 50
0
  1
RP-26.735.5承認図
  0
LINE
  8
_0-0_
  6
CONTINUOUS
 62
    7
 10
144.37067170915506
 20
197.02044064696435
 11
144.46073062218193
 21
193.99931695186993
  0
LINE
  8
_0-0_
  6
CONTINUOUS
 62
    7
 10
144.46073062218193
 20
193.99931695186993
 11
144.67005746996935
 21
190.97867934373193
  0
LINE
  8
_0-0_
  6
CONTINUOUS
 62
    7
 10
144.67005746996935
 20
190.97867934373193
 11
145.05901746989753
 21
187.98773684428409
  0
LINE
  8
_0-0_
  6
CONTINUOUS
 62
    7
 10
145.05901746989753
 20
187.98773684428409
 11
145.59693910023299
 21
185.02649086656993
  0
LINE
  8
_0-0_
  6
CONTINUOUS
 62
    7
 10
145.59693910023299
 20
185.02649086656993
 11
146.31497855662218
 21
182.09542608450235
  0
LINE
  8
_0-0_
  6
CONTINUOUS
 62
    7
 10
146.31497855662218
 20
182.09542608450235
 11
147.15228736081542
 21
179.1945424980814
  0
LINE
  8
_0-0_
  6
CONTINUOUS
 62
    7
 10
147.15228736081542
 20
179.1945424980814
 11
148.1395313823723
 21
176.32286793339415
  0
LINE
  8
_0-0_
  6
CONTINUOUS
 62
    7
 10
148.1395313823723
 20
176.32286793339415
 11
149.27622594737983
 21
173.54125369477725
  0
LINE
  8
_0-0_
  6
CONTINUOUS
 62
    7
 10
149.27622594737983
 20
173.54125369477725
 11
150.56188214279467
 21
170.81951576049713
  0
LINE
  8
_0-0_
  6
CONTINUOUS
 62
    7
 10
150.56188214279467
 20
170.81951576049713
 11
151.96778127296992
 21
168.15765554359723
  0
LINE
  8
_0-0_
  6
CONTINUOUS
 62
    7
 10
151.96778127296992
 20
168.15765554359723
 11
153.52312953355232
 21
165.5556716310341
  0
LINE
  8
_0-0_
  6
CONTINUOUS
 62
    7
 10
153.52312953355232
 20
165.5556716310341
 11
155.19823181585176
 21
163.04326054454143
  0
LINE
  8
_0-0_
  6
CONTINUOUS
 62
    7
 10
155.19823181585176
 20
163.04326054454143
 11
157.02278464160187
 21
160.65060489280924
  0
LINE
  8
_0-0_
  6
CONTINUOUS
 62
    7
 10
157.02278464160187
 20
160.65060489280924
 11
158.96660540211258
 21
158.31733945845735
  0
LINE
  8
_0-0_
  6
CONTINUOUS
 62
    7
 10
158.96660540211258
 20
158.31733945845735
 11
161.00048507565015
 21
156.104314132779
  0
LINE
  8
_0-0_
  6
CONTINUOUS
 62
    7
 10
161.00048507565015
 20
156.104314132779
 11
163.15411877090472
 21
154.01055815490463
  0
LINE
  8
_0-0_
  6
CONTINUOUS
 62
    7
 10
163.15411877090472
 20
154.01055815490463
 11
165.4270204009199
 21
152.00685967701367
  0
LINE
  8
_0-0_
  6
CONTINUOUS
 62
    7
 10
165.4270204009199
 20
152.00685967701367
 11
167.78998094396192
 21
150.12243054692678
  0
LINE
  8
_0-0_
  6
CONTINUOUS
 62
    7
 10
167.78998094396192
 20
150.12243054692678
 11
170.24251572611783
 21
148.38745054724711
  0
LINE
  8
_0-0_
  6
CONTINUOUS
 62
    7
 10
170.24251572611783
 20
148.38745054724711
 11
172.8148031169473
 21
146.77271206928435
  0
LINE
  8
_0-0_
  6
CONTINUOUS
 62
    7
 10
172.8148031169473
 20
146.77271206928435
 11
175.4167870295104
 21
145.27724011303869
  0
LINE
  8
_0-0_
  6
CONTINUOUS
 62
    7
 10
175.4167870295104
 20
145.27724011303869
 11
178.13852355074707
 21
143.9312187002437
  0
LINE
  8
_0-0_
  6
CONTINUOUS
 62
    7
 10
178.13852355074707
 20
143.9312187002437
 11
180.89044409371729
 21
142.73464783089941
  0
LINE
  8
_0-0_
  6
CONTINUOUS
 62
    7
 10
180.89044409371729
 20
142.73464783089941
 11
183.73144996275801
 21
141.65783098327211
  0
LINE
  8
_0-0_
  6
CONTINUOUS
 62
    7
 10
183.73144996275801
 20
141.65783098327211
 11
186.60312311440177
 21
140.7309507660519
  0
LINE
  8
_0-0_
  6
CONTINUOUS
 62
    7
 10
186.60312311440177
 20
140.7309507660519
 11
189.50400670082274
 21
139.98321478792909
  0
LINE
  8
_0-0_
  6
CONTINUOUS
 62
    7
 10
189.50400670082274
 20
139.98321478792909
 11
192.4652526785369
 21
139.35523424456679
  0
LINE
  8
_0-0_
  6
CONTINUOUS
 62
    7
 10
192.4652526785369
 20
139.35523424456679
 11
195.45619517798474
 21
138.90639794030179
  0
LINE
  8
_0-0_
  6
CONTINUOUS
 62
    7
 10
195.45619517798474
 20
138.90639794030179
 11
198.44713767743255
 21
138.57731565775384
  0
LINE
  8
_0-0_
  6
CONTINUOUS
 62
    7
 10
198.44713767743255
 20
138.57731565775384
 11
201.46777387252706
 21
138.42786652734665
  0
LINE
  8
_0-0_
  6
CONTINUOUS
 62
    7
 10
201.46777387252706
 20
138.42786652734665
 11
204.488898980665
 21
138.42786652734665
  0
LINE
  8
_0-0_
  6
CONTINUOUS
 62
    7
 10
204.488898980665
 20
138.42786652734665
 11
207.47984006706932
 21
138.57731565775384
  0
LINE
  8
_0-0_
  6
CONTINUOUS
 62
    7
 10
207.47984006706932
 20
138.57731565775384
 11
210.50047767520732
 21
138.90639794030179
  0
LINE
  8
_0-0_
  6
CONTINUOUS
 62
    7
 10
210.50047767520732
 20
138.90639794030179
 11
213.46172506596497
 21
139.35523424456679
  0
LINE
  8
_0-0_
  6
CONTINUOUS
 62
    7
 10
213.46172506596497
 20
139.35523424456679
 11
216.42248495672274
 21
139.98321478792909
  0
LINE
  8
_0-0_
  6
CONTINUOUS
 62
    7
 10
216.42248495672274
 20
139.98321478792909
 11
219.35354973879032
 21
140.7309507660519
  0
LINE
  8
_0-0_
  6
CONTINUOUS
 62
    7
 10
219.35354973879032
 20
140.7309507660519
 11
222.22522430347755
 21
141.65783098327208
  0
LINE
  8
_0-0_
  6
CONTINUOUS
 62
    7
 10
222.22522430347755
 20
141.65783098327208
 11
225.03653365078463
 21
142.73464783089938
  0
LINE
  8
_0-0_
  6
CONTINUOUS
 62
    7
 10
225.03653365078463
 20
142.73464783089938
 11
227.81814930244499
 21
143.93121870024368
  0
LINE
  8
_0-0_
  6
CONTINUOUS
 62
    7
 10
227.81814930244499
 20
143.93121870024368
 11
230.51019212803499
 21
145.27724011303869
  0
LINE
  8
_0-0_
  6
CONTINUOUS
 62
    7
 10
230.51019212803499
 20
145.27724011303869
 11
233.14186973624476
 21
146.77271206928432
  0
LINE
  8
_0-0_
  6
CONTINUOUS
 62
    7
 10
233.14186973624476
 20
146.77271206928432
 11
235.68446343142753
 21
148.38745054724711
  0
LINE
  8
_0-0_
  6
CONTINUOUS
 62
    7
 10
235.68446343142753
 20
148.38745054724711
 11
238.13699680053998
 21
150.12243054692678
  0
LINE
  8
_0-0_
  6
CONTINUOUS
 62
    7
 10
238.13699680053998
 20
150.12243054692678
 11
240.499957343582
 21
152.00685967701367
  0
LINE
  8
_0-0_
  6
CONTINUOUS
 62
    7
 10
240.499957343582
 20
152.00685967701367
 11
242.77285897359718
 21
154.01055815490463
  0
LINE
  8
_0-0_
  6
CONTINUOUS
 62
    7
 10
242.77285897359718
 20
154.01055815490463
 11
244.92649266885175
 21
156.10431413277897
  0
LINE
  8
_0-0_
  6
CONTINUOUS
 62
    7
 10
244.92649266885175
 20
156.10431413277897
 11
246.99006745107948
 21
158.31733945845735
  0
LINE
  8
_0-0_
  6
CONTINUOUS
 62
    7
 10
246.99006745107948
 20
158.31733945845735
 11
248.93437571159012
 21
160.65060489280921
  0
LINE
  8
_0-0_
  6
CONTINUOUS
 62
    7
 10
248.93437571159012
 20
160.65060489280921
 11
250.72874592865014
 21
163.04326054454143
  0
LINE
  8
_0-0_
  6
CONTINUOUS
 62
    7
 10
250.72874592865014
 20
163.04326054454143
 11
252.4038482109496
 21
165.55567163103407
  0
LINE
  8
_0-0_
  6
CONTINUOUS
 62
    7
 10
252.4038482109496
 20
165.55567163103407
 11
253.95919647153201
 21
168.1576555435972
  0
LINE
  8
_0-0_
  6
CONTINUOUS
 62
    7
 10
253.95919647153201
 20
168.1576555435972
 11
255.39479071039739
 21
170.8195157604971
  0
LINE
  8
_0-0_
  6
CONTINUOUS
 62
    7
 10
255.39479071039739
 20
170.8195157604971
 11
256.68093440581214
 21
173.54125369477723
  0
LINE
  8
_0-0_
  6
CONTINUOUS
 62
    7
 10
256.68093440581214
 20
173.54125369477723
 11
257.81714147081976
 21
176.32286793339415
  0
LINE
  8
_0-0_
  6
CONTINUOUS
 62
    7
 10
257.81714147081976
 20
176.32286793339415
 11
258.80438690542013
 21
179.19454249808138
  0
LINE
  8
_0-0_
  6
CONTINUOUS
 62
    7
 10
258.80438690542013
 20
179.19454249808138
 11
259.64169429656988
 21
182.09542608450235
  0
LINE
  8
_0-0_
  6
CONTINUOUS
 62
    7
 10
259.64169429656988
 20
182.09542608450235
 11
260.32955255731247
 21
185.02649086656993
  0
LINE
  8
_0-0_
  6
CONTINUOUS
 62
    7
 10
260.32955255731247
 20
185.02649086656993
 11
260.86796168764783
 21
187.98773684428409
  0
LINE
  8
_0-0_
  6
CONTINUOUS
 62
    7
 10
260.86796168764783
 20
187.98773684428409
 11
261.25692027453255
 21
190.97867934373193
  0
LINE
  8
_0-0_
  6
CONTINUOUS
 62
    7
 10
261.25692027453255
 20
190.97867934373193
 11
261.49594223101019
 21
193.9993169518699
  0
LINE
  8
_0-0_
  6
CONTINUOUS
 62
    7
 10
261.49594223101019
 20
193.9993169518699
 11
261.58600114403703
 21
197.02044064696435
  0
LINE
  8
_0-0_
  6
CONTINUOUS
 62
    7
 10
160.76146311917253
 20
197.02044064696435
 11
160.82085333655286
 21
194.44815184309141
  0
LINE
  8
_0-0_
  6
CONTINUOUS
 62
    7
 10
160.82085333655286
 20
194.44815184309141
 11
161.06036137998692
 21
191.90604564790857
  0
LINE
  8
_0-0_
  6
CONTINUOUS
 62
    7
 10
161.06036137998692
 20
191.90604564790857
 11
161.44932137991512
 21
189.39363597445936
  0
LINE
  8
_0-0_
  6
CONTINUOUS
 62
    7
 10
161.44932137991512
 20
189.39363597445936
 11
161.92785137982676
 21
187.24000086616127
  0
LINE
  8
_0-0_
  6
CONTINUOUS
 62
    7
 10
162.2866287710649
 20
185.80440804033935
 11
162.67558735794961
 21
184.45838662754437
  0
LINE
  8
_0-0_
  6
CONTINUOUS
 62
    7
 10
163.15411877090472
 20
183.11236521474939
 11
163.51289616214285
 21
182.03554836712209
  0
LINE
  8
_0-0_
  6
CONTINUOUS
 62
    7
 10
163.51289616214285
 20
182.03554836712209
 11
164.46995757500963
 21
179.67307391103651
  0
LINE
  8
_0-0_
  6
CONTINUOUS
 62
    7
 10
164.46995757500963
 20
179.67307391103651
 11
165.60665214001716
 21
177.39968478102145
  0
LINE
  8
_0-0_
  6
CONTINUOUS
 62
    7
 10
165.60665214001716
 20
177.39968478102145
 11
166.83291953109511
 21
175.15647825969643
  0
LINE
  8
_0-0_
  6
CONTINUOUS
 62
    7
 10
166.83291953109511
 20
175.15647825969643
 11
167.49108268314754
 21
174.16972173813949
  0
LINE
  8
_0-0_
  6
CONTINUOUS
 62
    7
 10
168.26851235691706
 20
172.97314945575167
 11
169.1058211611103
 21
171.83645489074414
  0
LINE
  8
_0-0_
  6
CONTINUOUS
 62
    7
 10
169.97331116095015
 20
170.70024782573651
 11
171.3792088780819
 21
169.02514554343705
  0
LINE
  8
_0-0_
  6
CONTINUOUS
 62
    7
 10
171.3792088780819
 20
169.02514554343705
 11
173.11370279080515
 21
167.1708976089968
  0
LINE
  8
_0-0_
  6
CONTINUOUS
 62
    7
 10
173.11370279080515
 20
167.1708976089968
 11
174.9684368122019
 21
165.40622250062691
  0
LINE
  8
_0-0_
  6
CONTINUOUS
 62
    7
 10
174.9684368122019
 20
165.40622250062691
 11
176.94243876835921
 21
163.79099652266424
  0
LINE
  8
_0-0_
  6
CONTINUOUS
 62
    7
 10
176.94243876835921
 20
163.79099652266424
 11
177.001830398783
 21
163.73111880528398
  0
LINE
  8
_0-0_
  6
CONTINUOUS
 62
    7
 10
178.16870615943716
 20
162.86362880544414
 11
178.97583235494031
 21
162.26583087077191
  0
LINE
  8
_0-0_
  6
CONTINUOUS
 62
    7
 10
178.97583235494031
 20
162.26583087077191
 11
179.30491322444479
 21
162.05601652298455
  0
LINE
  8
_0-0_
  6
CONTINUOUS
 62
    7
 10
180.50148550683258
 20
161.27858543617154
 11
181.12946605019488
 21
160.88962684928683
  0
LINE
  8
_0-0_
  6
CONTINUOUS
 62
    7
 10
181.12946605019488
 20
160.88962684928683
 11
183.34297746282971
 21
159.63366434951871
  0
LINE
  8
_0-0_
  6
CONTINUOUS
 62
    7
 10
183.34297746282971
 20
159.63366434951871
 11
185.64606170153496
 21
158.52715239320125
  0
LINE
  8
_0-0_
  6
CONTINUOUS
 62
    7
 10
185.64606170153496
 20
158.52715239320125
 11
188.00853474457708
 21
157.53990837164434
  0
LINE
  8
_0-0_
  6
CONTINUOUS
 62
    7
 10
188.00853474457708
 20
157.53990837164434
 11
189.44412898344248
 21
157.03168184999905
  0
LINE
  8
_0-0_
  6
CONTINUOUS
 62
    7
 10
190.82033300492753
 20
156.5828455457341
 11
192.19604952641271
 21
156.19388695884939
  0
LINE
  8
_0-0_
  6
CONTINUOUS
 62
    7
 10
193.57176604789785
 20
155.86480608934494
 11
195.36662235191432
 21
155.47633358941664
  0
LINE
  8
_0-0_
  6
CONTINUOUS
 62
    7
 10
195.36662235191432
 20
155.47633358941664
 11
197.87903343840702
 21
155.11707011122209
  0
LINE
  8
_0-0_
  6
CONTINUOUS
 62
    7
 10
197.87903343840702
 20
155.11707011122209
 11
200.42113963358986
 21
154.8780481547445
  0
LINE
  8
_0-0_
  6
CONTINUOUS
 62
    7
 10
200.42113963358986
 20
154.8780481547445
 11
202.96324582877273
 21
154.78847532867408
  0
LINE
  8
_0-0_
  6
CONTINUOUS
 62
    7
 10
202.96324582877273
 20
154.78847532867408
 11
203.44177724172789
 21
154.81817043736422
  0
LINE
  8
_0-0_
  6
CONTINUOUS
 62
    7
 10
204.87785756754971
 20
154.84786554605441
 11
205.50583811091204
 21
154.8780481547445
  0
LINE
  8
_0-0_
  6
CONTINUOUS
 62
    7
 10
205.50583811091204
 20
154.8780481547445
 11
206.28326919772502
 21
154.93792445908127
  0
LINE
  8
_0-0_
  6
CONTINUOUS
 62
    7
 10
207.71886343659042
 20
155.08737500253193
 11
208.04794430609491
 21
155.11707011122209
  0
LINE
  8
_0-0_
  6
CONTINUOUS
 62
    7
 10
208.04794430609491
 20
155.11707011122209
 11
210.59053658823416
 21
155.47633358941664
  0
LINE
  8
_0-0_
  6
CONTINUOUS
 62
    7
 10
210.59053658823416
 20
155.47633358941664
 11
213.07276647908029
 21
156.01474130670857
  0
LINE
  8
_0-0_
  6
CONTINUOUS
 62
    7
 10
213.07276647908029
 20
156.01474130670857
 11
215.5252998481927
 21
156.7025995674511
  0
LINE
  8
_0-0_
  6
CONTINUOUS
 62
    7
 10
215.5252998481927
 20
156.7025995674511
 11
217.34985267394285
 21
157.33058152385692
  0
LINE
  8
_0-0_
  6
CONTINUOUS
 62
    7
 10
218.7255677823845
 20
157.86898924114882
 11
220.01171289084272
 21
158.40739837148422
  0
LINE
  8
_0-0_
  6
CONTINUOUS
 62
    7
 10
221.32803919494751
 20
159.03537891484652
 11
222.58400028167219
 21
159.63366434951868
  0
LINE
  8
_0-0_
  6
CONTINUOUS
 62
    7
 10
222.58400028167219
 20
159.63366434951868
 11
224.79751169430702
 21
160.88962684928683
  0
LINE
  8
_0-0_
  6
CONTINUOUS
 62
    7
 10
224.79751169430702
 20
160.88962684928683
 11
226.95065930260515
 21
162.26583087077188
  0
LINE
  8
_0-0_
  6
CONTINUOUS
 62
    7
 10
226.95065930260515
 20
162.26583087077188
 11
229.01472017178932
 21
163.79099652266424
  0
LINE
  8
_0-0_
  6
CONTINUOUS
 62
    7
 10
229.01472017178932
 20
163.79099652266424
 11
229.67239723688527
 21
164.35910076168977
  0
LINE
  8
_0-0_
  6
CONTINUOUS
 62
    7
 10
230.77939528015918
 20
165.25677195717626
 11
230.95854093230002
 21
165.40622250062691
  0
LINE
  8
_0-0_
  6
CONTINUOUS
 62
    7
 10
230.95854093230002
 20
165.40622250062691
 11
231.82603093213987
 21
166.24352989177666
  0
LINE
  8
_0-0_
  6
CONTINUOUS
 62
    7
 10
232.87266517107707
 20
167.23077391333354
 11
234.57746397511019
 21
169.02514554343705
  0
LINE
  8
_0-0_
  6
CONTINUOUS
 62
    7
 10
234.57746397511019
 20
169.02514554343705
 11
236.19268995307283
 21
170.96945239090417
  0
LINE
  8
_0-0_
  6
CONTINUOUS
 62
    7
 10
236.19268995307283
 20
170.96945239090417
 11
237.7183431049651
 21
173.03302717313193
  0
LINE
  8
_0-0_
  6
CONTINUOUS
 62
    7
 10
237.7183431049651
 20
173.03302717313193
 11
239.00448680037982
 21
175.00702912928924
  0
LINE
  8
_0-0_
  6
CONTINUOUS
 62
    7
 10
239.7220401698126
 20
176.29317282470396
 11
240.3500207131749
 21
177.39968478102142
  0
LINE
  8
_0-0_
  6
CONTINUOUS
 62
    7
 10
240.3500207131749
 20
177.39968478102142
 11
240.40989843055516
 21
177.51944021578191
  0
LINE
  8
_0-0_
  6
CONTINUOUS
 62
    7
 10
241.03787897391749
 20
178.8352790198868
 11
241.45702016949227
 21
179.67307391103651
  0
LINE
  8
_0-0_
  6
CONTINUOUS
 62
    7
 10
241.45702016949227
 20
179.67307391103651
 11
242.44377810409273
 21
182.03554836712209
  0
LINE
  8
_0-0_
  6
CONTINUOUS
 62
    7
 10
242.44377810409273
 20
182.03554836712209
 11
243.28108549524248
 21
184.45838662754434
  0
LINE
  8
_0-0_
  6
CONTINUOUS
 62
    7
 10
243.28108549524248
 20
184.45838662754434
 11
243.96943125598497
 21
186.91091999665682
  0
LINE
  8
_0-0_
  6
CONTINUOUS
 62
    7
 10
243.96943125598497
 20
186.91091999665682
 11
244.23863440810919
 21
188.19706369207154
  0
LINE
  8
_0-0_
  6
CONTINUOUS
 62
    7
 10
244.50783897327688
 20
189.63265793093694
 11
244.71716582106433
 21
191.00837445242206
  0
LINE
  8
_0-0_
  6
CONTINUOUS
 62
    7
 10
244.92649266885178
 20
192.44445477824394
 11
245.1056383209926
 21
194.44815184309141
  0
LINE
  8
_0-0_
  6
CONTINUOUS
 62
    7
 10
245.1056383209926
 20
194.44815184309141
 11
245.19569723401946
 21
197.02044064696435
  0
LINE
  8
_0-0_
  6
CONTINUOUS
 62
    7
 10
177.1517670291901
 20
197.02044064696435
 11
177.21164333352689
 21
195.04643869080704
  0
LINE
  8
_0-0_
  6
CONTINUOUS
 62
    7
 10
177.21164333352689
 20
195.04643869080704
 11
177.45066529000451
 21
193.07243532160626
  0
LINE
  8
_0-0_
  6
CONTINUOUS
 62
    7
 10
177.45066529000451
 20
193.07243532160626
 11
177.83962528993268
 21
191.12812847413912
  0
LINE
  8
_0-0_
  6
CONTINUOUS
 62
    7
 10
177.83962528993268
 20
191.12812847413912
 11
178.34785039853452
 21
189.21400423536207
  0
LINE
  8
_0-0_
  6
CONTINUOUS
 62
    7
 10
178.34785039853452
 20
189.21400423536207
 11
179.00601355058691
 21
187.35975630092176
  0
LINE
  8
_0-0_
  6
CONTINUOUS
 62
    7
 10
179.00601355058691
 20
187.35975630092176
 11
179.81362724608999
 21
185.53520347517167
  0
LINE
  8
_0-0_
  6
CONTINUOUS
 62
    7
 10
179.81362724608999
 20
185.53520347517167
 11
180.77069007200026
 21
183.80022347549195
  0
LINE
  8
_0-0_
  6
CONTINUOUS
 62
    7
 10
180.77069007200026
 20
183.80022347549195
 11
181.84750691962753
 21
182.15530238883912
  0
LINE
  8
_0-0_
  6
CONTINUOUS
 62
    7
 10
181.84750691962753
 20
182.15530238883912
 11
183.04359170201542
 21
180.57025901956652
  0
LINE
  8
_0-0_
  6
CONTINUOUS
 62
    7
 10
183.04359170201542
 20
180.57025901956652
 11
184.35991659307678
 21
179.10448358505451
  0
LINE
  8
_0-0_
  6
CONTINUOUS
 62
    7
 10
184.35991659307678
 20
179.10448358505451
 11
185.79551083194215
 21
177.72876706356939
  0
LINE
  8
_0-0_
  6
CONTINUOUS
 62
    7
 10
185.79551083194215
 20
177.72876706356939
 11
187.32067648383449
 21
176.47280456380125
  0
LINE
  8
_0-0_
  6
CONTINUOUS
 62
    7
 10
187.32067648383449
 20
176.47280456380125
 11
188.93590246179718
 21
175.33610999879372
  0
LINE
  8
_0-0_
  6
CONTINUOUS
 62
    7
 10
188.93590246179718
 20
175.33610999879372
 11
190.64070126583027
 21
174.31917086854668
  0
LINE
  8
_0-0_
  6
CONTINUOUS
 62
    7
 10
190.64070126583027
 20
174.31917086854668
 11
192.40537637420013
 21
173.45168086870683
  0
LINE
  8
_0-0_
  6
CONTINUOUS
 62
    7
 10
192.40537637420013
 20
173.45168086870683
 11
194.22992919995028
 21
172.70394489058401
  0
LINE
  8
_0-0_
  6
CONTINUOUS
 62
    7
 10
194.22992919995028
 20
172.70394489058401
 11
196.11435833003716
 21
172.10565945591185
  0
LINE
  8
_0-0_
  6
CONTINUOUS
 62
    7
 10
196.11435833003716
 20
172.10565945591185
 11
198.05817909054787
 21
171.65731065164678
  0
LINE
  8
_0-0_
  6
CONTINUOUS
 62
    7
 10
198.05817909054787
 20
171.65731065164678
 11
200.00248593801501
 21
171.357923477789
  0
LINE
  8
_0-0_
  6
CONTINUOUS
 62
    7
 10
200.00248593801501
 20
171.357923477789
 11
201.97648789417229
 21
171.20847434738184
  0
LINE
  8
_0-0_
  6
CONTINUOUS
 62
    7
 10
201.97648789417229
 20
171.20847434738184
 11
203.9504898503296
 21
171.20847434738184
  0
LINE
  8
_0-0_
  6
CONTINUOUS
 62
    7
 10
203.9504898503296
 20
171.20847434738184
 11
205.92449180648691
 21
171.357923477789
  0
LINE
  8
_0-0_
  6
CONTINUOUS
 62
    7
 10
205.92449180648691
 20
171.357923477789
 11
207.89849517568769
 21
171.65731065164678
  0
LINE
  8
_0-0_
  6
CONTINUOUS
 62
    7
 10
207.89849517568769
 20
171.65731065164678
 11
209.81261941446476
 21
172.10565945591185
  0
LINE
  8
_0-0_
  6
CONTINUOUS
 62
    7
 10
209.81261941446476
 20
172.10565945591185
 11
211.69704995759511
 21
172.70394489058401
  0
LINE
  8
_0-0_
  6
CONTINUOUS
 62
    7
 10
211.69704995759511
 20
172.70394489058401
 11
213.52160137030177
 21
173.45168086870683
  0
LINE
  8
_0-0_
  6
CONTINUOUS
 62
    7
 10
213.52160137030177
 20
173.45168086870683
 11
215.31597300040528
 21
174.31917086854668
  0
LINE
  8
_0-0_
  6
CONTINUOUS
 62
    7
 10
215.31597300040528
 20
174.31917086854668
 11
217.02077039139488
 21
175.33610999879372
  0
LINE
  8
_0-0_
  6
CONTINUOUS
 62
    7
 10
217.02077039139488
 20
175.33610999879372
 11
218.63599636935757
 21
176.47280456380125
  0
LINE
  8
_0-0_
  6
CONTINUOUS
 62
    7
 10
218.63599636935757
 20
176.47280456380125
 11
220.16116202124991
 21
177.72876706356936
  0
LINE
  8
_0-0_
  6
CONTINUOUS
 62
    7
 10
220.16116202124991
 20
177.72876706356936
 11
221.56706115142515
 21
179.10448358505451
  0
LINE
  8
_0-0_
  6
CONTINUOUS
 62
    7
 10
221.56706115142515
 20
179.10448358505451
 11
222.88289995553004
 21
180.57025901956652
  0
LINE
  8
_0-0_
  6
CONTINUOUS
 62
    7
 10
222.88289995553004
 20
180.57025901956652
 11
224.07947223791783
 21
182.15530238883912
  0
LINE
  8
_0-0_
  6
CONTINUOUS
 62
    7
 10
224.07947223791783
 20
182.15530238883912
 11
225.15628908554513
 21
183.80022347549195
  0
LINE
  8
_0-0_
  6
CONTINUOUS
 62
    7
 10
225.15628908554513
 20
183.80022347549195
 11
226.1133504984119
 21
185.53520347517167
  0
LINE
  8
_0-0_
  6
CONTINUOUS
 62
    7
 10
226.1133504984119
 20
185.53520347517167
 11
226.92096419391498
 21
187.35975630092176
  0
LINE
  8
_0-0_
  6
CONTINUOUS
 62
    7
 10
226.92096419391498
 20
187.35975630092176
 11
227.57863984596747
 21
189.21400423536207
  0
LINE
  8
_0-0_
  6
CONTINUOUS
 62
    7
 10
227.57863984596747
 20
189.21400423536207
 11
228.11704897630287
 21
191.12812847413912
  0
LINE
  8
_0-0_
  6
CONTINUOUS
 62
    7
 10
228.11704897630287
 20
191.12812847413912
 11
228.50600756318761
 21
193.07243532160626
  0
LINE
  8
_0-0_
  6
CONTINUOUS
 62
    7
 10
228.50600756318761
 20
193.07243532160626
 11
228.715334410975
 21
195.04643869080704
  0
LINE
  8
_0-0_
  6
CONTINUOUS
 62
    7
 10
228.715334410975
 20
195.04643869080704
 11
228.8053933240019
 21
197.02044064696435
  0
LINE
  8
_0-0_
  6
CONTINUOUS
 62
    7
 10
266.55094559964215
 20
203.95938705872678
 11
245.19569723401946
 21
203.95938705872678
  0
LINE
  8
_0-0_
  6
CONTINUOUS
 62
    7
 10
266.55094559964215
 20
206.44161553652938
 11
245.19569723401946
 21
206.44161553652938
  0
LINE
  8
_0-0_
  6
CONTINUOUS
 62
    7
 10
266.55094559964215
 20
209.91108944893233
 11
245.19569723401946
 21
209.91108944893233
  0
LINE
  8
_0-0_
  6
CONTINUOUS
 62
    7
 10
264.54676103479477
 20
213.88927596993705
 11
245.19569723401946
 21
213.88927596993705
  0
LINE
  8
_0-0_
  6
CONTINUOUS
 62
    7
 10
176.16452159458979
 20
294.85403758542452
 11
176.16452159458979
 21
220.34969096874437
  0
LINE
  8
_0-0_
  6
CONTINUOUS
 62
    7
 10
176.64305300754492
 20
292.85009606405532
 11
176.64305300754489
 21
220.34969096874437
  0
LINE
  8
_0-0_
  6
CONTINUOUS
 62
    7
 10
160.76146311917256
 20
307.26639801791561
 11
160.76146311917256
 21
297.39638682408554
  0
LINE
  8
_0-0_
  6
CONTINUOUS
 62
    7
 10
160.76146311917256
 20
295.96079258522019
 11
160.76146311917256
 21
294.55489486808841
  0
LINE
  8
_0-0_
  6
CONTINUOUS
 62
    7
 10
160.76146311917256
 20
293.11930062922301
 11
160.76146311917256
 21
283.249289435393
  0
LINE
  8
_0-0_
  6
CONTINUOUS
 62
    7
 10
160.76146311917256
 20
281.81345215304941
 11
160.76146311917256
 21
280.40779747939587
  0
LINE
  8
_0-0_
  6
CONTINUOUS
 62
    7
 10
160.76146311917256
 20
278.97220324053046
 11
160.76146311917256
 21
269.10194900322222
  0
LINE
  8
_0-0_
  6
CONTINUOUS
 62
    7
 10
160.76146311917256
 20
267.66635476435681
 11
160.76146311917256
 21
266.26070009070327
  0
LINE
  8
_0-0_
  6
CONTINUOUS
 62
    7
 10
160.76146311917256
 20
264.82510585183786
 11
160.76146311917256
 21
254.95485161452964
  0
LINE
  8
_0-0_
  6
CONTINUOUS
 62
    7
 10
160.76146311917256
 20
253.51925737566421
 11
160.76146311917256
 21
252.1136027020107
  0
LINE
  8
_0-0_
  6
CONTINUOUS
 62
    7
 10
160.76146311917256
 20
250.67776541966708
 11
160.76146311917256
 21
240.80775422583707
  0
LINE
  8
_0-0_
  6
CONTINUOUS
 62
    7
 10
160.76146311917256
 20
239.37215998697167
 11
160.76146311917256
 21
237.96626085679642
  0
LINE
  8
_0-0_
  6
CONTINUOUS
 62
    7
 10
160.76146311917256
 20
236.53066803097448
 11
160.76146311917256
 21
226.6606568371445
  0
LINE
  8
_0-0_
  6
CONTINUOUS
 62
    7
 10
160.76146311917256
 20
225.22506259827907
 11
160.76146311917256
 21
223.81916346810385
  0
LINE
  8
_0-0_
  6
CONTINUOUS
 62
    7
 10
160.76146311917256
 20
222.38357064228191
 11
160.76146311917256
 21
212.5135594484519
  0
LINE
  8
_0-0_
  6
CONTINUOUS
 62
    7
 10
160.76146311917256
 20
211.07796520958652
 11
160.76146311917253
 21
209.67206607941125
  0
LINE
  8
_0-0_
  6
CONTINUOUS
 62
    7
 10
160.76146311917253
 20
208.23647325358934
 11
160.76146311917253
 21
198.36646205975933
  0
LINE
  8
_0-0_
  6
CONTINUOUS
 62
    7
 10
144.87938573080029
 20
292.85009606405532
 11
144.87938573080029
 21
267.03837422099446
  0
LINE
  8
_0-0_
  6
CONTINUOUS
 62
    7
 10
160.76146311917253
 20
202.97214303716993
 11
144.13164975267745
 21
202.97214303716993
  0
LINE
  8
_0-0_
  6
CONTINUOUS
 62
    7
 10
160.76146311917253
 20
199.98120053772212
 11
144.37067170915506
 21
199.98120053772212
  0
LINE
  8
_0-0_
  6
CONTINUOUS
 62
    7
 10
160.76146311917256
 20
220.34969096874437
 11
176.64305300754489
 21
220.34969096874437
  0
LINE
  8
_0-0_
  6
CONTINUOUS
 62
    7
 10
144.13164975267748
 20
249.66082487637655
 11
144.13164975267745
 21
202.97214303716993
  0
LINE
  8
_0-0_
  6
CONTINUOUS
 62
    7
 10
144.37067170915506
 20
197.02044064696435
 11
144.37067170915506
 21
199.98120053772212
  0
LINE
  8
_0-0_
  6
CONTINUOUS
 62
    7
 10
144.37067170915506
 20
199.98120053772212
 11
144.13164975267745
 21
202.97214303716993
  0
LINE
  8
_0-0_
  6
CONTINUOUS
 62
    7
 10
139.40572725354991
 20
258.60395585298642
 11
139.40572725354991
 21
256.12148433170557
  0
LINE
  8
_0-0_
  6
CONTINUOUS
 62
    7
 10
139.40572725354991
 20
256.12148433170557
 11
160.76146311917256
 21
256.12148433170557
  0
LINE
  8
_0-0_
  6
CONTINUOUS
 62
    7
 10
160.76146311917256
 20
252.62207226713423
 11
143.38391377455463
 21
252.62207226713423
  0
LINE
  8
_0-0_
  6
CONTINUOUS
 62
    7
 10
160.76146311917256
 20
249.66082487637655
 11
144.13164975267748
 21
249.66082487637655
  0
LINE
  8
_0-0_
  6
CONTINUOUS
 62
    7
 10
144.13164975267748
 20
249.66082487637655
 11
143.38391377455463
 21
252.62207226713423
  0
LINE
  8
_0-0_
  6
CONTINUOUS
 62
    7
 10
143.38391377455463
 20
256.12148433170557
 11
143.38391377455463
 21
252.62207226713423
  0
LINE
  8
_0-0_
  6
CONTINUOUS
 62
    7
 10
141.37972920970722
 20
266.05137324291582
 11
160.76146311917256
 21
266.05137324291582
  0
LINE
  8
_0-0_
  6
CONTINUOUS
 62
    7
 10
139.40572725354991
 20
262.07342976538933
 11
160.76146311917256
 21
262.07342976538933
  0
LINE
  8
_0-0_
  6
CONTINUOUS
 62
    7
 10
139.40572725354991
 20
258.60395585298642
 11
160.76146311917256
 21
258.60395585298636
  0
LINE
  8
_0-0_
  6
CONTINUOUS
 62
    7
 10
139.40572725354991
 20
262.07342976538933
 11
160.76146311917256
 21
262.07342976538933
  0
LINE
  8
_0-0_
  6
CONTINUOUS
 62
    7
 10
141.37972920970722
 20
266.05137324291582
 11
140.75174866634492
 21
265.60277998212905
  0
LINE
  8
_0-0_
  6
CONTINUOUS
 62
    7
 10
140.75174866634492
 20
265.60277998212905
 11
140.21333953600953
 21
265.03443269962531
  0
LINE
  8
_0-0_
  6
CONTINUOUS
 62
    7
 10
140.21333953600953
 20
265.03443269962531
 11
139.79468584043465
 21
264.34657443888273
  0
LINE
  8
_0-0_
  6
CONTINUOUS
 62
    7
 10
139.79468584043465
 20
264.34657443888273
 11
139.49578616657678
 21
263.62853498249353
  0
LINE
  8
_0-0_
  6
CONTINUOUS
 62
    7
 10
139.49578616657678
 20
263.62853498249353
 11
139.37603214485975
 21
262.85110389568058
  0
LINE
  8
_0-0_
  6
CONTINUOUS
 62
    7
 10
139.37603214485975
 20
262.85110389568058
 11
139.40572725354991
 21
262.07342976538933
  0
LINE
  8
_0-0_
  6
CONTINUOUS
 62
    7
 10
139.40572725354991
 20
262.07342976538933
 11
139.40572725354991
 21
258.60395585298642
  0
LINE
  8
_0-0_
  6
CONTINUOUS
 62
    7
 10
140.39297268815028
 20
262.07342976538933
 11
140.39297268815028
 21
258.60395585298642
  0
LINE
  8
_0-0_
  6
CONTINUOUS
 62
    7
 10
141.37972920970722
 20
262.07342976538933
 11
141.37972920970722
 21
258.60395585298642
  0
LINE
  8
_0-0_
  6
CONTINUOUS
 62
    7
 10
145.35791573071194
 20
262.07342976538933
 11
145.35791573071194
 21
258.60395585298642
  0
LINE
  8
_0-0_
  6
CONTINUOUS
 62
    7
 10
142.39666975299775
 20
262.07342976538933
 11
142.39666975299775
 21
258.60395585298642
  0
LINE
  8
_0-0_
  6
CONTINUOUS
 62
    7
 10
143.38391377455463
 20
262.07342976538933
 11
143.38391377455463
 21
258.60395585298642
  0
LINE
  8
_0-0_
  6
CONTINUOUS
 62
    7
 10
147.3616142086029
 20
262.07342976538933
 11
147.3616142086029
 21
258.60395585298636
  0
LINE
  8
_0-0_
  6
CONTINUOUS
 62
    7
 10
149.33561616476021
 20
262.07342976538933
 11
149.33561616476021
 21
258.60395585298636
  0
LINE
  8
_0-0_
  6
CONTINUOUS
 62
    7
 10
152.32655866420802
 20
262.07342976538933
 11
152.32655866420802
 21
258.60395585298636
  0
LINE
  8
_0-0_
  6
CONTINUOUS
 62
    7
 10
155.28780464192221
 20
262.07342976538933
 11
155.28780464192221
 21
258.60395585298636
  0
LINE
  8
_0-0_
  6
CONTINUOUS
 62
    7
 10
158.75727855432515
 20
262.07342976538933
 11
158.75727855432515
 21
258.60395585298636
  0
LINE
  8
_0-0_
  6
CONTINUOUS
 62
    7
 10
177.39078898566774
 20
249.66082487637655
 11
177.39078898566771
 21
202.97214303716993
  0
LINE
  8
_0-0_
  6
CONTINUOUS
 62
    7
 10
176.88256246402241
 20
249.66082487637655
 11
176.88256246402241
 21
203.00232423281653
  0
LINE
  8
_0-0_
  6
CONTINUOUS
 62
    7
 10
177.1517670291901
 20
197.02044064696435
 11
177.1517670291901
 21
199.98120053772209
  0
LINE
  8
_0-0_
  6
CONTINUOUS
 62
    7
 10
177.39078898566771
 20
202.97214303716993
 11
177.1517670291901
 21
199.98120053772209
  0
LINE
  8
_0-0_
  6
CONTINUOUS
 62
    7
 10
266.55094559964215
 20
206.44161553652938
 11
266.55094559964215
 21
203.95938705872678
  0
LINE
  8
_0-0_
  6
CONTINUOUS
 62
    7
 10
228.8053933240019
 20
197.02044064696435
 11
227.54894473727734
 21
199.98120053772209
  0
LINE
  8
_0-0_
  6
CONTINUOUS
 62
    7
 10
262.81226853511498
 20
203.95938705872678
 11
262.81226853511498
 21
199.98120053772209
  0
LINE
  8
_0-0_
  6
CONTINUOUS
 62
    7
 10
264.54676103479477
 20
213.88927596993705
 11
265.20492418684717
 21
213.44068270915028
  0
LINE
  8
_0-0_
  6
CONTINUOUS
 62
    7
 10
265.20492418684717
 20
213.44068270915028
 11
265.74333331718253
 21
212.87233542664652
  0
LINE
  8
_0-0_
  6
CONTINUOUS
 62
    7
 10
265.74333331718253
 20
212.87233542664652
 11
266.16198701275744
 21
212.21417227459412
  0
LINE
  8
_0-0_
  6
CONTINUOUS
 62
    7
 10
266.16198701275744
 20
212.21417227459412
 11
266.43119157792512
 21
211.46643770951476
  0
LINE
  8
_0-0_
  6
CONTINUOUS
 62
    7
 10
266.43119157792512
 20
211.46643770951476
 11
266.55094559964215
 21
210.71870173139195
  0
LINE
  8
_0-0_
  6
CONTINUOUS
 62
    7
 10
266.55094559964215
 20
210.71870173139195
 11
266.55094559964215
 21
206.44161553652938
  0
LINE
  8
_0-0_
  6
CONTINUOUS
 62
    7
 10
265.53400646939514
 20
209.91108944893233
 11
265.53400646939514
 21
206.44161553652938
  0
LINE
  8
_0-0_
  6
CONTINUOUS
 62
    7
 10
264.54676103479477
 20
209.91108944893233
 11
264.54676103479477
 21
206.44161553652938
  0
LINE
  8
_0-0_
  6
CONTINUOUS
 62
    7
 10
263.56000310019431
 20
209.91108944893233
 11
263.56000310019431
 21
206.44161553652938
  0
LINE
  8
_0-0_
  6
CONTINUOUS
 62
    7
 10
262.57275907863743
 20
209.91108944893233
 11
262.57275907863743
 21
206.44161553652938
  0
LINE
  8
_0-0_
  6
CONTINUOUS
 62
    7
 10
260.56906201379002
 20
209.91108944893233
 11
260.56906201379002
 21
206.44161553652938
  0
LINE
  8
_0-0_
  6
CONTINUOUS
 62
    7
 10
180.26197605035506
 20
256.12148433170557
 11
181.24922007191194
 21
257.10848530978421
  0
LINE
  8
_0-0_
  6
CONTINUOUS
 62
    7
 10
180.86026148502722
 20
264.04743172154667
 11
180.86026148502722
 21
256.12148433170557
  0
LINE
  8
_0-0_
  6
CONTINUOUS
 62
    7
 10
182.11671007175178
 20
262.07342976538933
 11
182.11671007175178
 21
256.12148433170557
  0
LINE
  8
_0-0_
  6
CONTINUOUS
 62
    7
 10
180.38173007207206
 20
265.03443269962531
 11
180.38173007207206
 21
256.12148433170557
  0
LINE
  8
_0-0_
  6
CONTINUOUS
 62
    7
 10
180.11252691994787
 20
265.03443269962531
 11
177.1517670291901
 21
255.10454378841504
  0
LINE
  8
_0-0_
  6
CONTINUOUS
 62
    7
 10
180.26197605035506
 20
262.55196117834447
 11
180.26197605035506
 21
256.12148433170557
  0
LINE
  8
_0-0_
  6
CONTINUOUS
 62
    7
 10
176.64305300754489
 20
267.03837422099446
 11
176.64305300754489
 21
255.10454378841504
  0
LINE
  8
_0-0_
  6
CONTINUOUS
 62
    7
 10
176.64305300754489
 20
255.10454378841504
 11
177.1517670291901
 21
255.10454378841504
  0
LINE
  8
_0-0_
  6
CONTINUOUS
 62
    7
 10
177.39078898566774
 20
249.66082487637655
 11
178.1385235507471
 21
252.62207226713423
  0
LINE
  8
_0-0_
  6
CONTINUOUS
 62
    7
 10
177.63029702910177
 20
252.62207226713423
 11
176.88256246402241
 21
249.66082487637655
  0
LINE
  8
_0-0_
  6
CONTINUOUS
 62
    7
 10
182.11671007175178
 20
256.12148433170557
 11
180.38173007207206
 21
256.12148433170557
  0
LINE
  8
_0-0_
  6
CONTINUOUS
 62
    7
 10
178.1385235507471
 20
256.12148433170557
 11
178.1385235507471
 21
252.62207226713423
  0
LINE
  8
_0-0_
  6
CONTINUOUS
 62
    7
 10
177.63029702910177
 20
256.77940302723624
 11
177.63029702910177
 21
252.62207226713423
  0
LINE
  8
_0-0_
  6
CONTINUOUS
 62
    7
 10
178.1385235507471
 20
256.12148433170557
 11
180.26197605035506
 21
256.12148433170557
  0
LINE
  8
_0-0_
  6
CONTINUOUS
 62
    7
 10
176.64305300754489
 20
267.03837422099446
 11
177.89950159426945
 21
267.03837422099446
  0
LINE
  8
_0-0_
  6
CONTINUOUS
 62
    7
 10
182.11671007175178
 20
262.07342976538933
 11
182.14640659348544
 21
262.85110389568058
  0
LINE
  8
_0-0_
  6
CONTINUOUS
 62
    7
 10
182.14640659348544
 20
262.85110389568058
 11
181.99695605003475
 21
263.62853498249353
  0
LINE
  8
_0-0_
  6
CONTINUOUS
 62
    7
 10
181.99695605003475
 20
263.62853498249353
 11
181.72775148486707
 21
264.34657443888273
  0
LINE
  8
_0-0_
  6
CONTINUOUS
 62
    7
 10
181.72775148486707
 20
264.34657443888273
 11
181.3090977892922
 21
265.03443269962531
  0
LINE
  8
_0-0_
  6
CONTINUOUS
 62
    7
 10
181.3090977892922
 20
265.03443269962531
 11
180.77069007200026
 21
265.60277998212905
  0
LINE
  8
_0-0_
  6
CONTINUOUS
 62
    7
 10
180.77069007200026
 20
265.60277998212905
 11
180.11252691994787
 21
266.05137324291582
  0
LINE
  8
_0-0_
  6
CONTINUOUS
 62
    7
 10
180.26197605035506
 20
262.55196117834447
 11
181.24922007191194
 21
261.56496020026583
  0
LINE
  8
_0-0_
  6
CONTINUOUS
 62
    7
 10
180.26197605035506
 20
262.55196117834447
 11
179.39497355051512
 21
262.55196117834447
  0
LINE
  8
_0-0_
  6
CONTINUOUS
 62
    7
 10
181.24922007191194
 20
261.56496020026583
 11
181.24922007191194
 21
257.10848530978421
  0
LINE
  8
_0-0_
  6
CONTINUOUS
 62
    7
 10
177.89950159426945
 20
266.05137324291582
 11
180.11252691994787
 21
266.05137324291582
  0
LINE
  8
_0-0_
  6
CONTINUOUS
 62
    7
 10
180.38173007207206
 20
265.03443269962531
 11
178.37803300722462
 21
265.03443269962531
  0
LINE
  8
_0-0_
  6
CONTINUOUS
 62
    7
 10
177.89950159426945
 20
265.03443269962531
 11
180.11252691994787
 21
265.03443269962531
  0
LINE
  8
_0-0_
  6
CONTINUOUS
 62
    7
 10
178.37803300722462
 20
266.05137324291582
 11
178.37803300722462
 21
265.03443269962531
  0
LINE
  8
_0-0_
  6
CONTINUOUS
 62
    7
 10
177.89950159426945
 20
267.03837422099446
 11
177.89950159426945
 21
265.03443269962531
  0
LINE
  8
_0-0_
  6
CONTINUOUS
 62
    7
 10
180.17240322428466
 20
296.8280395415818
 11
160.76146311917256
 21
296.8280395415818
  0
LINE
  8
_0-0_
  6
CONTINUOUS
 62
    7
 10
182.11671007175178
 20
302.30145356231048
 11
160.76146311917256
 21
302.30145356231048
  0
LINE
  8
_0-0_
  6
CONTINUOUS
 62
    7
 10
160.76146311917256
 20
294.85403758542452
 11
179.63399550699276
 21
294.85403758542452
  0
LINE
  8
_0-0_
  6
CONTINUOUS
 62
    7
 10
139.40572725354994
 20
302.30145356231048
 11
160.76146311917256
 21
302.30145356231048
  0
LINE
  8
_0-0_
  6
CONTINUOUS
 62
    7
 10
141.37972920970725
 20
292.37156465110019
 11
144.87938573080029
 21
292.37156465110019
  0
LINE
  8
_0-0_
  6
CONTINUOUS
 62
    7
 10
139.40572725354994
 20
296.3195699764583
 11
139.40572725354994
 21
299.81898204102959
  0
LINE
  8
_0-0_
  6
CONTINUOUS
 62
    7
 10
139.40572725354994
 20
296.3195699764583
 11
139.37603214485978
 21
295.54189584616711
  0
LINE
  8
_0-0_
  6
CONTINUOUS
 62
    7
 10
139.37603214485978
 20
295.54189584616711
 11
139.49578616657681
 21
294.7644647593541
  0
LINE
  8
_0-0_
  6
CONTINUOUS
 62
    7
 10
139.49578616657681
 20
294.7644647593541
 11
139.79468584043465
 21
294.04642388992141
  0
LINE
  8
_0-0_
  6
CONTINUOUS
 62
    7
 10
139.79468584043465
 20
294.04642388992141
 11
140.21333953600956
 21
293.38850519439075
  0
LINE
  8
_0-0_
  6
CONTINUOUS
 62
    7
 10
140.21333953600956
 20
293.38850519439075
 11
140.75174866634492
 21
292.82015791188695
  0
LINE
  8
_0-0_
  6
CONTINUOUS
 62
    7
 10
140.75174866634492
 20
292.82015791188695
 11
141.37972920970725
 21
292.37156465110019
  0
LINE
  8
_0-0_
  6
CONTINUOUS
 62
    7
 10
139.40572725354994
 20
299.81898204102959
 11
139.40572725354994
 21
302.30145356231048
  0
LINE
  8
_0-0_
  6
CONTINUOUS
 62
    7
 10
180.17240322428466
 20
294.85403758542452
 11
180.17240322428466
 21
296.8280395415818
  0
LINE
  8
_0-0_
  6
CONTINUOUS
 62
    7
 10
176.82268474664218
 20
294.85403758542452
 11
178.97583235494034
 21
296.9178554111304
  0
LINE
  8
_0-0_
  6
CONTINUOUS
 62
    7
 10
180.86026148502722
 20
294.34556802030096
 11
180.86026148502722
 21
302.30145356231048
  0
LINE
  8
_0-0_
  6
CONTINUOUS
 62
    7
 10
182.11671007175178
 20
296.3195699764583
 11
182.11671007175178
 21
302.30145356231048
  0
LINE
  8
_0-0_
  6
CONTINUOUS
 62
    7
 10
180.38173007207209
 20
293.35856562917883
 11
180.38173007207209
 21
302.30145356231048
  0
LINE
  8
_0-0_
  6
CONTINUOUS
 62
    7
 10
175.65629507294446
 20
296.8280395415818
 11
175.65629507294446
 21
294.85403758542452
  0
LINE
  8
_0-0_
  6
CONTINUOUS
 62
    7
 10
177.15176702919013
 20
293.35856562917883
 11
176.88256246402244
 21
293.29868932484203
  0
LINE
  8
_0-0_
  6
CONTINUOUS
 62
    7
 10
176.88256246402244
 20
293.29868932484203
 11
176.70293072492518
 21
293.11930062922301
  0
LINE
  8
_0-0_
  6
CONTINUOUS
 62
    7
 10
176.70293072492518
 20
293.11930062922301
 11
176.64305300754492
 21
292.85009606405532
  0
LINE
  8
_0-0_
  6
CONTINUOUS
 62
    7
 10
175.65629507294446
 20
294.85403758542452
 11
180.17240322428466
 21
294.85403758542452
  0
LINE
  8
_0-0_
  6
CONTINUOUS
 62
    7
 10
180.11252691994787
 20
292.37156465110019
 11
180.77069007200029
 21
292.82015791188695
  0
LINE
  8
_0-0_
  6
CONTINUOUS
 62
    7
 10
180.77069007200029
 20
292.82015791188695
 11
181.3090977892922
 21
293.38850519439069
  0
LINE
  8
_0-0_
  6
CONTINUOUS
 62
    7
 10
181.3090977892922
 20
293.38850519439069
 11
181.72775148486707
 21
294.04642388992141
  0
LINE
  8
_0-0_
  6
CONTINUOUS
 62
    7
 10
181.72775148486707
 20
294.04642388992141
 11
181.99695605003475
 21
294.76446475935404
  0
LINE
  8
_0-0_
  6
CONTINUOUS
 62
    7
 10
181.99695605003475
 20
294.76446475935404
 11
182.14640659348544
 21
295.54189584616705
  0
LINE
  8
_0-0_
  6
CONTINUOUS
 62
    7
 10
182.14640659348544
 20
295.54189584616705
 11
182.11671007175178
 21
296.3195699764583
  0
LINE
  8
_0-0_
  6
CONTINUOUS
 62
    7
 10
180.86026148502722
 20
294.34556802030096
 11
180.38173007207209
 21
294.34556802030096
  0
LINE
  8
_0-0_
  6
CONTINUOUS
 62
    7
 10
180.11252691994787
 20
294.34556802030096
 11
180.11252691994787
 21
293.83709704213396
  0
LINE
  8
_0-0_
  6
CONTINUOUS
 62
    7
 10
177.15176702919013
 20
293.35856562917883
 11
179.63399550699276
 21
293.35856562917883
  0
LINE
  8
_0-0_
  6
CONTINUOUS
 62
    7
 10
178.37803300722462
 20
292.37156465110019
 11
178.37803300722462
 21
293.35856562917883
  0
LINE
  8
_0-0_
  6
CONTINUOUS
 62
    7
 10
176.64305300754492
 20
292.37156465110019
 11
180.11252691994787
 21
292.37156465110019
  0
LINE
  8
_0-0_
  6
CONTINUOUS
 62
    7
 10
180.38173007207209
 20
293.35856562917883
 11
178.37803300722462
 21
293.35856562917883
  0
LINE
  8
_0-0_
  6
CONTINUOUS
 62
    7
 10
179.63399550699276
 20
293.35856562917883
 11
179.87350355042679
 21
293.41844334655912
  0
LINE
  8
_0-0_
  6
CONTINUOUS
 62
    7
 10
179.87350355042679
 20
293.41844334655912
 11
180.05264920256761
 21
293.59783204217814
  0
LINE
  8
_0-0_
  6
CONTINUOUS
 62
    7
 10
180.05264920256761
 20
293.59783204217814
 11
180.11252691994787
 21
293.83709704213396
  0
LINE
  8
_0-0_
  6
CONTINUOUS
 62
    7
 10
180.11252691994787
 20
294.34556802030096
 11
180.05264920256761
 21
294.58483302025684
  0
LINE
  8
_0-0_
  6
CONTINUOUS
 62
    7
 10
180.05264920256761
 20
294.58483302025684
 11
179.87350355042679
 21
294.76446475935404
  0
LINE
  8
_0-0_
  6
CONTINUOUS
 62
    7
 10
179.87350355042679
 20
294.76446475935404
 11
179.63399550699276
 21
294.85403758542452
  0
LINE
  8
_0-0_
  6
CONTINUOUS
 62
    7
 10
226.56218680267688
 20
212.90227499185841
 11
229.283924736957
 21
212.90227499185841
  0
LINE
  8
_0-0_
  6
CONTINUOUS
 62
    7
 10
228.29668071540016
 20
211.40655999213453
 11
228.68563930228487
 21
211.34716977475421
  0
LINE
  8
_0-0_
  6
CONTINUOUS
 62
    7
 10
228.68563930228487
 20
211.34716977475421
 11
229.01472017178932
 21
211.10766031827666
  0
LINE
  8
_0-0_
  6
CONTINUOUS
 62
    7
 10
229.01472017178932
 20
211.10766031827666
 11
229.22404701957677
 21
210.80876064441881
  0
LINE
  8
_0-0_
  6
CONTINUOUS
 62
    7
 10
229.22404701957677
 20
210.80876064441881
 11
229.283924736957
 21
210.41980205753407
  0
LINE
  8
_0-0_
  6
CONTINUOUS
 62
    7
 10
229.283924736957
 20
211.40655999213453
 11
226.56218680267688
 21
211.40655999213453
  0
LINE
  8
_0-0_
  6
CONTINUOUS
 62
    7
 10
229.283924736957
 20
203.95938705872678
 11
228.8053933240019
 21
203.95938705872678
  0
LINE
  8
_0-0_
  6
CONTINUOUS
 62
    7
 10
228.29668071540016
 20
205.93338901488409
 11
229.283924736957
 21
199.32352347262611
  0
LINE
  8
_0-0_
  6
CONTINUOUS
 62
    7
 10
229.283924736957
 20
201.47667108092429
 11
229.283924736957
 21
210.41980205753407
  0
LINE
  8
_0-0_
  6
CONTINUOUS
 62
    7
 10
245.19569723401946
 20
215.6838892304753
 11
245.19569723401946
 21
205.81363499316706
  0
LINE
  8
_0-0_
  6
CONTINUOUS
 62
    7
 10
245.19569723401946
 20
204.37804075430165
 11
245.19569723401946
 21
202.9721430371699
  0
LINE
  8
_0-0_
  6
CONTINUOUS
 62
    7
 10
245.19569723401946
 20
201.53654879830452
 11
245.19569723401946
 21
197.02044064696435
  0
LINE
  8
_0-0_
  6
CONTINUOUS
 62
    7
 10
229.283924736957
 20
201.47667108092429
 11
245.19569723401946
 21
201.47667108092426
  0
LINE
  8
_0-0_
  6
CONTINUOUS
 62
    7
 10
256.5908754927853
 20
209.91108944893233
 11
256.5908754927853
 21
206.44161553652938
  0
LINE
  8
_0-0_
  6
CONTINUOUS
 62
    7
 10
258.59506005763268
 20
209.91108944893233
 11
258.59506005763268
 21
206.44161553652938
  0
LINE
  8
_0-0_
  6
CONTINUOUS
 62
    7
 10
253.63011560202756
 20
209.91108944893233
 11
253.63011560202756
 21
206.44161553652938
  0
LINE
  8
_0-0_
  6
CONTINUOUS
 62
    7
 10
250.63917310257972
 20
209.91108944893233
 11
250.63917310257972
 21
206.44161553652938
  0
LINE
  8
_0-0_
  6
CONTINUOUS
 62
    7
 10
247.16969919017674
 20
209.91108944893233
 11
247.16969919017674
 21
206.44161553652938
  0
LINE
  8
_0-0_
  6
CONTINUOUS
 62
    7
 10
225.81445223759752
 20
203.45067303708157
 11
224.82720680299718
 21
204.46761358037207
  0
LINE
  8
_0-0_
  6
CONTINUOUS
 62
    7
 10
228.38625212842709
 20
205.27522586283169
 11
228.8053933240019
 21
203.95938705872678
  0
LINE
  8
_0-0_
  6
CONTINUOUS
 62
    7
 10
225.0667162594747
 20
211.91527260073627
 11
225.0667162594747
 21
203.95938705872678
  0
LINE
  8
_0-0_
  6
CONTINUOUS
 62
    7
 10
223.83996278144031
 20
209.91108944893236
 11
223.83996278144031
 21
203.95938705872678
  0
LINE
  8
_0-0_
  6
CONTINUOUS
 62
    7
 10
225.81445223759752
 20
209.91108944893236
 11
225.81445223759752
 21
203.45067303708157
  0
LINE
  8
_0-0_
  6
CONTINUOUS
 62
    7
 10
225.57494278112
 20
212.90227499185841
 11
225.57494278112
 21
203.95938705872678
  0
LINE
  8
_0-0_
  6
CONTINUOUS
 62
    7
 10
261.58600114403703
 20
197.02044064696435
 11
262.81226853511498
 21
199.98120053772209
  0
LINE
  8
_0-0_
  6
CONTINUOUS
 62
    7
 10
223.83996278144031
 20
203.95938705872678
 11
225.57494278112
 21
203.95938705872678
  0
LINE
  8
_0-0_
  6
CONTINUOUS
 62
    7
 10
227.54894473727734
 20
203.45067303708157
 11
227.54894473727734
 21
199.98120053772209
  0
LINE
  8
_0-0_
  6
CONTINUOUS
 62
    7
 10
227.54894473727734
 20
203.45067303708157
 11
225.81445223759752
 21
203.45067303708157
  0
LINE
  8
_0-0_
  6
CONTINUOUS
 62
    7
 10
223.83996278144031
 20
209.91108944893236
 11
223.81026767275014
 21
210.71870173139195
  0
LINE
  8
_0-0_
  6
CONTINUOUS
 62
    7
 10
223.81026767275014
 20
210.71870173139195
 11
223.93002169446717
 21
211.46643770951476
  0
LINE
  8
_0-0_
  6
CONTINUOUS
 62
    7
 10
223.93002169446717
 20
211.46643770951476
 11
224.22892136832502
 21
212.21417227459412
  0
LINE
  8
_0-0_
  6
CONTINUOUS
 62
    7
 10
224.22892136832502
 20
212.21417227459412
 11
224.61787995520976
 21
212.87233542664654
  0
LINE
  8
_0-0_
  6
CONTINUOUS
 62
    7
 10
224.61787995520976
 20
212.87233542664654
 11
225.18598419423529
 21
213.44068270915031
  0
LINE
  8
_0-0_
  6
CONTINUOUS
 62
    7
 10
225.81445223759752
 20
209.91108944893236
 11
224.82720680299718
 21
208.92433151433193
  0
LINE
  8
_0-0_
  6
CONTINUOUS
 62
    7
 10
226.56218680267688
 20
209.91108944893236
 11
228.29668071540016
 21
205.93338901488409
  0
LINE
  8
_0-0_
  6
CONTINUOUS
 62
    7
 10
227.01053701998541
 20
209.91108944893236
 11
225.81445223759752
 21
209.91108944893236
  0
LINE
  8
_0-0_
  6
CONTINUOUS
 62
    7
 10
224.82720680299718
 20
208.92433151433193
 11
224.82720680299718
 21
204.46761358037207
  0
LINE
  8
_0-0_
  6
CONTINUOUS
 62
    7
 10
227.54894473727734
 20
213.88927596993705
 11
227.54894473727734
 21
212.90227499185841
  0
LINE
  8
_0-0_
  6
CONTINUOUS
 62
    7
 10
229.3136198456472
 20
213.88927596993705
 11
225.81445223759752
 21
213.88927596993705
  0
LINE
  8
_0-0_
  6
CONTINUOUS
 62
    7
 10
225.57494278112
 20
212.90227499185841
 11
227.54894473727734
 21
212.90227499185841
  0
LINE
  8
_0-0_
  6
CONTINUOUS
 62
    7
 10
225.0667162594747
 20
211.91527260073627
 11
225.57494278112
 21
211.91527260073627
  0
LINE
  8
_0-0_
  6
CONTINUOUS
 62
    7
 10
226.56218680267688
 20
211.40655999213453
 11
228.29668071540016
 21
211.40655999213453
  0
LINE
  8
_0-0_
  6
CONTINUOUS
 62
    7
 10
226.56218680267688
 20
211.40655999213453
 11
226.56218680267688
 21
212.90227499185841
  0
LINE
  8
_0-0_
  6
CONTINUOUS
 62
    7
 10
226.56218680267688
 20
211.40655999213453
 11
227.96759843285221
 21
206.6811249930069
  0
LINE
  8
_0-0_
  6
CONTINUOUS
 62
    7
 10
176.64305300754489
 20
197.02044064696435
 11
176.73262583361532
 21
194.9865609734268
  0
LINE
  8
_0-0_
  6
CONTINUOUS
 62
    7
 10
176.73262583361532
 20
194.9865609734268
 11
176.97213529009284
 21
192.9823764085794
  0
LINE
  8
_0-0_
  6
CONTINUOUS
 62
    7
 10
176.97213529009284
 20
192.9823764085794
 11
177.33091126828745
 21
191.00837445242209
  0
LINE
  8
_0-0_
  6
CONTINUOUS
 62
    7
 10
177.33091126828745
 20
191.00837445242209
 11
177.86932039862288
 21
189.06455369191139
  0
LINE
  8
_0-0_
  6
CONTINUOUS
 62
    7
 10
177.86932039862288
 20
189.06455369191139
 11
178.55717865936543
 21
187.1801245618245
  0
LINE
  8
_0-0_
  6
CONTINUOUS
 62
    7
 10
178.55717865936543
 20
187.1801245618245
 11
179.39497355051509
 21
185.32587662738422
  0
LINE
  8
_0-0_
  6
CONTINUOUS
 62
    7
 10
179.39497355051509
 20
185.32587662738422
 11
180.3520349633819
 21
183.56120151901436
  0
LINE
  8
_0-0_
  6
CONTINUOUS
 62
    7
 10
180.3520349633819
 20
183.56120151901436
 11
181.42885181100917
 21
181.85640271498127
  0
LINE
  8
_0-0_
  6
CONTINUOUS
 62
    7
 10
181.42885181100917
 20
181.85640271498127
 11
182.65511920208715
 21
180.27087325875223
  0
LINE
  8
_0-0_
  6
CONTINUOUS
 62
    7
 10
182.65511920208715
 20
180.27087325875223
 11
184.00065311488223
 21
178.7457061938164
  0
LINE
  8
_0-0_
  6
CONTINUOUS
 62
    7
 10
184.00065311488223
 20
178.7457061938164
 11
185.4664299624377
 21
177.36998967233126
  0
LINE
  8
_0-0_
  6
CONTINUOUS
 62
    7
 10
185.4664299624377
 20
177.36998967233126
 11
187.02177822302011
 21
176.08384597691651
  0
LINE
  8
_0-0_
  6
CONTINUOUS
 62
    7
 10
187.02177822302011
 20
176.08384597691651
 11
188.66669789662947
 21
174.91745630321884
  0
LINE
  8
_0-0_
  6
CONTINUOUS
 62
    7
 10
188.66669789662947
 20
174.91745630321884
 11
190.4016778963092
 21
173.87033456428168
  0
LINE
  8
_0-0_
  6
CONTINUOUS
 62
    7
 10
190.4016778963092
 20
173.87033456428168
 11
192.19604952641271
 21
173.00333206444176
  0
LINE
  8
_0-0_
  6
CONTINUOUS
 62
    7
 10
192.19604952641271
 20
173.00333206444176
 11
194.08047865649959
 21
172.22541347762885
  0
LINE
  8
_0-0_
  6
CONTINUOUS
 62
    7
 10
194.08047865649959
 20
172.22541347762885
 11
195.99460430832013
 21
171.62712804295671
  0
LINE
  8
_0-0_
  6
CONTINUOUS
 62
    7
 10
195.99460430832013
 20
171.62712804295671
 11
197.96860626447744
 21
171.17877923869165
  0
LINE
  8
_0-0_
  6
CONTINUOUS
 62
    7
 10
197.96860626447744
 20
171.17877923869165
 11
199.94260822063472
 21
170.8496969561437
  0
LINE
  8
_0-0_
  6
CONTINUOUS
 62
    7
 10
199.94260822063472
 20
170.8496969561437
 11
201.97648789417229
 21
170.70024782573651
  0
LINE
  8
_0-0_
  6
CONTINUOUS
 62
    7
 10
201.97648789417229
 20
170.70024782573651
 11
203.98018495901977
 21
170.70024782573651
  0
LINE
  8
_0-0_
  6
CONTINUOUS
 62
    7
 10
203.98018495901977
 20
170.70024782573651
 11
205.98436952386714
 21
170.8496969561437
  0
LINE
  8
_0-0_
  6
CONTINUOUS
 62
    7
 10
205.98436952386714
 20
170.8496969561437
 11
207.98806658871464
 21
171.17877923869165
  0
LINE
  8
_0-0_
  6
CONTINUOUS
 62
    7
 10
207.98806658871464
 20
171.17877923869165
 11
209.93237484922525
 21
171.62712804295671
  0
LINE
  8
_0-0_
  6
CONTINUOUS
 62
    7
 10
209.93237484922525
 20
171.62712804295671
 11
211.8761941966925
 21
172.22541347762885
  0
LINE
  8
_0-0_
  6
CONTINUOUS
 62
    7
 10
211.8761941966925
 20
172.22541347762885
 11
213.73092963113268
 21
173.00333206444176
  0
LINE
  8
_0-0_
  6
CONTINUOUS
 62
    7
 10
213.73092963113268
 20
173.00333206444176
 11
215.55548104383931
 21
173.87033456428168
  0
LINE
  8
_0-0_
  6
CONTINUOUS
 62
    7
 10
215.55548104383931
 20
173.87033456428168
 11
217.28997495656259
 21
174.91745630321884
  0
LINE
  8
_0-0_
  6
CONTINUOUS
 62
    7
 10
217.28997495656259
 20
174.91745630321884
 11
218.93489604321542
 21
176.08384597691651
  0
LINE
  8
_0-0_
  6
CONTINUOUS
 62
    7
 10
218.93489604321542
 20
176.08384597691651
 11
220.49024430379785
 21
177.36998967233126
  0
LINE
  8
_0-0_
  6
CONTINUOUS
 62
    7
 10
220.49024430379785
 20
177.36998967233126
 11
221.92583712961977
 21
178.74570619381637
  0
LINE
  8
_0-0_
  6
CONTINUOUS
 62
    7
 10
221.92583712961977
 20
178.74570619381637
 11
223.27185854241475
 21
180.27087325875223
  0
LINE
  8
_0-0_
  6
CONTINUOUS
 62
    7
 10
223.27185854241475
 20
180.27087325875223
 11
224.4981259334927
 21
181.85640271498124
  0
LINE
  8
_0-0_
  6
CONTINUOUS
 62
    7
 10
224.4981259334927
 20
181.85640271498124
 11
225.60463788981016
 21
183.56120151901433
  0
LINE
  8
_0-0_
  6
CONTINUOUS
 62
    7
 10
225.60463788981016
 20
183.56120151901433
 11
226.56218680267688
 21
185.32587662738422
  0
LINE
  8
_0-0_
  6
CONTINUOUS
 62
    7
 10
226.56218680267688
 20
185.32587662738422
 11
227.36931299818002
 21
187.1801245618245
  0
LINE
  8
_0-0_
  6
CONTINUOUS
 62
    7
 10
227.36931299818002
 20
187.1801245618245
 11
228.05765875892251
 21
189.06455369191139
  0
LINE
  8
_0-0_
  6
CONTINUOUS
 62
    7
 10
228.05765875892251
 20
189.06455369191139
 11
228.595580389258
 21
191.00837445242209
  0
LINE
  8
_0-0_
  6
CONTINUOUS
 62
    7
 10
228.595580389258
 20
191.00837445242209
 11
228.98453897614272
 21
192.9823764085794
  0
LINE
  8
_0-0_
  6
CONTINUOUS
 62
    7
 10
228.98453897614272
 20
192.9823764085794
 11
229.22404701957677
 21
194.9865609734268
  0
LINE
  8
_0-0_
  6
CONTINUOUS
 62
    7
 10
229.22404701957677
 20
194.9865609734268
 11
229.283924736957
 21
197.02044064696435
  0
LINE
  8
_0-0_
  6
CONTINUOUS
 62
    7
 10
176.88256246402241
 20
203.00232423281653
 11
176.64305300754489
 21
200.01138173336869
  0
LINE
  8
_0-0_
  6
CONTINUOUS
 62
    7
 10
176.64305300754489
 20
197.02044064696435
 11
176.64305300754489
 21
200.01138173336869
  0
LINE
  8
_0-0_
  6
CONTINUOUS
 62
    7
 10
229.283924736957
 20
197.02044064696435
 11
229.283924736957
 21
199.32352347262611
  0
LINE
  8
_0-0_
  6
CONTINUOUS
 62
    7
 10
262.81226853511498
 20
199.98120053772209
 11
245.19569723401946
 21
199.98120053772209
  0
LINE
  8
_0-0_
  6
CONTINUOUS
 62
    7
 10
261.58600114403703
 20
197.02044064696435
 11
245.19569723401946
 21
197.02044064696435
  0
LINE
  8
_0-0_
  6
CONTINUOUS
 62
    7
 10
224.22892136832502
 20
203.95938705872678
 11
224.82720680299718
 21
204.55767249339894
  0
LINE
  8
_0-0_
  6
CONTINUOUS
 62
    7
 10
224.82720680299718
 20
206.65142988431674
 11
223.83996278144031
 21
205.6641844497164
  0
LINE
  8
_0-0_
  6
CONTINUOUS
 62
    7
 10
223.83996278144031
 20
207.7579418406342
 11
224.82720680299718
 21
208.74469977523464
  0
LINE
  8
_0-0_
  6
CONTINUOUS
 62
    7
 10
227.54894473727734
 20
213.59013325260099
 11
226.86108647653475
 21
212.90227499185841
  0
LINE
  8
_0-0_
  6
CONTINUOUS
 62
    7
 10
225.57494278112
 20
211.61637433992189
 11
223.83996278144031
 21
209.8813943402422
  0
LINE
  8
_0-0_
  6
CONTINUOUS
 62
    7
 10
224.40855310742231
 20
212.57343575278867
 11
225.63482049850026
 21
213.76952053517653
  0
LINE
  8
_0-0_
  6
CONTINUOUS
 62
    7
 10
176.64305300754489
 20
255.40344346227289
 11
177.48036039869467
 21
256.24099530994437
  0
LINE
  8
_0-0_
  6
CONTINUOUS
 62
    7
 10
178.0786472464103
 20
258.24493541827007
 11
176.64305300754489
 21
256.8093425924481
  0
LINE
  8
_0-0_
  6
CONTINUOUS
 62
    7
 10
176.64305300754489
 20
258.21499726610165
 11
178.67693268108246
 21
260.24887693963922
  0
LINE
  8
_0-0_
  6
CONTINUOUS
 62
    7
 10
179.27521811575463
 20
262.25281846100836
 11
176.64305300754489
 21
259.62089639627692
  0
LINE
  8
_0-0_
  6
CONTINUOUS
 62
    7
 10
176.64305300754489
 20
261.02655106993041
 11
179.90320007216042
 21
264.25675856933412
  0
LINE
  8
_0-0_
  6
CONTINUOUS
 62
    7
 10
179.27521811575463
 20
265.03443269962531
 11
176.64305300754489
 21
262.43220574358395
  0
LINE
  8
_0-0_
  6
CONTINUOUS
 62
    7
 10
176.64305300754489
 20
263.83810487375922
 11
177.89950159426945
 21
265.06437085179368
  0
LINE
  8
_0-0_
  6
CONTINUOUS
 62
    7
 10
177.89950159426945
 20
266.47002693849072
 11
176.64305300754489
 21
265.24375954741276
  0
LINE
  8
_0-0_
  6
CONTINUOUS
 62
    7
 10
176.64305300754489
 20
266.64941563410974
 11
177.03201159442963
 21
267.03837422099446
  0
LINE
  8
_0-0_
  6
CONTINUOUS
 62
    7
 10
176.64305300754489
 20
256.00172889694505
 11
177.24133844221706
 21
255.43338302748475
  0
LINE
  8
_0-0_
  6
CONTINUOUS
 62
    7
 10
177.570420724765
 20
256.51019987511205
 11
176.64305300754489
 21
257.40738498364209
  0
LINE
  8
_0-0_
  6
CONTINUOUS
 62
    7
 10
176.64305300754489
 20
258.81328270077381
 11
177.89950159426945
 21
257.58701672273935
  0
LINE
  8
_0-0_
  6
CONTINUOUS
 62
    7
 10
178.19840126812736
 20
258.66359052688841
 11
176.64305300754489
 21
260.21893878747085
  0
LINE
  8
_0-0_
  6
CONTINUOUS
 62
    7
 10
176.64305300754489
 20
261.62459346112439
 11
178.5274835506753
 21
259.74040737451571
  0
LINE
  8
_0-0_
  6
CONTINUOUS
 62
    7
 10
178.85656442017972
 20
260.81722422214301
 11
176.64305300754489
 21
263.03049259129961
  0
LINE
  8
_0-0_
  6
CONTINUOUS
 62
    7
 10
176.64305300754489
 20
264.43614726495315
 11
179.1856452896842
 21
261.89379802629207
  0
LINE
  8
_0-0_
  6
CONTINUOUS
 62
    7
 10
179.51424007223224
 20
263.00055302608774
 11
176.64305300754489
 21
265.84204498208487
  0
LINE
  8
_0-0_
  6
CONTINUOUS
 62
    7
 10
176.85237985533234
 20
267.03837422099446
 11
177.89950159426945
 21
266.02143367770395
  0
LINE
  8
_0-0_
  6
CONTINUOUS
 62
    7
 10
178.85656442017972
 20
265.03443269962531
 11
179.84332235478018
 21
264.07736987371504
  0
LINE
  8
_0-0_
  6
CONTINUOUS
 62
    7
 10
228.56588528056784
 20
204.76699934118636
 11
229.283924736957
 21
205.51473531930921
  0
LINE
  8
_0-0_
  6
CONTINUOUS
 62
    7
 10
229.283924736957
 20
204.10883618913397
 11
229.16417071524
 21
203.95938705872678
  0
LINE
  8
_0-0_
  6
CONTINUOUS
 62
    7
 10
228.29668071540016
 20
205.93338901488409
 11
229.283924736957
 21
206.92014694948455
  0
LINE
  8
_0-0_
  6
CONTINUOUS
 62
    7
 10
229.283924736957
 20
208.32604607965976
 11
227.90772212851545
 21
206.92014694948455
  0
LINE
  8
_0-0_
  6
CONTINUOUS
 62
    7
 10
227.57863984596747
 20
207.99696379711182
 11
229.283924736957
 21
209.73194379679151
  0
LINE
  8
_0-0_
  6
CONTINUOUS
 62
    7
 10
229.13398810654991
 20
210.95821118786947
 11
227.25004506341946
 21
209.07378064473909
  0
LINE
  8
_0-0_
  6
CONTINUOUS
 62
    7
 10
226.92096419391498
 20
210.18029260105655
 11
228.17692528063964
 21
211.40655999213453
  0
LINE
  8
_0-0_
  6
CONTINUOUS
 62
    7
 10
226.77151365046433
 20
211.40655999213453
 11
226.6215770200572
 21
211.25711086172731
  0
LINE
  8
_0-0_
  6
CONTINUOUS
 62
    7
 10
228.32637582409032
 20
205.72406216709663
 11
229.283924736957
 21
204.76699934118636
  0
LINE
  8
_0-0_
  6
CONTINUOUS
 62
    7
 10
229.283924736957
 20
206.1724109713617
 11
227.63851756334776
 21
207.84751466670463
  0
LINE
  8
_0-0_
  6
CONTINUOUS
 62
    7
 10
227.04071821563201
 20
209.85169781850854
 11
229.283924736957
 21
207.57831010153691
  0
LINE
  8
_0-0_
  6
CONTINUOUS
 62
    7
 10
229.283924736957
 20
208.98420781866869
 11
226.86108647653475
 21
211.40655999213453
  0
LINE
  8
_0-0_
  6
CONTINUOUS
 62
    7
 10
228.26698560670997
 20
211.40655999213453
 11
229.283924736957
 21
210.39010694884394
  0
LINE
  8
_0-0_
  6
CONTINUOUS
 62
    7
 10
179.57411778961247
 20
184.96709923614611
 11
180.83056637633703
 21
183.68095554073139
  0
LINE
  8
_0-0_
  6
CONTINUOUS
 62
    7
 10
189.65394333122984
 20
174.88727510757221
 11
190.93959952664466
 21
173.60112999911402
  0
LINE
  8
_0-0_
  6
CONTINUOUS
 62
    7
 10
194.58870517814489
 20
172.04578173853159
 11
193.75139778699511
 21
172.88357662968124
  0
LINE
  8
_0-0_
  6
CONTINUOUS
 62
    7
 10
178.85656442017972
 20
187.80810510518683
 11
178.01876952903004
 21
188.61571738764644
  0
LINE
  8
_0-0_
  6
CONTINUOUS
 62
    7
 10
177.24133844221703
 20
191.51708706102386
 11
177.89950159426945
 21
190.85892390897143
  0
LINE
  8
_0-0_
  6
CONTINUOUS
 62
    7
 10
196.83191169946991
 20
171.92651521681447
 11
197.49007485152228
 21
171.26835206476207
  0
LINE
  8
_0-0_
  6
CONTINUOUS
 62
    7
 10
200.00248593801501
 20
170.8496969561437
 11
199.43389561203301
 21
171.41780119516926
  0
LINE
  8
_0-0_
  6
CONTINUOUS
 62
    7
 10
177.39078898566771
 20
193.46090782153453
 11
176.82268474664215
 21
194.02949814751653
  0
LINE
  8
_0-0_
  6
CONTINUOUS
 62
    7
 10
176.67323561623496
 20
196.30239977753169
 11
177.18146213788026
 21
195.79417325588639
  0
LINE
  8
_0-0_
  6
CONTINUOUS
 62
    7
 10
201.73697843769477
 20
171.20847434738184
 11
202.27538756803017
 21
170.70024782573651
  0
LINE
  8
_0-0_
  6
CONTINUOUS
 62
    7
 10
204.33944843721432
 20
170.72994293442667
 11
203.86091702425921
 21
171.20847434738184
  0
LINE
  8
_0-0_
  6
CONTINUOUS
 62
    7
 10
177.1517670291901
 20
197.91762575549438
 11
176.64305300754489
 21
198.42633836409613
  0
LINE
  8
_0-0_
  6
CONTINUOUS
 62
    7
 10
176.70293072492515
 20
200.48991314632383
 11
177.1517670291901
 21
200.04107825510235
  0
LINE
  8
_0-0_
  6
CONTINUOUS
 62
    7
 10
205.83492039345998
 20
171.357923477789
 11
206.28326919772502
 21
170.90957467352393
  0
LINE
  8
_0-0_
  6
CONTINUOUS
 62
    7
 10
208.10782202347514
 20
171.17877923869165
 11
207.65898571921016
 21
171.62712804295671
  0
LINE
  8
_0-0_
  6
CONTINUOUS
 62
    7
 10
177.30121615959729
 20
201.9853851025695
 11
176.85237985533234
 21
202.43373390683453
  0
LINE
  8
_0-0_
  6
CONTINUOUS
 62
    7
 10
176.88256246402241
 20
204.49779477601871
 11
177.39078898566771
 21
203.98908216741697
  0
LINE
  8
_0-0_
  6
CONTINUOUS
 62
    7
 10
209.39396571888989
 20
171.98639152115123
 11
209.81261941446476
 21
171.59743293426652
  0
LINE
  8
_0-0_
  6
CONTINUOUS
 62
    7
 10
211.42784539242743
 20
172.07596434722166
 11
211.03888680554272
 21
172.46492293410637
  0
LINE
  8
_0-0_
  6
CONTINUOUS
 62
    7
 10
177.39078898566771
 20
206.11302075398137
 11
176.88256246402241
 21
206.59155216693651
  0
LINE
  8
_0-0_
  6
CONTINUOUS
 62
    7
 10
176.88256246402241
 20
208.71500466654447
 11
177.39078898566771
 21
208.20629064489927
  0
LINE
  8
_0-0_
  6
CONTINUOUS
 62
    7
 10
212.56453995743499
 20
173.03302717313196
 11
212.95301104431979
 21
172.64406858624722
  0
LINE
  8
_0-0_
  6
CONTINUOUS
 62
    7
 10
214.41878789187524
 20
173.30223173829961
 11
214.02982789194706
 21
173.66100771649425
  0
LINE
  8
_0-0_
  6
CONTINUOUS
 62
    7
 10
177.39078898566771
 20
210.33022923146368
 11
176.88256246402241
 21
210.80876064441881
  0
LINE
  8
_0-0_
  6
CONTINUOUS
 62
    7
 10
176.88256246402241
 20
212.93221314402678
 11
177.39078898566774
 21
212.42349912238157
  0
LINE
  8
_0-0_
  6
CONTINUOUS
 62
    7
 10
215.43572702212231
 20
174.37904858592691
 11
215.79450441336041
 21
174.01978510773239
  0
LINE
  8
_0-0_
  6
CONTINUOUS
 62
    7
 10
217.1103432174653
 20
174.79770228150178
 11
216.75156582622719
 21
175.15647825969643
  0
LINE
  8
_0-0_
  6
CONTINUOUS
 62
    7
 10
177.39078898566774
 20
214.54719466546777
 11
176.88256246402241
 21
215.02572607842291
  0
LINE
  8
_0-0_
  6
CONTINUOUS
 62
    7
 10
176.88256246402241
 20
217.14942162150908
 11
177.39078898566774
 21
216.64095205638557
  0
LINE
  8
_0-0_
  6
CONTINUOUS
 62
    7
 10
218.00801441295175
 20
176.02396825953628
 11
218.36679180418986
 21
175.66519228134166
  0
LINE
  8
_0-0_
  6
CONTINUOUS
 62
    7
 10
219.56336267353419
 20
176.56237738987167
 11
219.20409919533964
 21
176.92115478110975
  0
LINE
  8
_0-0_
  6
CONTINUOUS
 62
    7
 10
177.39078898566774
 20
218.73470803425991
 11
176.88256246402241
 21
219.24317901242691
  0
LINE
  8
_0-0_
  6
CONTINUOUS
 62
    7
 10
176.88256246402241
 20
221.33669194682301
 11
177.39078898566774
 21
220.85816053386787
  0
LINE
  8
_0-0_
  6
CONTINUOUS
 62
    7
 10
220.34079376034717
 20
177.90839880266662
 11
220.6995711515853
 21
177.54913532447208
  0
LINE
  8
_0-0_
  6
CONTINUOUS
 62
    7
 10
221.7763879992126
 20
178.59625706340921
 11
221.41761060797447
 21
178.92533793291366
  0
LINE
  8
_0-0_
  6
CONTINUOUS
 62
    7
 10
177.39078898566774
 20
222.95191792478568
 11
176.88256246402241
 21
223.46038748990921
  0
LINE
  8
_0-0_
  6
CONTINUOUS
 62
    7
 10
176.88256246402241
 20
225.55390042430531
 11
177.39078898566774
 21
225.07536901135018
  0
LINE
  8
_0-0_
  6
CONTINUOUS
 62
    7
 10
222.434551151265
 20
180.03185130227462
 11
222.79332712945961
 21
179.67307391103651
  0
LINE
  8
_0-0_
  6
CONTINUOUS
 62
    7
 10
223.72069484667972
 20
180.8394635847342
 11
223.39161397717524
 21
181.19823956292885
  0
LINE
  8
_0-0_
  6
CONTINUOUS
 62
    7
 10
177.39078898566774
 20
227.16912640226801
 11
176.88256246402241
 21
227.67759596739151
  0
LINE
  8
_0-0_
  6
CONTINUOUS
 62
    7
 10
176.88256246402241
 20
229.77110890178761
 11
177.39078898566774
 21
229.29257890187597
  0
LINE
  8
_0-0_
  6
CONTINUOUS
 62
    7
 10
224.25910397701512
 20
182.39481184531664
 11
224.61787995520973
 21
182.03554836712209
  0
LINE
  8
_0-0_
  6
CONTINUOUS
 62
    7
 10
225.45518734635948
 20
183.32169206253681
 11
225.09641136816487
 21
183.68095554073136
  0
LINE
  8
_0-0_
  6
CONTINUOUS
 62
    7
 10
177.39078898566774
 20
231.38633487975031
 11
176.88256246402241
 21
231.89480444487381
  0
LINE
  8
_0-0_
  6
CONTINUOUS
 62
    7
 10
176.88256246402241
 20
233.98831879231341
 11
177.39078898566774
 21
233.5097873793583
  0
LINE
  8
_0-0_
  6
CONTINUOUS
 62
    7
 10
225.84414734628768
 20
185.02649086656993
 11
226.2331059331724
 21
184.66771347533179
  0
LINE
  8
_0-0_
  6
CONTINUOUS
 62
    7
 10
226.92096419391498
 20
186.07361260550704
 11
226.53200560703027
 21
186.46257119239175
  0
LINE
  8
_0-0_
  6
CONTINUOUS
 62
    7
 10
177.39078898566774
 20
235.60354335723264
 11
176.88256246402241
 21
236.11201433539961
  0
LINE
  8
_0-0_
  6
CONTINUOUS
 62
    7
 10
176.88256246402241
 20
238.20552726979574
 11
177.39078898566774
 21
237.6970577046722
  0
LINE
  8
_0-0_
  6
CONTINUOUS
 62
    7
 10
227.1599861503926
 20
187.95804173559392
 11
227.54894473727734
 21
187.56908314870921
  0
LINE
  8
_0-0_
  6
CONTINUOUS
 62
    7
 10
228.08735386761271
 20
189.12443140929165
 11
227.6983938676845
 21
189.51290390921992
  0
LINE
  8
_0-0_
  6
CONTINUOUS
 62
    7
 10
177.39078898566774
 20
239.82075324775838
 11
176.88256246402241
 21
240.29928324767008
  0
LINE
  8
_0-0_
  6
CONTINUOUS
 62
    7
 10
176.88256246402241
 20
242.42297879075625
 11
177.39078898566774
 21
241.91450922563271
  0
LINE
  8
_0-0_
  6
CONTINUOUS
 62
    7
 10
228.11704897630287
 20
191.18800619151938
 11
228.53618875883419
 21
190.76935249594447
  0
LINE
  8
_0-0_
  6
CONTINUOUS
 62
    7
 10
228.89496615007229
 20
192.53402760431436
 11
228.47631245449742
 21
192.95268129988924
  0
LINE
  8
_0-0_
  6
CONTINUOUS
 62
    7
 10
177.39078898566774
 20
244.03796172524071
 11
176.88256246402241
 21
244.51649313819584
  0
LINE
  8
_0-0_
  6
CONTINUOUS
 62
    7
 10
176.88256246402241
 20
246.64018868128204
 11
177.39078898566774
 21
246.13171770311504
  0
LINE
  8
_0-0_
  6
CONTINUOUS
 62
    7
 10
228.715334410975
 20
194.83711042997612
 11
229.16417071523998
 21
194.35858043006448
  0
LINE
  8
_0-0_
  6
CONTINUOUS
 62
    7
 10
229.283924736957
 20
196.36227749491192
 11
228.8053933240019
 21
196.84080890786709
  0
LINE
  8
_0-0_
  6
CONTINUOUS
 62
    7
 10
177.39078898566774
 20
248.25517020272301
 11
176.88256246402241
 21
248.73370161567814
  0
LINE
  8
_0-0_
  6
CONTINUOUS
 62
    7
 10
177.1517670291901
 20
250.61813074576503
 11
177.54023811607493
 21
250.19923400671195
  0
LINE
  8
_0-0_
  6
CONTINUOUS
 62
    7
 10
227.54894473727734
 20
200.19052738550954
 11
229.283924736957
 21
198.45603347278626
  0
LINE
  8
_0-0_
  6
CONTINUOUS
 62
    7
 10
229.07411038916968
 20
200.78881282018168
 11
227.54894473727734
 21
202.31446597207395
  0
LINE
  8
_0-0_
  6
CONTINUOUS
 62
    7
 10
226.38255506357962
 20
203.45067303708157
 11
224.82720680299718
 21
205.03620390635407
  0
LINE
  8
_0-0_
  6
CONTINUOUS
 62
    7
 10
177.95937931164971
 20
251.90403139770154
 11
177.570420724765
 21
252.29298998458626
  0
LINE
  8
_0-0_
  6
CONTINUOUS
 62
    7
 10
177.63029702910177
 20
254.32686965812383
 11
178.1385235507471
 21
253.81840009300032
  0
LINE
  8
_0-0_
  6
CONTINUOUS
 62
    7
 10
224.82720680299718
 20
207.12996129727188
 11
228.715334410975
 21
203.27152879798422
  0
LINE
  8
_0-0_
  6
CONTINUOUS
 62
    7
 10
228.32637582409032
 20
205.72406216709663
 11
224.97665734644784
 21
209.07378064473909
  0
LINE
  8
_0-0_
  6
CONTINUOUS
 62
    7
 10
178.1385235507471
 20
255.94185259260829
 11
177.63029702910177
 21
256.42038400556339
  0
LINE
  8
_0-0_
  6
CONTINUOUS
 62
    7
 10
178.04895213772014
 20
258.12542444003122
 11
180.05264920256761
 21
256.12148433170557
  0
LINE
  8
_0-0_
  6
CONTINUOUS
 62
    7
 10
226.26280104186259
 20
209.91108944893236
 11
226.80120875915449
 21
209.3731678185969
  0
LINE
  8
_0-0_
  6
CONTINUOUS
 62
    7
 10
181.21903887626533
 20
257.07854715761584
 11
178.5274835506753
 21
259.74040737451571
  0
LINE
  8
_0-0_
  6
CONTINUOUS
 62
    7
 10
179.03570865927711
 20
261.35563193943489
 11
181.24922007191194
 21
259.14212193984355
  0
LINE
  8
_0-0_
  6
CONTINUOUS
 62
    7
 10
181.24922007191194
 20
261.26581606988623
 11
179.93338126780702
 21
262.55196117834447
  0
LINE
  8
_0-0_
  6
CONTINUOUS
 62
    7
 10
176.16452159458979
 20
221.18724281641582
 11
176.64305300754489
 21
221.69571238153935
  0
LINE
  8
_0-0_
  6
CONTINUOUS
 62
    7
 10
176.64305300754489
 20
223.78922531593545
 11
176.16452159458979
 21
223.31069390298032
  0
LINE
  8
_0-0_
  6
CONTINUOUS
 62
    7
 10
176.16452159458979
 20
225.40445129389815
 11
176.64305300754489
 21
225.91292085902165
  0
LINE
  8
_0-0_
  6
CONTINUOUS
 62
    7
 10
176.64305300754489
 20
228.00643379341776
 11
176.16452159458979
 21
227.52790238046265
  0
LINE
  8
_0-0_
  6
CONTINUOUS
 62
    7
 10
176.16452159458979
 20
229.62165977138045
 11
176.64305300754489
 21
230.13012933650396
  0
LINE
  8
_0-0_
  6
CONTINUOUS
 62
    7
 10
176.64305300754489
 20
232.22364368394355
 11
176.16452159458979
 21
231.71517270577655
  0
LINE
  8
_0-0_
  6
CONTINUOUS
 62
    7
 10
176.16452159458979
 20
233.83886824886275
 11
176.64305300754489
 21
234.31739966181789
  0
LINE
  8
_0-0_
  6
CONTINUOUS
 62
    7
 10
176.64305300754489
 20
236.44109520490406
 11
176.16452159458979
 21
235.93262563978055
  0
LINE
  8
_0-0_
  6
CONTINUOUS
 62
    7
 10
176.16452159458979
 20
238.05607672634505
 11
176.64305300754489
 21
238.53460813930019
  0
LINE
  8
_0-0_
  6
CONTINUOUS
 62
    7
 10
176.64305300754489
 20
240.65830368238639
 11
176.16452159458979
 21
240.14983411726286
  0
LINE
  8
_0-0_
  6
CONTINUOUS
 62
    7
 10
176.16452159458979
 20
242.27328661687085
 11
176.64305300754489
 21
242.75181802982598
  0
LINE
  8
_0-0_
  6
CONTINUOUS
 62
    7
 10
176.64305300754489
 20
244.87551215986869
 11
176.16452159458979
 21
244.36704259474516
  0
LINE
  8
_0-0_
  6
CONTINUOUS
 62
    7
 10
176.16452159458979
 20
246.49049509435315
 11
176.64305300754489
 21
246.96902650730829
  0
LINE
  8
_0-0_
  6
CONTINUOUS
 62
    7
 10
176.64305300754489
 20
249.09272205039449
 11
176.16452159458979
 21
248.58425107222749
  0
LINE
  8
_0-0_
  6
CONTINUOUS
 62
    7
 10
176.16452159458979
 20
250.67776541966705
 11
176.64305300754489
 21
251.18623498479059
  0
LINE
  8
_0-0_
  6
CONTINUOUS
 62
    7
 10
176.64305300754489
 20
253.27999237570839
 11
176.16452159458979
 21
252.80146096275328
  0
LINE
  8
_0-0_
  6
CONTINUOUS
 62
    7
 10
176.16452159458979
 20
254.89497389714938
 11
176.64305300754489
 21
255.40344346227289
  0
LINE
  8
_0-0_
  6
CONTINUOUS
 62
    7
 10
176.64305300754489
 20
257.49720085319069
 11
176.16452159458979
 21
257.01866944023556
  0
LINE
  8
_0-0_
  6
CONTINUOUS
 62
    7
 10
176.16452159458979
 20
259.11242541810986
 11
176.64305300754489
 21
259.62089639627692
  0
LINE
  8
_0-0_
  6
CONTINUOUS
 62
    7
 10
176.64305300754489
 20
261.71440933067299
 11
176.16452159458979
 21
261.23587791771786
  0
LINE
  8
_0-0_
  6
CONTINUOUS
 62
    7
 10
176.16452159458979
 20
263.32963530863572
 11
176.64305300754489
 21
263.83810487375922
  0
LINE
  8
_0-0_
  6
CONTINUOUS
 62
    7
 10
176.64305300754489
 20
265.93161780815529
 11
176.16452159458979
 21
265.45308639520022
  0
LINE
  8
_0-0_
  6
CONTINUOUS
 62
    7
 10
176.16452159458979
 20
267.54684378611802
 11
176.64305300754489
 21
268.05531335124152
  0
LINE
  8
_0-0_
  6
CONTINUOUS
 62
    7
 10
176.64305300754489
 20
270.1488262856376
 11
176.16452159458979
 21
269.64035672051409
  0
LINE
  8
_0-0_
  6
CONTINUOUS
 62
    7
 10
176.16452159458979
 20
271.76405226360032
 11
176.64305300754489
 21
272.27252182872382
  0
LINE
  8
_0-0_
  6
CONTINUOUS
 62
    7
 10
176.64305300754489
 20
274.36603617616345
 11
176.16452159458979
 21
273.85756519799639
  0
LINE
  8
_0-0_
  6
CONTINUOUS
 62
    7
 10
176.16452159458979
 20
275.98126074108262
 11
176.64305300754489
 21
276.45979215403776
  0
LINE
  8
_0-0_
  6
CONTINUOUS
 62
    7
 10
176.64305300754489
 20
278.58324465364569
 11
176.16452159458979
 21
278.07477508852219
  0
LINE
  8
_0-0_
  6
CONTINUOUS
 62
    7
 10
176.16452159458979
 20
280.19847063160842
 11
176.64305300754489
 21
280.67700063152006
  0
LINE
  8
_0-0_
  6
CONTINUOUS
 62
    7
 10
176.64305300754489
 20
282.80069617460623
 11
176.16452159458979
 21
282.29222660948273
  0
LINE
  8
_0-0_
  6
CONTINUOUS
 62
    7
 10
176.16452159458979
 20
284.41567910909072
 11
176.64305300754489
 21
284.89421052204585
  0
LINE
  8
_0-0_
  6
CONTINUOUS
 62
    7
 10
176.64305300754489
 20
287.01790606513202
 11
176.16452159458979
 21
286.50943508696503
  0
LINE
  8
_0-0_
  6
CONTINUOUS
 62
    7
 10
176.16452159458979
 20
288.60294943440465
 11
176.64305300754492
 21
289.11141899952815
  0
LINE
  8
_0-0_
  6
CONTINUOUS
 62
    7
 10
180.05264920256761
 20
294.61477117242521
 11
178.76650550715291
 21
293.35856562917883
  0
LINE
  8
_0-0_
  6
CONTINUOUS
 62
    7
 10
176.64305300754492
 20
291.23511454261433
 11
176.16452159458979
 21
290.72664497749082
  0
LINE
  8
_0-0_
  6
CONTINUOUS
 62
    7
 10
176.16452159458979
 20
292.82015791188695
 11
178.16870615943719
 21
294.85403758542452
  0
LINE
  8
_0-0_
  6
CONTINUOUS
 62
    7
 10
180.38173007207206
 20
257.01866944023556
 11
182.11671007175178
 21
258.75340639643707
  0
LINE
  8
_0-0_
  6
CONTINUOUS
 62
    7
 10
182.11671007175178
 20
256.65964900551921
 11
181.57830235445988
 21
256.12148433170557
  0
LINE
  8
_0-0_
  6
CONTINUOUS
 62
    7
 10
180.38173007207206
 20
259.11242541810986
 11
182.11671007175178
 21
260.87685748300157
  0
LINE
  8
_0-0_
  6
CONTINUOUS
 62
    7
 10
182.11671007175178
 20
262.97061487391937
 11
180.38173007207206
 21
261.23587791771786
  0
LINE
  8
_0-0_
  6
CONTINUOUS
 62
    7
 10
180.38173007207206
 20
263.32963530863566
 11
181.60799746315004
 21
264.58584085188204
  0
LINE
  8
_0-0_
  6
CONTINUOUS
 62
    7
 10
180.62123952854961
 20
265.69235280819947
 11
179.96307637649718
 21
265.03443269962531
  0
LINE
  8
_0-0_
  6
CONTINUOUS
 62
    7
 10
178.37803300722462
 20
265.57284182996068
 11
178.85656442017972
 21
266.05137324291582
  0
LINE
  8
_0-0_
  6
CONTINUOUS
 62
    7
 10
175.65629507294446
 20
295.06336443321197
 11
175.8953170294221
 21
294.85403758542452
  0
LINE
  8
_0-0_
  6
CONTINUOUS
 62
    7
 10
176.31397213804047
 20
294.85403758542452
 11
175.65629507294446
 21
295.482261172265
  0
LINE
  8
_0-0_
  6
CONTINUOUS
 62
    7
 10
175.65629507294446
 20
296.34950812862667
 11
177.15176702919013
 21
294.85403758542452
  0
LINE
  8
_0-0_
  6
CONTINUOUS
 62
    7
 10
177.570420724765
 20
294.85403758542452
 11
175.65629507294446
 21
296.76816182420157
  0
LINE
  8
_0-0_
  6
CONTINUOUS
 62
    7
 10
176.43372615975747
 20
296.8280395415818
 11
178.40772811591478
 21
294.85403758542452
  0
LINE
  8
_0-0_
  6
CONTINUOUS
 62
    7
 10
178.82638181148965
 20
294.85403758542452
 11
176.85237985533237
 21
296.8280395415818
  0
LINE
  8
_0-0_
  6
CONTINUOUS
 62
    7
 10
177.69017474648206
 20
296.8280395415818
 11
179.66417670263937
 21
294.85403758542452
  0
LINE
  8
_0-0_
  6
CONTINUOUS
 62
    7
 10
180.11252691994787
 20
294.85403758542452
 11
178.10882844205693
 21
296.8280395415818
  0
LINE
  8
_0-0_
  6
CONTINUOUS
 62
    7
 10
178.94613724625017
 20
296.8280395415818
 11
180.17240322428466
 21
295.63171171571571
  0
LINE
  8
_0-0_
  6
CONTINUOUS
 62
    7
 10
180.17240322428466
 20
296.05036541129061
 11
179.36479094182508
 21
296.8280395415818
  0
LINE
  8
_0-0_
  6
CONTINUOUS
 62
    7
 10
179.90320007216044
 20
292.37156465110019
 11
181.84750691962756
 21
294.3156284550891
  0
LINE
  8
_0-0_
  6
CONTINUOUS
 62
    7
 10
182.11671007175178
 20
296.67859041117458
 11
180.38173007207209
 21
294.94385345497312
  0
LINE
  8
_0-0_
  6
CONTINUOUS
 62
    7
 10
178.76650550715291
 20
293.35856562917883
 11
178.37803300722462
 21
292.96985149881584
  0
LINE
  8
_0-0_
  6
CONTINUOUS
 62
    7
 10
180.38173007207209
 20
297.03736638936925
 11
182.11671007175178
 21
298.80204149773908
  0
LINE
  8
_0-0_
  6
CONTINUOUS
 62
    7
 10
182.11671007175178
 20
300.89579888865694
 11
180.38173007207209
 21
299.16106193245542
  0
LINE
  8
_0-0_
  6
CONTINUOUS
 62
    7
 10
180.38173007207209
 20
301.2545748668515
 11
181.39867061536262
 21
302.30145356231048
  0
LINE
  8
_0-0_
  6
CONTINUOUS
 62
    7
 10
180.86026148502722
 20
264.04743172154667
 11
180.38173007207206
 21
264.04743172154667
  0
LINE
  8
_0-0_
  6
CONTINUOUS
 62
    7
 10
175.86562192073191
 20
203.00232423281653
 11
161.41913877122502
 21
203.00232423281653
  0
LINE
  8
_0-0_
  6
CONTINUOUS
 62
    7
 10
228.35655701973693
 20
209.73194379679151
 11
228.08735386761271
 21
209.58249466638432
  0
LINE
  8
_0-0_
  6
CONTINUOUS
 62
    7
 10
228.08735386761271
 20
209.58249466638432
 11
227.90772212851545
 21
209.3429852099068
  0
LINE
  8
_0-0_
  6
CONTINUOUS
 62
    7
 10
227.90772212851545
 20
209.3429852099068
 11
227.90772212851545
 21
209.04408553604895
  0
LINE
  8
_0-0_
  6
CONTINUOUS
 62
    7
 10
227.90772212851545
 20
209.04408553604895
 11
228.02747615023245
 21
208.77488097088124
  0
LINE
  8
_0-0_
  6
CONTINUOUS
 62
    7
 10
228.02747615023245
 20
208.77488097088124
 11
228.29668071540016
 21
208.62543184047405
  0
LINE
  8
_0-0_
  6
CONTINUOUS
 62
    7
 10
228.29668071540016
 20
208.62543184047405
 11
228.56588528056784
 21
208.59524923178398
  0
LINE
  8
_0-0_
  6
CONTINUOUS
 62
    7
 10
228.56588528056784
 20
208.59524923178398
 11
228.83508843269203
 21
208.74469977523464
  0
LINE
  8
_0-0_
  6
CONTINUOUS
 62
    7
 10
228.83508843269203
 20
208.74469977523464
 11
229.01472017178932
 21
208.98420781866869
  0
LINE
  8
_0-0_
  6
CONTINUOUS
 62
    7
 10
229.01472017178932
 20
208.98420781866869
 11
229.01472017178932
 21
209.28310749252654
  0
LINE
  8
_0-0_
  6
CONTINUOUS
 62
    7
 10
229.01472017178932
 20
209.28310749252654
 11
228.89496615007232
 21
209.55231205769425
  0
LINE
  8
_0-0_
  6
CONTINUOUS
 62
    7
 10
228.89496615007232
 20
209.55231205769425
 11
228.62576158490461
 21
209.70176260114491
  0
LINE
  8
_0-0_
  6
CONTINUOUS
 62
    7
 10
228.62576158490461
 20
209.70176260114491
 11
228.35655701973693
 21
209.73194379679151
  0
LINE
  8
_0-0_
  6
CONTINUOUS
 62
    7
 10
178.28797409419775
 20
262.97061487391937
 11
178.04895213772014
 21
263.1500035695384
  0
LINE
  8
_0-0_
  6
CONTINUOUS
 62
    7
 10
178.04895213772014
 20
263.1500035695384
 11
177.74956496386235
 21
263.17994172170677
  0
LINE
  8
_0-0_
  6
CONTINUOUS
 62
    7
 10
177.74956496386235
 20
263.17994172170677
 11
177.48036039869467
 21
263.06043074346803
  0
LINE
  8
_0-0_
  6
CONTINUOUS
 62
    7
 10
177.48036039869467
 20
263.06043074346803
 11
177.30121615959732
 21
262.82116433046866
  0
LINE
  8
_0-0_
  6
CONTINUOUS
 62
    7
 10
177.30121615959732
 20
262.82116433046866
 11
177.27103355090722
 21
262.55196117834447
  0
LINE
  8
_0-0_
  6
CONTINUOUS
 62
    7
 10
177.27103355090722
 20
262.55196117834447
 11
177.36109387697758
 21
262.25281846100836
  0
LINE
  8
_0-0_
  6
CONTINUOUS
 62
    7
 10
177.36109387697758
 20
262.25281846100836
 11
177.60011583345516
 21
262.07342976538933
  0
LINE
  8
_0-0_
  6
CONTINUOUS
 62
    7
 10
177.60011583345516
 20
262.07342976538933
 11
177.89950159426945
 21
262.04349020017747
  0
LINE
  8
_0-0_
  6
CONTINUOUS
 62
    7
 10
177.89950159426945
 20
262.04349020017747
 11
178.16870615943716
 21
262.16300259145976
  0
LINE
  8
_0-0_
  6
CONTINUOUS
 62
    7
 10
178.16870615943716
 20
262.16300259145976
 11
178.34785039853452
 21
262.40226759141558
  0
LINE
  8
_0-0_
  6
CONTINUOUS
 62
    7
 10
178.34785039853452
 20
262.40226759141558
 11
178.40772811591478
 21
262.70141030875169
  0
LINE
  8
_0-0_
  6
CONTINUOUS
 62
    7
 10
178.40772811591478
 20
262.70141030875169
 11
178.28797409419775
 21
262.97061487391937
  0
LINE
  8
_0-0_
  6
CONTINUOUS
 62
    7
 10
178.5274835506753
 20
295.93085443305176
 11
178.43791072460488
 21
296.22999715038787
  0
LINE
  8
_0-0_
  6
CONTINUOUS
 62
    7
 10
178.43791072460488
 20
296.22999715038787
 11
178.19840126812736
 21
296.43932399817527
  0
LINE
  8
_0-0_
  6
CONTINUOUS
 62
    7
 10
178.19840126812736
 20
296.43932399817527
 11
177.92919670295964
 21
296.49920171555556
  0
LINE
  8
_0-0_
  6
CONTINUOUS
 62
    7
 10
177.92919670295964
 20
296.49920171555556
 11
177.6302970291018
 21
296.4093858460069
  0
LINE
  8
_0-0_
  6
CONTINUOUS
 62
    7
 10
177.6302970291018
 20
296.4093858460069
 11
177.45066529000454
 21
296.20005899821945
  0
LINE
  8
_0-0_
  6
CONTINUOUS
 62
    7
 10
177.45066529000454
 20
296.20005899821945
 11
177.36109387697758
 21
295.90091628088339
  0
LINE
  8
_0-0_
  6
CONTINUOUS
 62
    7
 10
177.36109387697758
 20
295.90091628088339
 11
177.45066529000454
 21
295.63171171571571
  0
LINE
  8
_0-0_
  6
CONTINUOUS
 62
    7
 10
177.45066529000454
 20
295.63171171571571
 11
177.65999355083542
 21
295.42238486792826
  0
LINE
  8
_0-0_
  6
CONTINUOUS
 62
    7
 10
177.65999355083542
 20
295.42238486792826
 11
177.95937931164974
 21
295.36250715054803
  0
LINE
  8
_0-0_
  6
CONTINUOUS
 62
    7
 10
177.95937931164974
 20
295.36250715054803
 11
178.25827898550759
 21
295.42238486792826
  0
LINE
  8
_0-0_
  6
CONTINUOUS
 62
    7
 10
178.25827898550759
 20
295.42238486792826
 11
178.43791072460488
 21
295.66164986788408
  0
LINE
  8
_0-0_
  6
CONTINUOUS
 62
    7
 10
178.43791072460488
 20
295.66164986788408
 11
178.5274835506753
 21
295.93085443305176
  0
LINE
  8
_0-0_
  6
CONTINUOUS
 62
    7
 10
230.27068267155744
 20
199.32352347262611
 11
245.19569723401946
 21
199.32352347262611
  0
LINE
  8
_0-0_
  6
CONTINUOUS
 62
    7
 10
419.59672948443102
 20
280.67700063152
 11
419.89587220176713
 21
281.87332987042959
  0
LINE
  8
_0-0_
  6
CONTINUOUS
 62
    7
 10
419.89587220176713
 20
281.87332987042959
 11
420.37440361472221
 21
283.01002302239363
  0
LINE
  8
_0-0_
  6
CONTINUOUS
 62
    7
 10
420.37440361472221
 20
283.01002302239363
 11
420.97317513635079
 21
284.11653639175461
  0
LINE
  8
_0-0_
  6
CONTINUOUS
 62
    7
 10
420.97317513635079
 20
284.11653639175461
 11
421.72091111447367
 21
285.10353736983325
  0
LINE
  8
_0-0_
  6
CONTINUOUS
 62
    7
 10
421.72091111447367
 20
285.10353736983325
 11
422.55846296214509
 21
286.00096552184147
  0
LINE
  8
_0-0_
  6
CONTINUOUS
 62
    7
 10
422.55846296214509
 20
286.00096552184147
 11
423.51503828805545
 21
286.80833476082285
  0
LINE
  8
_0-0_
  6
CONTINUOUS
 62
    7
 10
423.51503828805545
 20
286.80833476082285
 11
424.56240307047085
 21
287.4664979128753
  0
LINE
  8
_0-0_
  6
CONTINUOUS
 62
    7
 10
424.56240307047085
 20
287.4664979128753
 11
425.69836709200024
 21
288.00490704321066
  0
LINE
  8
_0-0_
  6
CONTINUOUS
 62
    7
 10
425.69836709200024
 20
288.00490704321066
 11
426.89518241786624
 21
288.36368302140528
  0
LINE
  8
_0-0_
  6
CONTINUOUS
 62
    7
 10
426.89518241786624
 20
288.36368302140528
 11
428.09151024373233
 21
288.60294943440459
  0
LINE
  8
_0-0_
  6
CONTINUOUS
 62
    7
 10
428.09151024373233
 20
288.60294943440459
 11
429.34722970002224
 21
288.69276530395325
  0
LINE
  8
_0-0_
  6
CONTINUOUS
 62
    7
 10
420.07599002782081
 20
280.58718476197134
 11
420.37440361472221
 21
281.72387932697893
  0
LINE
  8
_0-0_
  6
CONTINUOUS
 62
    7
 10
420.37440361472221
 20
281.72387932697893
 11
420.82372600594363
 21
282.80069617460617
  0
LINE
  8
_0-0_
  6
CONTINUOUS
 62
    7
 10
420.82372600594363
 20
282.80069617460617
 11
421.39134274496928
 21
283.84733182658692
  0
LINE
  8
_0-0_
  6
CONTINUOUS
 62
    7
 10
421.39134274496928
 20
283.84733182658692
 11
422.0794440491901
 21
284.80439465249719
  0
LINE
  8
_0-0_
  6
CONTINUOUS
 62
    7
 10
422.0794440491901
 20
284.80439465249719
 11
422.91723894033976
 21
285.64194508712512
  0
LINE
  8
_0-0_
  6
CONTINUOUS
 62
    7
 10
422.91723894033976
 20
285.64194508712512
 11
423.81466850539147
 21
286.38968106524794
  0
LINE
  8
_0-0_
  6
CONTINUOUS
 62
    7
 10
423.81466850539147
 20
286.38968106524794
 11
424.80166948347005
 21
287.01790606513197
  0
LINE
  8
_0-0_
  6
CONTINUOUS
 62
    7
 10
424.80166948347005
 20
287.01790606513197
 11
425.87775578761926
 21
287.52637563025553
  0
LINE
  8
_0-0_
  6
CONTINUOUS
 62
    7
 10
425.87775578761926
 20
287.52637563025553
 11
427.01493643958327
 21
287.88515160845014
  0
LINE
  8
_0-0_
  6
CONTINUOUS
 62
    7
 10
427.01493643958327
 20
287.88515160845014
 11
428.15138796111256
 21
288.12441802144946
  0
LINE
  8
_0-0_
  6
CONTINUOUS
 62
    7
 10
428.15138796111256
 20
288.12441802144946
 11
429.34722970002224
 21
288.18429432578625
  0
LINE
  8
_0-0_
  6
CONTINUOUS
 62
    7
 10
419.14813622364426
 20
272.78099280689077
 11
424.89075480954062
 21
272.78099280689077
  0
LINE
  8
_0-0_
  6
CONTINUOUS
 62
    7
 10
429.34722970002224
 20
224.11830759848334
 11
428.09151024373233
 21
224.208123468032
  0
LINE
  8
_0-0_
  6
CONTINUOUS
 62
    7
 10
428.09151024373233
 20
224.208123468032
 11
426.89518241786624
 21
224.44738846798782
  0
LINE
  8
_0-0_
  6
CONTINUOUS
 62
    7
 10
426.89518241786624
 20
224.44738846798782
 11
425.69836709200024
 21
224.80616585922593
  0
LINE
  8
_0-0_
  6
CONTINUOUS
 62
    7
 10
425.69836709200024
 20
224.80616585922593
 11
424.56240307047085
 21
225.34457357651783
  0
LINE
  8
_0-0_
  6
CONTINUOUS
 62
    7
 10
424.56240307047085
 20
225.34457357651783
 11
423.51503828805545
 21
226.00249368509202
  0
LINE
  8
_0-0_
  6
CONTINUOUS
 62
    7
 10
423.51503828805545
 20
226.00249368509202
 11
422.55846296214509
 21
226.81010596755164
  0
LINE
  8
_0-0_
  6
CONTINUOUS
 62
    7
 10
422.55846296214509
 20
226.81010596755164
 11
421.72091111447367
 21
227.70753411955985
  0
LINE
  8
_0-0_
  6
CONTINUOUS
 62
    7
 10
421.72091111447367
 20
227.70753411955985
 11
420.97317513635079
 21
228.69453651068198
  0
LINE
  8
_0-0_
  6
CONTINUOUS
 62
    7
 10
420.97317513635079
 20
228.69453651068198
 11
420.37440361472221
 21
229.80104846699945
  0
LINE
  8
_0-0_
  6
CONTINUOUS
 62
    7
 10
420.37440361472221
 20
229.80104846699945
 11
419.89587220176713
 21
230.93774303200701
  0
LINE
  8
_0-0_
  6
CONTINUOUS
 62
    7
 10
419.89587220176713
 20
230.93774303200701
 11
419.59672948443102
 21
232.1340708578731
  0
LINE
  8
_0-0_
  6
CONTINUOUS
 62
    7
 10
417.95229448473464
 20
256.39044444035153
 11
417.95229448473464
 21
240.50861150850093
  0
LINE
  8
_0-0_
  6
CONTINUOUS
 62
    7
 10
418.67009231068903
 20
273.37903519808469
 11
420.07599002782081
 21
280.55748965328121
  0
LINE
  8
_0-0_
  6
CONTINUOUS
 62
    7
 10
417.95229448473464
 20
272.30246139393563
 11
419.59672948443102
 21
280.67700063152
  0
LINE
  8
_0-0_
  6
CONTINUOUS
 62
    7
 10
419.14813622364426
 20
272.78099280689077
 11
418.93880937585686
 21
272.84062606774933
  0
LINE
  8
_0-0_
  6
CONTINUOUS
 62
    7
 10
418.93880937585686
 20
272.84062606774933
 11
418.75990818023769
 21
272.96038008946636
  0
LINE
  8
_0-0_
  6
CONTINUOUS
 62
    7
 10
418.75990818023769
 20
272.96038008946636
 11
418.67009231068903
 21
273.16970693725381
  0
LINE
  8
_0-0_
  6
CONTINUOUS
 62
    7
 10
418.67009231068903
 20
273.16970693725381
 11
418.67009231068903
 21
273.37903519808469
  0
LINE
  8
_0-0_
  6
CONTINUOUS
 62
    7
 10
418.55058133245024
 20
272.30246139393563
 11
418.34076698466288
 21
272.33239954610406
  0
LINE
  8
_0-0_
  6
CONTINUOUS
 62
    7
 10
418.34076698466288
 20
272.33239954610406
 11
418.16113524556556
 21
272.48184867651122
  0
LINE
  8
_0-0_
  6
CONTINUOUS
 62
    7
 10
418.16113524556556
 20
272.48184867651122
 11
418.0720499194951
 21
272.66123737213024
  0
LINE
  8
_0-0_
  6
CONTINUOUS
 62
    7
 10
418.0720499194951
 20
272.66123737213024
 11
418.0720499194951
 21
272.90050378512956
  0
LINE
  8
_0-0_
  6
CONTINUOUS
 62
    7
 10
420.94323698418242
 20
272.30246139393563
 11
420.94323698418242
 21
272.78099280689077
  0
LINE
  8
_0-0_
  6
CONTINUOUS
 62
    7
 10
417.95229448473464
 20
240.50861150850093
 11
419.59672948443102
 21
232.1340708578731
  0
LINE
  8
_0-0_
  6
CONTINUOUS
 62
    7
 10
432.84712785155
 20
256.39044444035153
 11
432.84712785155
 21
224.11830759848334
  0
LINE
  8
_0-0_
  6
CONTINUOUS
 62
    7
 10
432.84712785155
 20
288.69276530395319
 11
432.84712785155
 21
272.30246139393563
  0
LINE
  8
_0-0_
  6
CONTINUOUS
 62
    7
 10
429.34722970002224
 20
288.69276530395325
 11
432.84712785155
 21
288.69276530395319
  0
LINE
  8
_0-0_
  6
CONTINUOUS
 62
    7
 10
429.34722970002224
 20
288.18429432578625
 11
432.84712785155
 21
288.1842943257862
  0
LINE
  8
_0-0_
  6
CONTINUOUS
 62
    7
 10
424.89075480954062
 20
272.30246139393563
 11
424.89075480954062
 21
272.78099280689077
  0
LINE
  8
_0-0_
  6
CONTINUOUS
 62
    7
 10
429.34722970002224
 20
224.11830759848334
 11
432.84712785155
 21
224.11830759848334
  0
LINE
  8
_0-0_
  6
CONTINUOUS
 62
    7
 10
419.59672948443102
 20
235.18488966165768
 11
419.59672948443102
 21
256.39044444035153
  0
LINE
  8
_0-0_
  6
CONTINUOUS
 62
    7
 10
429.34722970002224
 20
225.61377814168554
 11
429.34722970002224
 21
256.39044444035153
  0
LINE
  8
_0-0_
  6
CONTINUOUS
 62
    7
 10
429.34722970002224
 20
287.16735519553919
 11
429.34722970002224
 21
272.30246139393563
  0
LINE
  8
_0-0_
  6
CONTINUOUS
 62
    7
 10
418.19107339773404
 20
273.52872737197015
 11
419.44776644098022
 21
272.30246139393563
  0
LINE
  8
_0-0_
  6
CONTINUOUS
 62
    7
 10
420.853664158112
 20
272.30246139393563
 11
420.34446404951041
 21
272.78099280689077
  0
LINE
  8
_0-0_
  6
CONTINUOUS
 62
    7
 10
418.84899350630815
 20
274.27646335009297
 11
418.43082589768972
 21
274.72505519783624
  0
LINE
  8
_0-0_
  6
CONTINUOUS
 62
    7
 10
418.67009231068903
 20
275.89144487153396
 11
419.0885029627857
 21
275.47279117595906
  0
LINE
  8
_0-0_
  6
CONTINUOUS
 62
    7
 10
419.29831589752962
 20
276.63918084965678
 11
418.87893165847657
 21
277.05807758870986
  0
LINE
  8
_0-0_
  6
CONTINUOUS
 62
    7
 10
419.1186841584323
 20
278.22446726240759
 11
419.53758231052893
 21
277.80581356683268
  0
LINE
  8
_0-0_
  6
CONTINUOUS
 62
    7
 10
419.77636122352828
 20
278.9722032405304
 11
419.35819361490985
 21
279.42079650131711
  0
LINE
  8
_0-0_
  6
CONTINUOUS
 62
    7
 10
419.5675204626973
 20
280.58718476197134
 11
420.01611372348407
 21
280.1685310663965
  0
LINE
  8
_0-0_
  6
CONTINUOUS
 62
    7
 10
420.25537872343989
 20
281.30522563140403
 11
419.86642013655512
 21
281.69394117481056
  0
LINE
  8
_0-0_
  6
CONTINUOUS
 62
    7
 10
420.22544057127152
 20
282.74081987026943
 11
420.61415470163445
 21
282.35186128338472
  0
LINE
  8
_0-0_
  6
CONTINUOUS
 62
    7
 10
421.06299100589945
 20
283.3089226962515
 11
420.70397198422665
 21
283.66794313096784
  0
LINE
  8
_0-0_
  6
CONTINUOUS
 62
    7
 10
421.24189361456206
 20
284.53543313080769
 11
421.60140013623482
 21
284.17641269609135
  0
LINE
  8
_0-0_
  6
CONTINUOUS
 62
    7
 10
422.22938067959717
 20
284.95408682638254
 11
421.86987415792441
 21
285.3128642176207
  0
LINE
  8
_0-0_
  6
CONTINUOUS
 62
    7
 10
422.55846296214509
 20
286.03090367400989
 11
422.91723894033976
 21
285.67188465233698
  0
LINE
  8
_0-0_
  6
CONTINUOUS
 62
    7
 10
423.69491307063095
 20
286.29986519569934
 11
423.33540654895819
 21
286.65888563041563
  0
LINE
  8
_0-0_
  6
CONTINUOUS
 62
    7
 10
424.17295839662961
 20
287.22723291291942
 11
424.53246491830242
 21
286.86821247820308
  0
LINE
  8
_0-0_
  6
CONTINUOUS
 62
    7
 10
425.45958817900083
 20
287.34674389115821
 11
425.07038654863788
 21
287.73570247804298
  0
LINE
  8
_0-0_
  6
CONTINUOUS
 62
    7
 10
426.08781317888486
 20
288.12441802144946
 11
426.47604122229143
 21
287.73570247804298
  0
LINE
  8
_0-0_
  6
CONTINUOUS
 62
    7
 10
427.583283722087
 20
288.03484519537903
 11
427.16389948303402
 21
288.45349889095394
  0
LINE
  8
_0-0_
  6
CONTINUOUS
 62
    7
 10
428.39065296106844
 20
288.63288758657296
 11
428.83924622185515
 21
288.18429432578625
  0
LINE
  8
_0-0_
  6
CONTINUOUS
 62
    7
 10
430.24465785203046
 20
288.18429432578625
 11
429.73667437386337
 21
288.69276530395325
  0
LINE
  8
_0-0_
  6
CONTINUOUS
 62
    7
 10
431.1423304605604
 20
288.69276530395325
 11
431.650312525684
 21
288.18429432578625
  0
LINE
  8
_0-0_
  6
CONTINUOUS
 62
    7
 10
432.84712785155
 20
288.39362258661714
 11
432.54774209073571
 21
288.69276530395319
  0
LINE
  8
_0-0_
  6
CONTINUOUS
 62
    7
 10
229.283924736957
 20
211.70594575294882
 11
229.283924736957
 21
203.95938705872678
  0
LINE
  8
_0-0_
  6
CONTINUOUS
 62
    7
 10
229.283924736957
 20
205.45485760192895
 11
245.19569723401946
 21
205.45485760192895
  0
LINE
  8
_0-0_
  6
CONTINUOUS
 62
    7
 10
229.283924736957
 20
205.45485760192895
 11
229.283924736957
 21
209.73194379679151
  0
LINE
  8
_0-0_
  6
CONTINUOUS
 62
    7
 10
492.48609316662669
 20
272.30246139393563
 11
492.48609316662669
 21
240.50861150850091
  0
LINE
  8
_0-0_
  6
CONTINUOUS
 62
    7
 10
368.15267166784145
 20
272.30246139393563
 11
285.90200940041751
 21
272.30246139393569
  0
LINE
  8
_0-0_
  6
CONTINUOUS
 62
    7
 10
361.18427319086709
 20
240.50861150850093
 11
285.90200940041751
 21
240.50861150850096
  0
LINE
  8
_0-0_
  6
CONTINUOUS
 62
    7
 10
229.283924736957
 20
212.90227499185841
 11
229.283924736957
 21
215.6838892304753
  0
LINE
  8
_0-0_
  6
CONTINUOUS
 62
    7
 10
261.07728853543529
 20
213.88927596993705
 11
261.07728853543529
 21
215.6838892304753
  0
LINE
  8
_0-0_
  6
CONTINUOUS
 62
    7
 10
227.1599861503926
 20
211.70594575294882
 11
245.19569723401946
 21
211.70594575294882
  0
LINE
  8
_0-0_
  6
CONTINUOUS
 62
    7
 10
245.19569723401946
 20
212.90227499185838
 11
227.1599861503926
 21
212.90227499185841
  0
LINE
  8
_0-0_
  6
CONTINUOUS
 62
    7
 10
227.1599861503926
 20
211.70594575294882
 11
226.89078158522491
 21
211.76582347032908
  0
LINE
  8
_0-0_
  6
CONTINUOUS
 62
    7
 10
226.89078158522491
 20
211.76582347032908
 11
226.71163734612756
 21
211.9449691224699
  0
LINE
  8
_0-0_
  6
CONTINUOUS
 62
    7
 10
226.71163734612756
 20
211.9449691224699
 11
226.59188191136707
 21
212.18447716590396
  0
LINE
  8
_0-0_
  6
CONTINUOUS
 62
    7
 10
226.59188191136707
 20
212.18447716590396
 11
226.59188191136707
 21
212.42349912238157
  0
LINE
  8
_0-0_
  6
CONTINUOUS
 62
    7
 10
226.59188191136707
 20
212.42349912238157
 11
226.71163734612756
 21
212.66300857885909
  0
LINE
  8
_0-0_
  6
CONTINUOUS
 62
    7
 10
226.71163734612756
 20
212.66300857885909
 11
226.89078158522491
 21
212.84239727447815
  0
LINE
  8
_0-0_
  6
CONTINUOUS
 62
    7
 10
226.89078158522491
 20
212.84239727447815
 11
227.1599861503926
 21
212.90227499185841
  0
LINE
  8
_0-0_
  6
CONTINUOUS
 62
    7
 10
229.283924736957
 20
209.73194379679151
 11
245.19569723401946
 21
209.73194379679151
  0
LINE
  8
_0-0_
  6
CONTINUOUS
 62
    7
 10
285.90200940041751
 20
256.39044444035153
 11
283.4197809226149
 21
256.33081117949297
  0
LINE
  8
_0-0_
  6
CONTINUOUS
 62
    7
 10
283.4197809226149
 20
256.33081117949297
 11
280.96724755350243
 21
256.09154476649366
  0
LINE
  8
_0-0_
  6
CONTINUOUS
 62
    7
 10
280.96724755350243
 20
256.09154476649366
 11
278.51471418438996
 21
255.73252574482083
  0
LINE
  8
_0-0_
  6
CONTINUOUS
 62
    7
 10
278.51471418438996
 20
255.73252574482083
 11
276.09187592396773
 21
255.19411661448544
  0
LINE
  8
_0-0_
  6
CONTINUOUS
 62
    7
 10
274.68597679379252
 20
254.80540107107893
 11
273.69921885919206
 21
254.53619650591125
  0
LINE
  8
_0-0_
  6
CONTINUOUS
 62
    7
 10
273.69921885919206
 20
254.53619650591125
 11
273.34044288099744
 21
254.41644248419425
  0
LINE
  8
_0-0_
  6
CONTINUOUS
 62
    7
 10
271.99442146820246
 20
253.93791107123909
 11
271.33625831615007
 21
253.69864607128326
  0
LINE
  8
_0-0_
  6
CONTINUOUS
 62
    7
 10
271.33625831615007
 20
253.69864607128326
 11
269.06335668613485
 21
252.74158324537299
  0
LINE
  8
_0-0_
  6
CONTINUOUS
 62
    7
 10
269.06335668613485
 20
252.74158324537299
 11
266.82015016480989
 21
251.66476639774569
  0
LINE
  8
_0-0_
  6
CONTINUOUS
 62
    7
 10
266.82015016480989
 20
251.66476639774569
 11
264.66651646955529
 21
250.43849900666774
  0
LINE
  8
_0-0_
  6
CONTINUOUS
 62
    7
 10
264.66651646955529
 20
250.43849900666774
 11
263.14134940461946
 21
249.4215598764207
  0
LINE
  8
_0-0_
  6
CONTINUOUS
 62
    7
 10
261.94477853527513
 20
248.58425107222746
 11
260.8080839702676
 21
247.74670063759947
  0
LINE
  8
_0-0_
  6
CONTINUOUS
 62
    7
 10
259.70157201395017
 20
246.84951552906946
 11
258.71481407934971
 21
245.98202552922962
  0
LINE
  8
_0-0_
  6
CONTINUOUS
 62
    7
 10
258.71481407934971
 20
245.98202552922962
 11
256.91995636228978
 21
244.2772267251965
  0
LINE
  8
_0-0_
  6
CONTINUOUS
 62
    7
 10
256.91995636228978
 20
244.2772267251965
 11
255.21515897130016
 21
242.45267389944641
  0
LINE
  8
_0-0_
  6
CONTINUOUS
 62
    7
 10
255.21515897130016
 20
242.45267389944641
 11
253.65981071071775
 21
240.53854966066933
  0
LINE
  8
_0-0_
  6
CONTINUOUS
 62
    7
 10
253.65981071071775
 20
240.53854966066933
 11
252.94225734128497
 21
239.58148683475906
  0
LINE
  8
_0-0_
  6
CONTINUOUS
 62
    7
 10
252.10446245013529
 20
238.41509716106137
 11
251.35672647201247
 21
237.21852629171707
  0
LINE
  8
_0-0_
  6
CONTINUOUS
 62
    7
 10
250.60899049388965
 20
235.96232074847072
 11
249.65192908102284
 21
234.2575219444376
  0
LINE
  8
_0-0_
  6
CONTINUOUS
 62
    7
 10
249.65192908102284
 20
234.2575219444376
 11
248.60529342904218
 21
232.01431542311263
  0
LINE
  8
_0-0_
  6
CONTINUOUS
 62
    7
 10
248.60529342904218
 20
232.01431542311263
 11
247.67792571182207
 21
229.71147564092905
  0
LINE
  8
_0-0_
  6
CONTINUOUS
 62
    7
 10
247.67792571182207
 20
229.71147564092905
 11
246.90049603805255
 21
227.34851509788706
  0
LINE
  8
_0-0_
  6
CONTINUOUS
 62
    7
 10
285.90200940041751
 20
272.30246139393569
 11
282.94124950965977
 21
272.21264552438703
  0
LINE
  8
_0-0_
  6
CONTINUOUS
 62
    7
 10
282.94124950965977
 20
272.21264552438703
 11
279.98000211890212
 21
271.97337911138771
  0
LINE
  8
_0-0_
  6
CONTINUOUS
 62
    7
 10
279.98000211890212
 20
271.97337911138771
 11
277.04893733683451
 21
271.58466356798124
  0
LINE
  8
_0-0_
  6
CONTINUOUS
 62
    7
 10
277.04893733683451
 20
271.58466356798124
 11
274.148055163457
 21
271.04625585068931
  0
LINE
  8
_0-0_
  6
CONTINUOUS
 62
    7
 10
274.148055163457
 20
271.04625585068931
 11
271.24668549007964
 21
270.35815454646854
  0
LINE
  8
_0-0_
  6
CONTINUOUS
 62
    7
 10
271.24668549007964
 20
270.35815454646854
 11
268.40519353408246
 21
269.5208457422753
  0
LINE
  8
_0-0_
  6
CONTINUOUS
 62
    7
 10
268.40519353408246
 20
269.5208457422753
 11
265.62357788242207
 21
268.5338447641966
  0
LINE
  8
_0-0_
  6
CONTINUOUS
 62
    7
 10
265.62357788242207
 20
268.5338447641966
 11
262.87214483945178
 21
267.39715019918913
  0
LINE
  8
_0-0_
  6
CONTINUOUS
 62
    7
 10
262.87214483945178
 20
267.39715019918913
 11
260.21028462255191
 21
266.11100650377438
  0
LINE
  8
_0-0_
  6
CONTINUOUS
 62
    7
 10
260.21028462255191
 20
266.11100650377438
 11
257.60781462303237
 21
264.70535183012083
  0
LINE
  8
_0-0_
  6
CONTINUOUS
 62
    7
 10
257.60781462303237
 20
264.70535183012083
 11
255.06570842784947
 21
263.1500035695384
  0
LINE
  8
_0-0_
  6
CONTINUOUS
 62
    7
 10
255.06570842784947
 20
263.1500035695384
 11
252.64287016742719
 21
261.47514433071717
  0
LINE
  8
_0-0_
  6
CONTINUOUS
 62
    7
 10
252.64287016742719
 20
261.47514433071717
 11
250.2799096243852
 21
259.68052965713542
  0
LINE
  8
_0-0_
  6
CONTINUOUS
 62
    7
 10
250.2799096243852
 20
259.68052965713542
 11
248.03670310306018
 21
257.76640541835837
  0
LINE
  8
_0-0_
  6
CONTINUOUS
 62
    7
 10
248.03670310306018
 20
257.76640541835837
 11
245.88355549476205
 21
255.70258617960894
  0
LINE
  8
_0-0_
  6
CONTINUOUS
 62
    7
 10
245.88355549476205
 20
255.70258617960894
 11
243.81949462557787
 21
253.57913509304447
  0
LINE
  8
_0-0_
  6
CONTINUOUS
 62
    7
 10
243.81949462557787
 20
253.57913509304447
 11
241.90536897375733
 21
251.30598900650762
  0
LINE
  8
_0-0_
  6
CONTINUOUS
 62
    7
 10
241.90536897375733
 20
251.30598900650762
 11
240.11099875669731
 21
248.97296661563396
  0
LINE
  8
_0-0_
  6
CONTINUOUS
 62
    7
 10
240.11099875669731
 20
248.97296661563396
 11
238.43589647439785
 21
246.52043324652152
  0
LINE
  8
_0-0_
  6
CONTINUOUS
 62
    7
 10
238.43589647439785
 20
246.52043324652152
 11
236.88054821381544
 21
243.97808400786045
  0
LINE
  8
_0-0_
  6
CONTINUOUS
 62
    7
 10
236.88054821381544
 20
243.97808400786045
 11
235.47513658364011
 21
241.37610150834081
  0
LINE
  8
_0-0_
  6
CONTINUOUS
 62
    7
 10
235.47513658364011
 20
241.37610150834081
 11
234.18899147518189
 21
238.71399683491921
  0
LINE
  8
_0-0_
  6
CONTINUOUS
 62
    7
 10
234.18899147518189
 20
238.71399683491921
 11
233.05229832321783
 21
235.96232074847072
  0
LINE
  8
_0-0_
  6
CONTINUOUS
 62
    7
 10
233.05229832321783
 20
235.96232074847072
 11
232.06505288861749
 21
233.18094955333203
  0
LINE
  8
_0-0_
  6
CONTINUOUS
 62
    7
 10
232.06505288861749
 20
233.18094955333203
 11
231.22774549746774
 21
230.33945618429138
  0
LINE
  8
_0-0_
  6
CONTINUOUS
 62
    7
 10
231.22774549746774
 20
230.33945618429138
 11
230.53988723672515
 21
227.43833096743569
  0
LINE
  8
_0-0_
  6
CONTINUOUS
 62
    7
 10
230.53988723672515
 20
227.43833096743569
 11
230.00147810638975
 21
224.53696129405827
  0
LINE
  8
_0-0_
  6
CONTINUOUS
 62
    7
 10
230.00147810638975
 20
224.53696129405827
 11
229.61251951950504
 21
221.60589651199069
  0
LINE
  8
_0-0_
  6
CONTINUOUS
 62
    7
 10
229.61251951950504
 20
221.60589651199069
 11
229.37349756302743
 21
218.64489216471128
  0
LINE
  8
_0-0_
  6
CONTINUOUS
 62
    7
 10
229.37349756302743
 20
218.64489216471128
 11
229.283924736957
 21
215.6838892304753
  0
LINE
  8
_0-0_
  6
CONTINUOUS
 62
    7
 10
285.90200940041751
 20
240.50861150850096
 11
283.95819005295027
 21
240.4487337911207
  0
LINE
  8
_0-0_
  6
CONTINUOUS
 62
    7
 10
283.95819005295027
 20
240.4487337911207
 11
282.01388179243963
 21
240.20946737812139
  0
LINE
  8
_0-0_
  6
CONTINUOUS
 62
    7
 10
282.01388179243963
 20
240.20946737812139
 11
280.09975755366258
 21
239.82075324775838
  0
LINE
  8
_0-0_
  6
CONTINUOUS
 62
    7
 10
280.09975755366258
 20
239.82075324775838
 11
278.24550961922233
 21
239.31228226959138
  0
LINE
  8
_0-0_
  6
CONTINUOUS
 62
    7
 10
278.24550961922233
 20
239.31228226959138
 11
276.39126168478202
 21
238.62442400884879
  0
LINE
  8
_0-0_
  6
CONTINUOUS
 62
    7
 10
276.39126168478202
 20
238.62442400884879
 11
274.62658657641214
 21
237.8168117263892
  0
LINE
  8
_0-0_
  6
CONTINUOUS
 62
    7
 10
274.62658657641214
 20
237.8168117263892
 11
272.92178918542254
 21
236.85974890047893
  0
LINE
  8
_0-0_
  6
CONTINUOUS
 62
    7
 10
272.92178918542254
 20
236.85974890047893
 11
271.30656320745987
 21
235.78293205285163
  0
LINE
  8
_0-0_
  6
CONTINUOUS
 62
    7
 10
271.30656320745987
 20
235.78293205285163
 11
269.78091005556763
 21
234.55666607481717
  0
LINE
  8
_0-0_
  6
CONTINUOUS
 62
    7
 10
269.78091005556763
 20
234.55666607481717
 11
268.34531581670217
 21
233.24058281419056
  0
LINE
  8
_0-0_
  6
CONTINUOUS
 62
    7
 10
268.34531581670217
 20
233.24058281419056
 11
267.02947701259728
 21
231.80498857532518
  0
LINE
  8
_0-0_
  6
CONTINUOUS
 62
    7
 10
267.02947701259728
 20
231.80498857532518
 11
265.80320962151933
 21
230.27957987995461
  0
LINE
  8
_0-0_
  6
CONTINUOUS
 62
    7
 10
265.80320962151933
 20
230.27957987995461
 11
264.72639277389203
 21
228.66459694547015
  0
LINE
  8
_0-0_
  6
CONTINUOUS
 62
    7
 10
264.72639277389203
 20
228.66459694547015
 11
263.76933136102525
 21
226.95979955448053
  0
LINE
  8
_0-0_
  6
CONTINUOUS
 62
    7
 10
263.76933136102525
 20
226.95979955448053
 11
262.9617176655222
 21
225.19512444611067
  0
LINE
  8
_0-0_
  6
CONTINUOUS
 62
    7
 10
262.9617176655222
 20
225.19512444611067
 11
262.30355451346975
 21
223.34063346819218
  0
LINE
  8
_0-0_
  6
CONTINUOUS
 62
    7
 10
262.30355451346975
 20
223.34063346819218
 11
261.76514679617787
 21
221.4863855337519
  0
LINE
  8
_0-0_
  6
CONTINUOUS
 62
    7
 10
261.76514679617787
 20
221.4863855337519
 11
261.37667429624958
 21
219.57201683845315
  0
LINE
  8
_0-0_
  6
CONTINUOUS
 62
    7
 10
261.37667429624958
 20
219.57201683845315
 11
261.13716483977208
 21
217.62795303446421
  0
LINE
  8
_0-0_
  6
CONTINUOUS
 62
    7
 10
261.13716483977208
 20
217.62795303446421
 11
261.07728853543529
 21
215.6838892304753
  0
LINE
  8
_0-0_
  6
CONTINUOUS
 62
    7
 10
235.41525886625988
 20
241.28628563879218
 11
236.31244397478989
 21
240.98714150841261
  0
LINE
  8
_0-0_
  6
CONTINUOUS
 62
    7
 10
236.31244397478989
 20
240.98714150841261
 11
237.2096290833199
 21
240.62836553021799
  0
LINE
  8
_0-0_
  6
CONTINUOUS
 62
    7
 10
237.2096290833199
 20
240.62836553021799
 11
238.01724136577951
 21
240.14983411726286
  0
LINE
  8
_0-0_
  6
CONTINUOUS
 62
    7
 10
238.01724136577951
 20
240.14983411726286
 11
238.79467245259249
 21
239.61142498692746
  0
LINE
  8
_0-0_
  6
CONTINUOUS
 62
    7
 10
238.79467245259249
 20
239.61142498692746
 11
239.48301821333499
 21
239.01313955225532
  0
LINE
  8
_0-0_
  6
CONTINUOUS
 62
    7
 10
239.48301821333499
 20
239.01313955225532
 11
240.08081614800722
 21
238.32528129151274
  0
LINE
  8
_0-0_
  6
CONTINUOUS
 62
    7
 10
240.08081614800722
 20
238.32528129151274
 11
240.55934756096235
 21
237.57754672643338
  0
LINE
  8
_0-0_
  6
CONTINUOUS
 62
    7
 10
240.55934756096235
 20
237.57754672643338
 11
240.9186110391569
 21
236.7699330309303
  0
LINE
  8
_0-0_
  6
CONTINUOUS
 62
    7
 10
240.9186110391569
 20
236.7699330309303
 11
241.12793788694432
 21
235.93262563978055
  0
LINE
  8
_0-0_
  6
CONTINUOUS
 62
    7
 10
241.12793788694432
 20
235.93262563978055
 11
241.30708353908517
 21
235.06513563994071
  0
LINE
  8
_0-0_
  6
CONTINUOUS
 62
    7
 10
241.30708353908517
 20
235.06513563994071
 11
241.4570201694923
 21
234.19788868357907
  0
LINE
  8
_0-0_
  6
CONTINUOUS
 62
    7
 10
241.4570201694923
 20
234.19788868357907
 11
241.63616440858965
 21
233.33039868373922
  0
LINE
  8
_0-0_
  6
CONTINUOUS
 62
    7
 10
241.63616440858965
 20
233.33039868373922
 11
241.90536897375733
 21
232.52278640127963
  0
LINE
  8
_0-0_
  6
CONTINUOUS
 62
    7
 10
241.90536897375733
 20
232.52278640127963
 11
242.29432756064205
 21
231.71517270577655
  0
LINE
  8
_0-0_
  6
CONTINUOUS
 62
    7
 10
242.29432756064205
 20
231.71517270577655
 11
242.77285897359718
 21
230.93774303200703
  0
LINE
  8
_0-0_
  6
CONTINUOUS
 62
    7
 10
242.77285897359718
 20
230.93774303200703
 11
243.31126810393255
 21
230.21970216257435
  0
LINE
  8
_0-0_
  6
CONTINUOUS
 62
    7
 10
243.31126810393255
 20
230.21970216257435
 11
243.90955353860474
 21
229.56178205400016
  0
LINE
  8
_0-0_
  6
CONTINUOUS
 62
    7
 10
243.90955353860474
 20
229.56178205400016
 11
244.5974117993473
 21
228.93380151063786
  0
LINE
  8
_0-0_
  6
CONTINUOUS
 62
    7
 10
244.5974117993473
 20
228.93380151063786
 11
245.31496516878005
 21
228.3355160759657
  0
LINE
  8
_0-0_
  6
CONTINUOUS
 62
    7
 10
245.31496516878005
 20
228.3355160759657
 11
246.0928823425495
 21
227.82704651084217
  0
LINE
  8
_0-0_
  6
CONTINUOUS
 62
    7
 10
246.0928823425495
 20
227.82704651084217
 11
246.90049603805255
 21
227.34851509788706
  0
LINE
  8
_0-0_
  6
CONTINUOUS
 62
    7
 10
246.90049603805255
 20
227.34851509788706
 11
246.27202799469032
 21
225.07536901135018
  0
LINE
  8
_0-0_
  6
CONTINUOUS
 62
    7
 10
246.27202799469032
 20
225.07536901135018
 11
245.79349658173518
 21
222.74234662047655
  0
LINE
  8
_0-0_
  6
CONTINUOUS
 62
    7
 10
245.79349658173518
 20
222.74234662047655
 11
245.46490179918715
 21
220.4095686861246
  0
LINE
  8
_0-0_
  6
CONTINUOUS
 62
    7
 10
245.46490179918715
 20
220.4095686861246
 11
245.25557495139969
 21
218.04660673003912
  0
LINE
  8
_0-0_
  6
CONTINUOUS
 62
    7
 10
245.25557495139969
 20
218.04660673003912
 11
245.25557495139969
 21
217.56807531708398
  0
LINE
  8
_0-0_
  6
CONTINUOUS
 62
    7
 10
245.19569723401946
 20
216.13248249126204
 11
245.19569723401946
 21
215.6838892304753
  0
LINE
  8
_0-0_
  6
CONTINUOUS
 62
    7
 10
367.64468960271785
 20
271.70417454622003
 11
285.90200940041751
 21
271.70417454622003
  0
LINE
  8
_0-0_
  6
CONTINUOUS
 62
    7
 10
285.90200940041751
 20
271.70417454622003
 11
282.9709446183499
 21
271.61435867667137
  0
LINE
  8
_0-0_
  6
CONTINUOUS
 62
    7
 10
282.9709446183499
 20
271.61435867667137
 11
280.03987983628235
 21
271.40503182888398
  0
LINE
  8
_0-0_
  6
CONTINUOUS
 62
    7
 10
280.03987983628235
 20
271.40503182888398
 11
277.13899766290484
 21
271.01631628547744
  0
LINE
  8
_0-0_
  6
CONTINUOUS
 62
    7
 10
277.13899766290484
 20
271.01631628547744
 11
274.26732309821762
 21
270.47790856818557
  0
LINE
  8
_0-0_
  6
CONTINUOUS
 62
    7
 10
274.26732309821762
 20
270.47790856818557
 11
271.3961360335303
 21
269.79005030744298
  0
LINE
  8
_0-0_
  6
CONTINUOUS
 62
    7
 10
271.3961360335303
 20
269.79005030744298
 11
268.58482527317972
 21
268.9524984597715
  0
LINE
  8
_0-0_
  6
CONTINUOUS
 62
    7
 10
268.58482527317972
 20
268.9524984597715
 11
265.83290473020952
 21
267.96549748169286
  0
LINE
  8
_0-0_
  6
CONTINUOUS
 62
    7
 10
265.83290473020952
 20
267.96549748169286
 11
263.11116820897286
 21
266.8587424818972
  0
LINE
  8
_0-0_
  6
CONTINUOUS
 62
    7
 10
263.11116820897286
 20
266.8587424818972
 11
260.47900168771969
 21
265.60277998212905
  0
LINE
  8
_0-0_
  6
CONTINUOUS
 62
    7
 10
260.47900168771969
 20
265.60277998212905
 11
257.90720179689009
 21
264.19688085195384
  0
LINE
  8
_0-0_
  6
CONTINUOUS
 62
    7
 10
257.90720179689009
 20
264.19688085195384
 11
255.39479071039742
 21
262.67147215658326
  0
LINE
  8
_0-0_
  6
CONTINUOUS
 62
    7
 10
255.39479071039742
 20
262.67147215658326
 11
252.97195244997516
 21
260.99661291776204
  0
LINE
  8
_0-0_
  6
CONTINUOUS
 62
    7
 10
252.97195244997516
 20
260.99661291776204
 11
250.63917310257972
 21
259.20199824418029
  0
LINE
  8
_0-0_
  6
CONTINUOUS
 62
    7
 10
250.63917310257972
 20
259.20199824418029
 11
248.42566168994489
 21
257.31781215757167
  0
LINE
  8
_0-0_
  6
CONTINUOUS
 62
    7
 10
248.42566168994489
 20
257.31781215757167
 11
246.30220919033692
 21
255.28393248403407
  0
LINE
  8
_0-0_
  6
CONTINUOUS
 62
    7
 10
246.30220919033692
 20
255.28393248403407
 11
244.26833092984285
 21
253.16023694094787
  0
LINE
  8
_0-0_
  6
CONTINUOUS
 62
    7
 10
244.26833092984285
 20
253.16023694094787
 11
242.38390038671247
 21
250.94696998483477
  0
LINE
  8
_0-0_
  6
CONTINUOUS
 62
    7
 10
242.38390038671247
 20
250.94696998483477
 11
240.58953016965245
 21
248.61419063743932
  0
LINE
  8
_0-0_
  6
CONTINUOUS
 62
    7
 10
240.58953016965245
 20
248.61419063743932
 11
238.91442647430952
 21
246.19135237701704
  0
LINE
  8
_0-0_
  6
CONTINUOUS
 62
    7
 10
238.91442647430952
 20
246.19135237701704
 11
237.38926082241719
 21
243.67894129052436
  0
LINE
  8
_0-0_
  6
CONTINUOUS
 62
    7
 10
237.38926082241719
 20
243.67894129052436
 11
235.98336310528541
 21
241.10689694317313
  0
LINE
  8
_0-0_
  6
CONTINUOUS
 62
    7
 10
260.47900168771963
 20
213.88927596993705
 11
261.07728853543529
 21
213.88927596993705
  0
LINE
  8
_0-0_
  6
CONTINUOUS
 62
    7
 10
457.73124034695604
 20
256.39044444035153
 11
467.60198067122064
 21
256.39044444035153
  0
LINE
  8
_0-0_
  6
CONTINUOUS
 62
    7
 10
469.03757491008605
 20
256.39044444035153
 11
470.44274349678324
 21
256.39044444035153
  0
LINE
  8
_0-0_
  6
CONTINUOUS
 62
    7
 10
471.87906686608329
 20
256.39044444035153
 11
481.74907805991324
 21
256.39044444035153
  0
LINE
  8
_0-0_
  6
CONTINUOUS
 62
    7
 10
483.18467229877865
 20
256.39044444035153
 11
484.59057142895392
 21
256.39044444035153
  0
LINE
  8
_0-0_
  6
CONTINUOUS
 62
    7
 10
486.02616425477584
 20
256.39044444035153
 11
495.47703566607453
 21
256.39044444035153
  0
LINE
  8
_0-0_
  6
CONTINUOUS
 62
    7
 10
285.90200940041751
 20
256.39044444035153
 11
295.77250809424743
 21
256.39044444035153
  0
LINE
  8
_0-0_
  6
CONTINUOUS
 62
    7
 10
297.20810092006934
 20
256.39044444035153
 11
298.61351255024465
 21
256.39044444035153
  0
LINE
  8
_0-0_
  6
CONTINUOUS
 62
    7
 10
300.04959428910996
 20
256.39044444035153
 11
309.91960548293997
 21
256.39044444035153
  0
LINE
  8
_0-0_
  6
CONTINUOUS
 62
    7
 10
311.35519830876194
 20
256.39044444035153
 11
312.76085439545898
 21
256.39044444035153
  0
LINE
  8
_0-0_
  6
CONTINUOUS
 62
    7
 10
314.19644722128083
 20
256.39044444035153
 11
324.06670287163257
 21
256.39044444035153
  0
LINE
  8
_0-0_
  6
CONTINUOUS
 62
    7
 10
325.50229569745449
 20
256.39044444035153
 11
326.90795178415152
 21
256.39044444035153
  0
LINE
  8
_0-0_
  6
CONTINUOUS
 62
    7
 10
328.34378906649511
 20
256.39044444035153
 11
338.21380026032512
 21
256.39044444035153
  0
LINE
  8
_0-0_
  6
CONTINUOUS
 62
    7
 10
339.64939308614709
 20
256.39044444035153
 11
341.0552922163223
 21
256.39044444035153
  0
LINE
  8
_0-0_
  6
CONTINUOUS
 62
    7
 10
342.49088645518771
 20
256.39044444035153
 11
352.36041014901781
 21
256.39044444035153
  0
LINE
  8
_0-0_
  6
CONTINUOUS
 62
    7
 10
353.79600438788322
 20
256.39044444035153
 11
355.20238960501484
 21
256.39044444035153
  0
LINE
  8
_0-0_
  6
CONTINUOUS
 62
    7
 10
356.63798384388025
 20
256.39044444035153
 11
366.50750753771035
 21
256.39044444035153
  0
LINE
  8
_0-0_
  6
CONTINUOUS
 62
    7
 10
367.9438323200539
 20
256.39044444035153
 11
369.34948699370744
 21
256.39044444035153
  0
LINE
  8
_0-0_
  6
CONTINUOUS
 62
    7
 10
370.78508123257285
 20
256.39044444035153
 11
380.65533546988104
 21
256.39044444035153
  0
LINE
  8
_0-0_
  6
CONTINUOUS
 62
    7
 10
382.09092970874644
 20
256.39044444035153
 11
383.49658438239999
 21
256.39044444035153
  0
LINE
  8
_0-0_
  6
CONTINUOUS
 62
    7
 10
384.93242166474363
 20
256.39044444035153
 11
394.80243285857364
 21
256.39044444035153
  0
LINE
  8
_0-0_
  6
CONTINUOUS
 62
    7
 10
396.23802709743904
 20
256.39044444035153
 11
397.64392481457082
 21
256.39044444035153
  0
LINE
  8
_0-0_
  6
CONTINUOUS
 62
    7
 10
399.07951905343623
 20
256.39044444035153
 11
408.94953024726624
 21
256.39044444035153
  0
LINE
  8
_0-0_
  6
CONTINUOUS
 62
    7
 10
410.38536752960982
 20
256.39044444035153
 11
411.79102220326342
 21
256.39044444035153
  0
LINE
  8
_0-0_
  6
CONTINUOUS
 62
    7
 10
413.22612894212887
 20
256.39044444035153
 11
423.09687067943702
 21
256.39044444035153
  0
LINE
  8
_0-0_
  6
CONTINUOUS
 62
    7
 10
424.53246491830242
 20
256.39044444035153
 11
425.93811959195591
 21
256.39044444035153
  0
LINE
  8
_0-0_
  6
CONTINUOUS
 62
    7
 10
427.37322633082147
 20
256.39044444035153
 11
437.24396806812962
 21
256.39044444035153
  0
LINE
  8
_0-0_
  6
CONTINUOUS
 62
    7
 10
438.67956230699497
 20
256.39044444035153
 11
440.08473089369204
 21
256.39044444035153
  0
LINE
  8
_0-0_
  6
CONTINUOUS
 62
    7
 10
441.52056817603574
 20
256.39044444035153
 11
441.84989208901834
 21
256.39044444035153
  0
LINE
  8
_0-0_
  6
CONTINUOUS
 62
    7
 10
492.48609316662669
 20
240.50861150850091
 11
432.84712785155
 21
240.50861150850093
  0
LINE
  8
_0-0_
  6
CONTINUOUS
 62
    7
 10
361.51286797341504
 20
241.1068969431731
 11
285.90200940041751
 21
241.1068969431731
  0
LINE
  8
_0-0_
  6
CONTINUOUS
 62
    7
 10
285.90200940041751
 20
241.1068969431731
 11
283.89831233557004
 21
241.01708107362447
  0
LINE
  8
_0-0_
  6
CONTINUOUS
 62
    7
 10
283.89831233557004
 20
241.01708107362447
 11
281.9243103794127
 21
240.80775422583704
  0
LINE
  8
_0-0_
  6
CONTINUOUS
 62
    7
 10
281.9243103794127
 20
240.80775422583704
 11
279.98000211890212
 21
240.41903868243054
  0
LINE
  8
_0-0_
  6
CONTINUOUS
 62
    7
 10
279.98000211890212
 20
240.41903868243054
 11
278.03618277143488
 21
239.85069139992677
  0
LINE
  8
_0-0_
  6
CONTINUOUS
 62
    7
 10
278.03618277143488
 20
239.85069139992677
 11
276.18144733699467
 21
239.16283313918419
  0
LINE
  8
_0-0_
  6
CONTINUOUS
 62
    7
 10
276.18144733699467
 20
239.16283313918419
 11
274.35738201124445
 21
238.32528129151274
  0
LINE
  8
_0-0_
  6
CONTINUOUS
 62
    7
 10
274.35738201124445
 20
238.32528129151274
 11
272.62240201156476
 21
237.36821846560247
  0
LINE
  8
_0-0_
  6
CONTINUOUS
 62
    7
 10
272.62240201156476
 20
237.36821846560247
 11
270.9472997292653
 21
236.2614634658068
  0
LINE
  8
_0-0_
  6
CONTINUOUS
 62
    7
 10
270.9472997292653
 20
236.2614634658068
 11
269.39243755563933
 21
235.00525792256045
  0
LINE
  8
_0-0_
  6
CONTINUOUS
 62
    7
 10
269.39243755563933
 20
235.00525792256045
 11
267.92666212112732
 21
233.65947955324367
  0
LINE
  8
_0-0_
  6
CONTINUOUS
 62
    7
 10
267.92666212112732
 20
233.65947955324367
 11
266.58064070833234
 21
232.19394716220989
  0
LINE
  8
_0-0_
  6
CONTINUOUS
 62
    7
 10
266.58064070833234
 20
232.19394716220989
 11
265.32467962160769
 21
230.63859890162746
  0
LINE
  8
_0-0_
  6
CONTINUOUS
 62
    7
 10
265.32467962160769
 20
230.63859890162746
 11
264.21768016529029
 21
228.96373966280623
  0
LINE
  8
_0-0_
  6
CONTINUOUS
 62
    7
 10
264.21768016529029
 20
228.96373966280623
 11
263.26061733938002
 21
227.22875966312654
  0
LINE
  8
_0-0_
  6
CONTINUOUS
 62
    7
 10
263.26061733938002
 20
227.22875966312654
 11
262.42330994823027
 21
225.40445129389812
  0
LINE
  8
_0-0_
  6
CONTINUOUS
 62
    7
 10
262.42330994823027
 20
225.40445129389812
 11
261.73545168748774
 21
223.5499603159796
  0
LINE
  8
_0-0_
  6
CONTINUOUS
 62
    7
 10
261.73545168748774
 20
223.5499603159796
 11
261.16734744846212
 21
221.60589651199069
  0
LINE
  8
_0-0_
  6
CONTINUOUS
 62
    7
 10
261.16734744846212
 20
221.60589651199069
 11
260.77838886157747
 21
219.66183270800178
  0
LINE
  8
_0-0_
  6
CONTINUOUS
 62
    7
 10
260.77838886157747
 20
219.66183270800178
 11
260.56906201379002
 21
217.68783075184447
  0
LINE
  8
_0-0_
  6
CONTINUOUS
 62
    7
 10
260.56906201379002
 20
217.68783075184447
 11
260.47900168771963
 21
215.6838892304753
  0
LINE
  8
_0-0_
  6
CONTINUOUS
 62
    7
 10
260.47900168771963
 20
215.6838892304753
 11
260.47900168771963
 21
213.88927596993705
  0
LINE
  8
_0-0_
  6
CONTINUOUS
 62
    7
 10
492.48609316662669
 20
241.10689694317307
 11
432.84712785155
 21
241.10689694317307
  0
LINE
  8
_0-0_
  6
CONTINUOUS
 62
    7
 10
417.95229448473464
 20
241.10689694317307
 11
417.95229448473464
 21
240.50861150850093
  0
LINE
  8
_0-0_
  6
CONTINUOUS
 62
    7
 10
432.84712785155
 20
241.10689694317307
 11
432.84712785155
 21
240.50861150850093
  0
LINE
  8
_0-0_
  6
CONTINUOUS
 62
    7
 10
372.5193306887744
 20
274.42591248050013
 11
362.94846221228045
 21
263.00055302608769
  0
LINE
  8
_0-0_
  6
CONTINUOUS
 62
    7
 10
362.94846221228045
 20
263.00055302608769
 11
370.36594003699804
 21
252.44244052803688
  0
LINE
  8
_0-0_
  6
CONTINUOUS
 62
    7
 10
370.36594003699804
 20
252.44244052803688
 11
360.91507003874284
 21
236.08207477018772
  0
LINE
  8
_0-0_
  6
CONTINUOUS
 62
    7
 10
359.20978514775328
 20
237.06907574826636
 11
368.00297949395605
 21
252.32292954979809
  0
LINE
  8
_0-0_
  6
CONTINUOUS
 62
    7
 10
368.00297949395605
 20
252.32292954979809
 11
360.4365386257877
 21
263.12006400432654
  0
LINE
  8
_0-0_
  6
CONTINUOUS
 62
    7
 10
360.4365386257877
 20
263.12006400432654
 11
370.9939205803604
 21
275.71205758895837
  0
LINE
  8
_0-0_
  6
CONTINUOUS
 62
    7
 10
492.48609316662669
 20
272.30246139393563
 11
370.75538612388266
 21
272.30246139393563
  0
LINE
  8
_0-0_
  6
CONTINUOUS
 62
    7
 10
492.48609316662669
 20
271.70417454621997
 11
370.24618601528107
 21
271.70417454622003
  0
LINE
  8
_0-0_
  6
CONTINUOUS
 62
    7
 10
417.95229448473464
 20
241.10689694317307
 11
363.81570916864212
 21
241.1068969431731
  0
LINE
  8
_0-0_
  6
CONTINUOUS
 62
    7
 10
417.95229448473464
 20
240.50861150850093
 11
363.48735742957228
 21
240.50861150850093
  0
LINE
  8
_0-0_
  6
CONTINUOUS
 62
    7
 10
293.46942385554217
 20
271.70417454622003
 11
294.06770929021434
 21
272.30246139393569
  0
LINE
  8
_0-0_
  6
CONTINUOUS
 62
    7
 10
295.47312092038965
 20
272.30246139393569
 11
294.87483548571748
 21
271.70417454622003
  0
LINE
  8
_0-0_
  6
CONTINUOUS
 62
    7
 10
296.2807346158927
 20
271.70417454622003
 11
296.87902005056492
 21
272.30246139393569
  0
LINE
  8
_0-0_
  6
CONTINUOUS
 62
    7
 10
298.28491918074008
 20
272.30246139393569
 11
297.68663233302448
 21
271.70417454622003
  0
LINE
  8
_0-0_
  6
CONTINUOUS
 62
    7
 10
299.09253146319975
 20
271.70417454622003
 11
299.69033081091544
 21
272.30246139393569
  0
LINE
  8
_0-0_
  6
CONTINUOUS
 62
    7
 10
301.09622852804716
 20
272.30246139393569
 11
300.49794309337506
 21
271.70417454622003
  0
LINE
  8
_0-0_
  6
CONTINUOUS
 62
    7
 10
301.90384222355027
 20
271.70417454622003
 11
302.50212765822243
 21
272.30246139393569
  0
LINE
  8
_0-0_
  6
CONTINUOUS
 62
    7
 10
303.90753928839774
 20
272.30246139393569
 11
303.30973994068199
 21
271.70417454622003
  0
LINE
  8
_0-0_
  6
CONTINUOUS
 62
    7
 10
304.71515157085736
 20
271.70417454622003
 11
305.31343700552947
 21
272.30246139393569
  0
LINE
  8
_0-0_
  6
CONTINUOUS
 62
    7
 10
306.7190930922265
 20
272.30246139393569
 11
306.12105070103257
 21
271.70417454622003
  0
LINE
  8
_0-0_
  6
CONTINUOUS
 62
    7
 10
269.66164212080702
 20
235.24452433555976
 11
266.34161875185475
 21
231.92474401008567
  0
LINE
  8
_0-0_
  6
CONTINUOUS
 62
    7
 10
263.46994418716747
 20
227.64765781522311
 11
265.17522907815703
 21
229.35245520621274
  0
LINE
  8
_0-0_
  6
CONTINUOUS
 62
    7
 10
272.23344342468005
 20
236.41115705273569
 11
273.93824081566964
 21
238.11595444372529
  0
LINE
  8
_0-0_
  6
CONTINUOUS
 62
    7
 10
307.52670537468612
 20
271.70417454622003
 11
308.12499080935828
 21
272.30246139393569
  0
LINE
  8
_0-0_
  6
CONTINUOUS
 62
    7
 10
309.53064689605526
 20
272.30246139393569
 11
308.93236004833966
 21
271.70417454622003
  0
LINE
  8
_0-0_
  6
CONTINUOUS
 62
    7
 10
276.54071222823268
 20
239.31228226959138
 11
275.40401766322515
 21
238.17583216110552
  0
LINE
  8
_0-0_
  6
CONTINUOUS
 62
    7
 10
263.41055396978714
 20
226.18212542418934
 11
262.27385940477961
 21
225.04543085918181
  0
LINE
  8
_0-0_
  6
CONTINUOUS
 62
    7
 10
261.52612483970029
 20
222.89204020740544
 11
262.45349114387687
 21
223.81916346810382
  0
LINE
  8
_0-0_
  6
CONTINUOUS
 62
    7
 10
277.76697820626714
 20
239.13289498701579
 11
278.69385842348737
 21
240.06001824771423
  0
LINE
  8
_0-0_
  6
CONTINUOUS
 62
    7
 10
310.33825917851487
 20
271.70417454622003
 11
310.93654461318704
 21
272.30246139393569
  0
LINE
  8
_0-0_
  6
CONTINUOUS
 62
    7
 10
312.34220069988407
 20
272.30246139393569
 11
311.74391385216842
 21
271.70417454622003
  0
LINE
  8
_0-0_
  6
CONTINUOUS
 62
    7
 10
280.57828896661772
 20
240.53854966066933
 11
279.77067527111461
 21
239.73093737820975
  0
LINE
  8
_0-0_
  6
CONTINUOUS
 62
    7
 10
261.85520570920471
 20
221.81522335977814
 11
261.04759342674515
 21
221.00761107731853
  0
LINE
  8
_0-0_
  6
CONTINUOUS
 62
    7
 10
260.74820625288737
 20
219.30281227328544
 11
261.46624712232
 21
220.02060868619643
  0
LINE
  8
_0-0_
  6
CONTINUOUS
 62
    7
 10
281.5655329881746
 20
240.11989596509446
 11
282.28308635760737
 21
240.83769237800544
  0
LINE
  8
_0-0_
  6
CONTINUOUS
 62
    7
 10
313.14981298234363
 20
271.70417454622003
 11
313.74785537353762
 21
272.30246139393569
  0
LINE
  8
_0-0_
  6
CONTINUOUS
 62
    7
 10
315.15375309066934
 20
272.30246139393569
 11
314.55546765599718
 21
271.70417454622003
  0
LINE
  8
_0-0_
  6
CONTINUOUS
 62
    7
 10
283.86861722687985
 20
241.01708107362447
 11
283.21045407482745
 21
240.35916096505028
  0
LINE
  8
_0-0_
  6
CONTINUOUS
 62
    7
 10
261.22673766584251
 20
218.37568901258706
 11
260.56906201379002
 21
217.71776890401284
  0
LINE
  8
_0-0_
  6
CONTINUOUS
 62
    7
 10
260.47900168771963
 20
216.22229836081067
 11
261.10746973108189
 21
216.85027890417302
  0
LINE
  8
_0-0_
  6
CONTINUOUS
 62
    7
 10
284.73561972671979
 20
240.4786719432891
 11
285.36408777008199
 21
241.1068969431731
  0
LINE
  8
_0-0_
  6
CONTINUOUS
 62
    7
 10
315.96112374269421
 20
271.70417454622003
 11
316.55940917736638
 21
272.30246139393569
  0
LINE
  8
_0-0_
  6
CONTINUOUS
 62
    7
 10
317.96506385101992
 20
272.30246139393569
 11
317.36702145982599
 21
271.70417454622003
  0
LINE
  8
_0-0_
  6
CONTINUOUS
 62
    7
 10
286.7694994002573
 20
241.1068969431731
 11
286.1712139655852
 21
240.50861150850096
  0
LINE
  8
_0-0_
  6
CONTINUOUS
 62
    7
 10
261.07728853543529
 20
215.41468466530759
 11
260.47900168771963
 21
214.81639923063545
  0
LINE
  8
_0-0_
  6
CONTINUOUS
 62
    7
 10
260.95802060067467
 20
213.88927596993705
 11
261.07728853543529
 21
214.00902999165407
  0
LINE
  8
_0-0_
  6
CONTINUOUS
 62
    7
 10
287.57711309576041
 20
240.50861150850096
 11
288.17539853043257
 21
241.1068969431731
  0
LINE
  8
_0-0_
  6
CONTINUOUS
 62
    7
 10
318.77267613347948
 20
271.70417454622003
 11
319.37096298119513
 21
272.30246139393569
  0
LINE
  8
_0-0_
  6
CONTINUOUS
 62
    7
 10
320.74667950268025
 20
272.30246139393569
 11
320.17833222017651
 21
271.70417454622003
  0
LINE
  8
_0-0_
  6
CONTINUOUS
 62
    7
 10
289.5812962475643
 20
241.1068969431731
 11
288.98301081289213
 21
240.50861150850096
  0
LINE
  8
_0-0_
  6
CONTINUOUS
 62
    7
 10
290.3884224430675
 20
240.50861150850096
 11
290.98670787773966
 21
241.1068969431731
  0
LINE
  8
_0-0_
  6
CONTINUOUS
 62
    7
 10
321.58422993730829
 20
271.70417454622003
 11
322.15257721981203
 21
272.30246139393569
  0
LINE
  8
_0-0_
  6
CONTINUOUS
 62
    7
 10
323.55823330650907
 20
272.30246139393569
 11
322.95994645879341
 21
271.70417454622003
  0
LINE
  8
_0-0_
  6
CONTINUOUS
 62
    7
 10
292.39260700791488
 20
241.1068969431731
 11
291.79432157324271
 21
240.50861150850096
  0
LINE
  8
_0-0_
  6
CONTINUOUS
 62
    7
 10
293.20021929037449
 20
240.50861150850096
 11
293.79850613809009
 21
241.1068969431731
  0
LINE
  8
_0-0_
  6
CONTINUOUS
 62
    7
 10
324.36584558896863
 20
271.70417454622003
 11
324.96388798016255
 21
272.30246139393569
  0
LINE
  8
_0-0_
  6
CONTINUOUS
 62
    7
 10
326.36978569729433
 20
272.30246139393569
 11
325.77150026262217
 21
271.70417454622003
  0
LINE
  8
_0-0_
  6
CONTINUOUS
 62
    7
 10
295.20391776826546
 20
241.1068969431731
 11
294.60611842054971
 21
240.50861150850096
  0
LINE
  8
_0-0_
  6
CONTINUOUS
 62
    7
 10
296.01153005072501
 20
240.50861150850096
 11
296.60981548539718
 21
241.1068969431731
  0
LINE
  8
_0-0_
  6
CONTINUOUS
 62
    7
 10
327.1771563493192
 20
271.70417454622003
 11
327.77544178399137
 21
272.30246139393569
  0
LINE
  8
_0-0_
  6
CONTINUOUS
 62
    7
 10
329.18109645764491
 20
272.30246139393569
 11
328.58305406645098
 21
271.70417454622003
  0
LINE
  8
_0-0_
  6
CONTINUOUS
 62
    7
 10
298.01571461557245
 20
241.1068969431731
 11
297.41742918090029
 21
240.50861150850096
  0
LINE
  8
_0-0_
  6
CONTINUOUS
 62
    7
 10
298.82332689803201
 20
240.50861150850096
 11
299.39143113705757
 21
241.1068969431731
  0
LINE
  8
_0-0_
  6
CONTINUOUS
 62
    7
 10
329.98870874010447
 20
271.70417454622003
 11
330.58699558782013
 21
272.30246139393569
  0
LINE
  8
_0-0_
  6
CONTINUOUS
 62
    7
 10
331.99265026147367
 20
272.30246139393569
 11
331.39436482680151
 21
271.70417454622003
  0
LINE
  8
_0-0_
  6
CONTINUOUS
 62
    7
 10
300.79732885418935
 20
241.1068969431731
 11
300.22873852820732
 21
240.50861150850096
  0
LINE
  8
_0-0_
  6
CONTINUOUS
 62
    7
 10
301.60445504969249
 20
240.50861150850096
 11
302.20274048436465
 21
241.1068969431731
  0
LINE
  8
_0-0_
  6
CONTINUOUS
 62
    7
 10
332.80026254393329
 20
271.70417454622003
 11
333.39830493512721
 21
272.30246139393569
  0
LINE
  8
_0-0_
  6
CONTINUOUS
 62
    7
 10
334.80420406530243
 20
272.30246139393569
 11
334.20591863063026
 21
271.70417454622003
  0
LINE
  8
_0-0_
  6
CONTINUOUS
 62
    7
 10
303.60863961453987
 20
241.1068969431731
 11
303.0103541798677
 21
240.50861150850096
  0
LINE
  8
_0-0_
  6
CONTINUOUS
 62
    7
 10
304.41625189699948
 20
240.50861150850096
 11
305.01429428819341
 21
241.1068969431731
  0
LINE
  8
_0-0_
  6
CONTINUOUS
 62
    7
 10
335.61181634776204
 20
271.70417454622003
 11
336.20985873895597
 21
272.30246139393569
  0
LINE
  8
_0-0_
  6
CONTINUOUS
 62
    7
 10
337.61551341260952
 20
272.30246139393569
 11
337.01747243445902
 21
271.70417454622003
  0
LINE
  8
_0-0_
  6
CONTINUOUS
 62
    7
 10
306.42019341836863
 20
241.1068969431731
 11
305.82190798369652
 21
240.50861150850096
  0
LINE
  8
_0-0_
  6
CONTINUOUS
 62
    7
 10
307.22756265735001
 20
240.50861150850096
 11
307.82584809202217
 21
241.1068969431731
  0
LINE
  8
_0-0_
  6
CONTINUOUS
 62
    7
 10
338.42312710811257
 20
271.70417454622003
 11
339.02141254278473
 21
272.30246139393569
  0
LINE
  8
_0-0_
  6
CONTINUOUS
 62
    7
 10
340.42658112948186
 20
272.30246139393569
 11
339.82902482524435
 21
271.70417454622003
  0
LINE
  8
_0-0_
  6
CONTINUOUS
 62
    7
 10
309.23150417871921
 20
241.1068969431731
 11
308.63346178752528
 21
240.50861150850096
  0
LINE
  8
_0-0_
  6
CONTINUOUS
 62
    7
 10
310.03911646117882
 20
240.50861150850096
 11
310.63740189585093
 21
241.1068969431731
  0
LINE
  8
_0-0_
  6
CONTINUOUS
 62
    7
 10
341.23419341194148
 20
271.70417454622003
 11
341.8322358031354
 21
272.30246139393569
  0
LINE
  8
_0-0_
  6
CONTINUOUS
 62
    7
 10
343.23862102026703
 20
272.30246139393569
 11
342.63984949863845
 21
271.70417454622003
  0
LINE
  8
_0-0_
  6
CONTINUOUS
 62
    7
 10
312.04305656950453
 20
241.1068969431731
 11
311.44477113483231
 21
240.50861150850096
  0
LINE
  8
_0-0_
  6
CONTINUOUS
 62
    7
 10
312.85067026500758
 20
240.50861150850096
 11
313.44871265620151
 21
241.1068969431731
  0
LINE
  8
_0-0_
  6
CONTINUOUS
 62
    7
 10
344.04623471577014
 20
271.70417454622003
 11
344.64427710696407
 21
272.30246139393569
  0
LINE
  8
_0-0_
  6
CONTINUOUS
 62
    7
 10
346.05017482409585
 20
272.30246139393563
 11
345.45188938942363
 21
271.70417454622003
  0
LINE
  8
_0-0_
  6
CONTINUOUS
 62
    7
 10
314.85461037333323
 20
241.1068969431731
 11
314.25632493866107
 21
240.50861150850096
  0
LINE
  8
_0-0_
  6
CONTINUOUS
 62
    7
 10
315.66197961231467
 20
240.50861150850096
 11
316.26026646003027
 21
241.1068969431731
  0
LINE
  8
_0-0_
  6
CONTINUOUS
 62
    7
 10
346.85754406307723
 20
271.70417454622003
 11
347.45534341079292
 21
272.30246139393563
  0
LINE
  8
_0-0_
  6
CONTINUOUS
 62
    7
 10
348.86148558444637
 20
272.30246139393563
 11
348.26295569325254
 21
271.70417454622003
  0
LINE
  8
_0-0_
  6
CONTINUOUS
 62
    7
 10
317.66616417716199
 20
241.1068969431731
 11
317.06787874248988
 21
240.50861150850096
  0
LINE
  8
_0-0_
  6
CONTINUOUS
 62
    7
 10
318.47353341614337
 20
240.50861150850096
 11
319.07182026385902
 21
241.1068969431731
  0
LINE
  8
_0-0_
  6
CONTINUOUS
 62
    7
 10
349.66861177994952
 20
271.70417454622003
 11
350.26738330157815
 21
272.30246139393563
  0
LINE
  8
_0-0_
  6
CONTINUOUS
 62
    7
 10
351.67255188827522
 20
272.30246139393563
 11
351.07426645360306
 21
271.70417454622003
  0
LINE
  8
_0-0_
  6
CONTINUOUS
 62
    7
 10
320.47747493751262
 20
241.1068969431731
 11
319.87943254631864
 21
240.50861150850096
  0
LINE
  8
_0-0_
  6
CONTINUOUS
 62
    7
 10
321.28508721997218
 20
240.50861150850096
 11
321.88337265464435
 21
241.1068969431731
  0
LINE
  8
_0-0_
  6
CONTINUOUS
 62
    7
 10
352.48016558377833
 20
271.70417454622003
 11
353.07820797497226
 21
272.30246139393563
  0
LINE
  8
_0-0_
  6
CONTINUOUS
 62
    7
 10
354.48459319210394
 20
272.30246139393563
 11
353.88582025743182
 21
271.70417454622003
  0
LINE
  8
_0-0_
  6
CONTINUOUS
 62
    7
 10
323.28902874134138
 20
241.1068969431731
 11
322.69074330666916
 21
240.50861150850096
  0
LINE
  8
_0-0_
  6
CONTINUOUS
 62
    7
 10
324.09664102380094
 20
240.50861150850096
 11
324.69468341499487
 21
241.1068969431731
  0
LINE
  8
_0-0_
  6
CONTINUOUS
 62
    7
 10
355.29147493108536
 20
271.70417454622003
 11
355.89024786575743
 21
272.30246139393563
  0
LINE
  8
_0-0_
  6
CONTINUOUS
 62
    7
 10
357.2961469959327
 20
272.30246139393563
 11
356.69786014821705
 21
271.70417454622003
  0
LINE
  8
_0-0_
  6
CONTINUOUS
 62
    7
 10
326.10058254517014
 20
241.1068969431731
 11
325.50229569745449
 21
240.50861150850096
  0
LINE
  8
_0-0_
  6
CONTINUOUS
 62
    7
 10
358.10351623491408
 20
271.70417454622003
 11
358.67186351741782
 21
272.30246139393563
  0
LINE
  8
_0-0_
  6
CONTINUOUS
 62
    7
 10
360.07703069107146
 20
272.30246139393563
 11
359.5094139520458
 21
271.70417454622003
  0
LINE
  8
_0-0_
  6
CONTINUOUS
 62
    7
 10
360.88464438657451
 20
271.70417454622003
 11
361.48292982124667
 21
272.30246139393563
  0
LINE
  8
_0-0_
  6
CONTINUOUS
 62
    7
 10
362.88858449490021
 20
272.30246139393563
 11
362.29029906022811
 21
271.70417454622003
  0
LINE
  8
_0-0_
  6
CONTINUOUS
 62
    7
 10
363.69619819040332
 20
271.70417454622003
 11
364.29424058159725
 21
272.30246139393563
  0
LINE
  8
_0-0_
  6
CONTINUOUS
 62
    7
 10
365.70062579872894
 20
272.30246139393563
 11
365.10185286405681
 21
271.70417454622003
  0
LINE
  8
_0-0_
  6
CONTINUOUS
 62
    7
 10
334.53499950013475
 20
241.1068969431731
 11
333.93671406546258
 21
240.50861150850096
  0
LINE
  8
_0-0_
  6
CONTINUOUS
 62
    7
 10
335.3426117825943
 20
240.50861150850096
 11
335.94065417378823
 21
241.1068969431731
  0
LINE
  8
_0-0_
  6
CONTINUOUS
 62
    7
 10
366.50750753771035
 20
271.70417454622003
 11
367.10628047238242
 21
272.30246139393563
  0
LINE
  8
_0-0_
  6
CONTINUOUS
 62
    7
 10
337.31661515179513
 20
241.1068969431731
 11
336.74826786929134
 21
240.50861150850096
  0
LINE
  8
_0-0_
  6
CONTINUOUS
 62
    7
 10
338.15392254294488
 20
240.50861150850096
 11
338.72226982544868
 21
241.1068969431731
  0
LINE
  8
_0-0_
  6
CONTINUOUS
 62
    7
 10
371.32348894986478
 20
272.30246139393563
 11
370.7254465586708
 21
271.70417454622003
  0
LINE
  8
_0-0_
  6
CONTINUOUS
 62
    7
 10
340.12792449910216
 20
241.1068969431731
 11
339.52988210790824
 21
240.50861150850096
  0
LINE
  8
_0-0_
  6
CONTINUOUS
 62
    7
 10
340.93553819460527
 20
240.50861150850096
 11
341.53333612927747
 21
241.1068969431731
  0
LINE
  8
_0-0_
  6
CONTINUOUS
 62
    7
 10
372.13110264536783
 20
271.70417454622003
 11
372.72890058004009
 21
272.30246139393563
  0
LINE
  8
_0-0_
  6
CONTINUOUS
 62
    7
 10
374.13455666673713
 20
272.30246139393563
 11
373.53626981902141
 21
271.70417454622003
  0
LINE
  8
_0-0_
  6
CONTINUOUS
 62
    7
 10
342.93899221597451
 20
241.1068969431731
 11
342.34143591173699
 21
240.50861150850096
  0
LINE
  8
_0-0_
  6
CONTINUOUS
 62
    7
 10
343.74660449843412
 20
240.50861150850096
 11
344.34513297658452
 21
241.1068969431731
  0
LINE
  8
_0-0_
  6
CONTINUOUS
 62
    7
 10
374.94216894919668
 20
271.70417454622003
 11
375.54021134039061
 21
272.30246139393563
  0
LINE
  8
_0-0_
  6
CONTINUOUS
 62
    7
 10
376.9465965575223
 20
272.30246139393563
 11
376.34782362285023
 21
271.70417454622003
  0
LINE
  8
_0-0_
  6
CONTINUOUS
 62
    7
 10
345.75054601980327
 20
241.1068969431731
 11
345.15274667208757
 21
240.50861150850096
  0
LINE
  8
_0-0_
  6
CONTINUOUS
 62
    7
 10
346.55864438921935
 20
240.50861150850096
 11
347.15620069345687
 21
241.1068969431731
  0
LINE
  8
_0-0_
  6
CONTINUOUS
 62
    7
 10
377.75347970954726
 20
271.70417454622003
 11
378.35225123117584
 21
272.30246139393563
  0
LINE
  8
_0-0_
  6
CONTINUOUS
 62
    7
 10
379.75790731787288
 20
272.30246139393563
 11
379.15986492667889
 21
271.70417454622003
  0
LINE
  8
_0-0_
  6
CONTINUOUS
 62
    7
 10
348.56185536711035
 20
241.1068969431731
 11
347.96381297591643
 21
240.50861150850096
  0
LINE
  8
_0-0_
  6
CONTINUOUS
 62
    7
 10
349.36946906261346
 20
240.50861150850096
 11
349.96824058424204
 21
241.1068969431731
  0
LINE
  8
_0-0_
  6
CONTINUOUS
 62
    7
 10
380.56551960033244
 20
271.70417454622003
 11
381.16380503500466
 21
272.30246139393563
  0
LINE
  8
_0-0_
  6
CONTINUOUS
 62
    7
 10
382.56897362170173
 20
272.30246139393563
 11
381.97141873050771
 21
271.70417454622003
  0
LINE
  8
_0-0_
  6
CONTINUOUS
 62
    7
 10
351.37389667093902
 20
241.1068969431731
 11
350.77585427974509
 21
240.50861150850093
  0
LINE
  8
_0-0_
  6
CONTINUOUS
 62
    7
 10
352.18150895339869
 20
240.50861150850093
 11
352.7797943880708
 21
241.1068969431731
  0
LINE
  8
_0-0_
  6
CONTINUOUS
 62
    7
 10
383.37707340416119
 20
271.70417454622003
 11
383.97511579535518
 21
272.30246139393563
  0
LINE
  8
_0-0_
  6
CONTINUOUS
 62
    7
 10
385.38052742553049
 20
272.30246139393563
 11
384.7827280778148
 21
271.70417454622003
  0
LINE
  8
_0-0_
  6
CONTINUOUS
 62
    7
 10
354.18545047476783
 20
241.1068969431731
 11
353.58716362705218
 21
240.50861150850093
  0
LINE
  8
_0-0_
  6
CONTINUOUS
 62
    7
 10
354.99306275722745
 20
240.50861150850093
 11
355.59061764842147
 21
241.1068969431731
  0
LINE
  8
_0-0_
  6
CONTINUOUS
 62
    7
 10
386.1881397079901
 20
271.70417454622003
 11
386.78618209918397
 21
272.30246139393563
  0
LINE
  8
_0-0_
  6
CONTINUOUS
 62
    7
 10
388.19183818588101
 20
272.30246139393563
 11
387.59379579468714
 21
271.70417454622003
  0
LINE
  8
_0-0_
  6
CONTINUOUS
 62
    7
 10
356.99651677859669
 20
241.1068969431731
 11
356.39823134392452
 21
240.50861150850093
  0
LINE
  8
_0-0_
  6
CONTINUOUS
 62
    7
 10
357.80388601757807
 20
240.50861150850093
 11
358.40217145225023
 21
241.1068969431731
  0
LINE
  8
_0-0_
  6
CONTINUOUS
 62
    7
 10
388.99945046834063
 20
271.70417454622003
 11
389.59822340301264
 21
272.30246139393563
  0
LINE
  8
_0-0_
  6
CONTINUOUS
 62
    7
 10
391.00387807666624
 20
272.30246139393563
 11
390.40583568547231
 21
271.70417454622003
  0
LINE
  8
_0-0_
  6
CONTINUOUS
 62
    7
 10
359.80782753894727
 20
241.1068969431731
 11
359.20978514775328
 21
240.50861150850093
  0
LINE
  8
_0-0_
  6
CONTINUOUS
 62
    7
 10
360.61543982140688
 20
240.50861150850093
 11
361.21421275607889
 21
241.1068969431731
  0
LINE
  8
_0-0_
  6
CONTINUOUS
 62
    7
 10
391.81149035912586
 20
271.70417454622003
 11
392.40977720684145
 21
272.30246139393563
  0
LINE
  8
_0-0_
  6
CONTINUOUS
 62
    7
 10
393.815431880495
 20
272.30246139393563
 11
393.21714644582289
 21
271.70417454622003
  0
LINE
  8
_0-0_
  6
CONTINUOUS
 62
    7
 10
363.54650460347443
 20
240.62836553021796
 11
364.02576655990765
 21
241.1068969431731
  0
LINE
  8
_0-0_
  6
CONTINUOUS
 62
    7
 10
394.62304416295456
 20
271.70417454622003
 11
395.22060046719207
 21
272.30246139393563
  0
LINE
  8
_0-0_
  6
CONTINUOUS
 62
    7
 10
396.62698568432381
 20
272.30246139393563
 11
396.02821274965169
 21
271.70417454622003
  0
LINE
  8
_0-0_
  6
CONTINUOUS
 62
    7
 10
365.4314212335612
 20
241.1068969431731
 11
364.83313579888909
 21
240.50861150850093
  0
LINE
  8
_0-0_
  6
CONTINUOUS
 62
    7
 10
366.23903351602081
 20
240.50861150850093
 11
366.83707590721474
 21
241.1068969431731
  0
LINE
  8
_0-0_
  6
CONTINUOUS
 62
    7
 10
397.43435492330514
 20
271.70417454622003
 11
398.00221470580902
 21
272.30246139393563
  0
LINE
  8
_0-0_
  6
CONTINUOUS
 62
    7
 10
399.40787079250606
 20
272.30246139393563
 11
398.83976655348044
 21
271.70417454622003
  0
LINE
  8
_0-0_
  6
CONTINUOUS
 62
    7
 10
368.2424875373901
 20
241.1068969431731
 11
367.64468960271785
 21
240.50861150850093
  0
LINE
  8
_0-0_
  6
CONTINUOUS
 62
    7
 10
369.04985677637143
 20
240.50861150850093
 11
369.64814362408708
 21
241.1068969431731
  0
LINE
  8
_0-0_
  6
CONTINUOUS
 62
    7
 10
400.21548307496562
 20
271.70417454622003
 11
400.81425600963769
 21
272.30246139393563
  0
LINE
  8
_0-0_
  6
CONTINUOUS
 62
    7
 10
402.21991068329123
 20
272.30246139393563
 11
401.6218682920973
 21
271.70417454622003
  0
LINE
  8
_0-0_
  6
CONTINUOUS
 62
    7
 10
371.05379829774063
 20
241.1068969431731
 11
370.45575590654664
 21
240.50861150850093
  0
LINE
  8
_0-0_
  6
CONTINUOUS
 62
    7
 10
371.86141058020024
 20
240.50861150850093
 11
372.46018351487226
 21
241.1068969431731
  0
LINE
  8
_0-0_
  6
CONTINUOUS
 62
    7
 10
403.02752296575079
 20
271.70417454622003
 11
403.6258098134665
 21
272.30246139393563
  0
LINE
  8
_0-0_
  6
CONTINUOUS
 62
    7
 10
405.03146448711999
 20
272.30246139393563
 11
404.43317905244783
 21
271.70417454621997
  0
LINE
  8
_0-0_
  6
CONTINUOUS
 62
    7
 10
373.86583818852586
 20
241.1068969431731
 11
373.26706666689722
 21
240.50861150850093
  0
LINE
  8
_0-0_
  6
CONTINUOUS
 62
    7
 10
374.67345188402891
 20
240.50861150850093
 11
375.27149427522284
 21
241.1068969431731
  0
LINE
  8
_0-0_
  6
CONTINUOUS
 62
    7
 10
405.83907676957961
 20
271.70417454621997
 11
406.43663307381712
 21
272.30246139393563
  0
LINE
  8
_0-0_
  6
CONTINUOUS
 62
    7
 10
407.84301829094875
 20
272.30246139393563
 11
407.24424535627668
 21
271.70417454621997
  0
LINE
  8
_0-0_
  6
CONTINUOUS
 62
    7
 10
376.64745384018624
 20
241.1068969431731
 11
376.07910655768239
 21
240.50861150850093
  0
LINE
  8
_0-0_
  6
CONTINUOUS
 62
    7
 10
377.48500568785767
 20
240.50861150850093
 11
378.05310851383973
 21
241.1068969431731
  0
LINE
  8
_0-0_
  6
CONTINUOUS
 62
    7
 10
408.65038752993013
 20
271.70417454621997
 11
409.24818687764588
 21
272.30246139393563
  0
LINE
  8
_0-0_
  6
CONTINUOUS
 62
    7
 10
410.65384155129937
 20
272.30246139393563
 11
410.05579916010549
 21
271.70417454621997
  0
LINE
  8
_0-0_
  6
CONTINUOUS
 62
    7
 10
379.4585201440151
 20
241.1068969431731
 11
378.86072220934284
 21
240.50861150850093
  0
LINE
  8
_0-0_
  6
CONTINUOUS
 62
    7
 10
380.26588938299642
 20
240.50861150850093
 11
380.86417623071208
 21
241.1068969431731
  0
LINE
  8
_0-0_
  6
CONTINUOUS
 62
    7
 10
411.46145383375904
 20
271.70417454621997
 11
412.06022676843105
 21
272.30246139393563
  0
LINE
  8
_0-0_
  6
CONTINUOUS
 62
    7
 10
413.46588144208465
 20
272.30246139393563
 11
412.86710992045602
 21
271.70417454621997
  0
LINE
  8
_0-0_
  6
CONTINUOUS
 62
    7
 10
382.26983090436568
 20
241.1068969431731
 11
381.67227460012816
 21
240.50861150850093
  0
LINE
  8
_0-0_
  6
CONTINUOUS
 62
    7
 10
383.07744318682523
 20
240.50861150850093
 11
383.6762161214973
 21
241.1068969431731
  0
LINE
  8
_0-0_
  6
CONTINUOUS
 62
    7
 10
414.2734951375877
 20
271.70417454621997
 11
414.87178057225981
 21
272.30246139393563
  0
LINE
  8
_0-0_
  6
CONTINUOUS
 62
    7
 10
416.27743524591335
 20
272.30246139393563
 11
415.67914981124125
 21
271.70417454621997
  0
LINE
  8
_0-0_
  6
CONTINUOUS
 62
    7
 10
385.08187079515085
 20
241.1068969431731
 11
384.48309927352221
 21
240.50861150850093
  0
LINE
  8
_0-0_
  6
CONTINUOUS
 62
    7
 10
385.8894844906539
 20
240.50861150850093
 11
386.48752688184783
 21
241.1068969431731
  0
LINE
  8
_0-0_
  6
CONTINUOUS
 62
    7
 10
417.08504894141646
 20
271.70417454621997
 11
417.68309133261039
 21
272.30246139393563
  0
LINE
  8
_0-0_
  6
CONTINUOUS
 62
    7
 10
419.0885029627857
 20
272.30246139393563
 11
418.49070361507
 21
271.70417454621997
  0
LINE
  8
_0-0_
  6
CONTINUOUS
 62
    7
 10
387.89342459897961
 20
241.1068969431731
 11
387.29513916430744
 21
240.50861150850093
  0
LINE
  8
_0-0_
  6
CONTINUOUS
 62
    7
 10
388.70103829448266
 20
240.50861150850093
 11
389.29859318567674
 21
241.1068969431731
  0
LINE
  8
_0-0_
  6
CONTINUOUS
 62
    7
 10
419.89587220176713
 20
271.70417454621997
 11
420.49415763643924
 21
272.30246139393563
  0
LINE
  8
_0-0_
  6
CONTINUOUS
 62
    7
 10
421.89981231009278
 20
272.30246139393563
 11
421.30225741889876
 21
271.70417454621997
  0
LINE
  8
_0-0_
  6
CONTINUOUS
 62
    7
 10
390.70473535933013
 20
241.1068969431731
 11
390.10669296813626
 21
240.50861150850093
  0
LINE
  8
_0-0_
  6
CONTINUOUS
 62
    7
 10
391.51234764178975
 20
240.50861150850093
 11
392.11014698950544
 21
241.1068969431731
  0
LINE
  8
_0-0_
  6
CONTINUOUS
 62
    7
 10
422.70742600559583
 20
271.70417454621997
 11
423.30619752722447
 21
272.30246139393563
  0
LINE
  8
_0-0_
  6
CONTINUOUS
 62
    7
 10
424.71185361392145
 20
272.30246139393563
 11
424.11308067924938
 21
271.70417454621997
  0
LINE
  8
_0-0_
  6
CONTINUOUS
 62
    7
 10
393.51580166315898
 20
241.1068969431731
 11
392.91775927196505
 21
240.50861150850093
  0
LINE
  8
_0-0_
  6
CONTINUOUS
 62
    7
 10
394.32341535866209
 20
240.50861150850093
 11
394.92145774985602
 21
241.1068969431731
  0
LINE
  8
_0-0_
  6
CONTINUOUS
 62
    7
 10
425.51946589638106
 20
271.70417454621997
 11
426.11750828757499
 21
272.30246139393563
  0
LINE
  8
_0-0_
  6
CONTINUOUS
 62
    7
 10
427.52340741775026
 20
272.30246139393563
 11
426.92512057003461
 21
271.70417454621997
  0
LINE
  8
_0-0_
  6
CONTINUOUS
 62
    7
 10
396.3278429669877
 20
241.1068969431731
 11
395.72907003231558
 21
240.50861150850093
  0
LINE
  8
_0-0_
  6
CONTINUOUS
 62
    7
 10
397.13545524944732
 20
240.50861150850093
 11
397.73349764064119
 21
241.1068969431731
  0
LINE
  8
_0-0_
  6
CONTINUOUS
 62
    7
 10
428.33101970020982
 20
271.70417454621997
 11
428.92906209140381
 21
272.30246139393563
  0
LINE
  8
_0-0_
  6
CONTINUOUS
 62
    7
 10
430.33471676505729
 20
272.30246139393563
 11
429.73667437386337
 21
271.70417454621997
  0
LINE
  8
_0-0_
  6
CONTINUOUS
 62
    7
 10
399.13939677081646
 20
241.1068969431731
 11
398.54110992310081
 21
240.50861150850093
  0
LINE
  8
_0-0_
  6
CONTINUOUS
 62
    7
 10
399.94676600979784
 20
240.50861150850093
 11
400.54505144447
 21
241.1068969431731
  0
LINE
  8
_0-0_
  6
CONTINUOUS
 62
    7
 10
431.1423304605604
 20
271.70417454621997
 11
431.74012839523266
 21
272.30246139393563
  0
LINE
  8
_0-0_
  6
CONTINUOUS
 62
    7
 10
433.14627056888605
 20
272.30246139393563
 11
432.54774209073571
 21
271.70417454621997
  0
LINE
  8
_0-0_
  6
CONTINUOUS
 62
    7
 10
401.95022003116708
 20
241.1068969431731
 11
401.35266372692956
 21
240.50861150850093
  0
LINE
  8
_0-0_
  6
CONTINUOUS
 62
    7
 10
402.75783231362675
 20
240.50861150850093
 11
403.35660524829876
 21
241.1068969431731
  0
LINE
  8
_0-0_
  6
CONTINUOUS
 62
    7
 10
433.95388285134572
 20
271.70417454621997
 11
434.55143915558324
 21
272.30246139393563
  0
LINE
  8
_0-0_
  6
CONTINUOUS
 62
    7
 10
435.95782437271487
 20
272.30246139393563
 11
435.3590514380428
 21
271.70417454621997
  0
LINE
  8
_0-0_
  6
CONTINUOUS
 62
    7
 10
404.76177383499589
 20
241.1068969431731
 11
404.16397448728014
 21
240.50861150850093
  0
LINE
  8
_0-0_
  6
CONTINUOUS
 62
    7
 10
405.56938611745545
 20
240.50861150850093
 11
406.16742850864938
 21
241.1068969431731
  0
LINE
  8
_0-0_
  6
CONTINUOUS
 62
    7
 10
436.76543665517443
 20
271.70417454621997
 11
437.33354089420004
 21
272.30246139393563
  0
LINE
  8
_0-0_
  6
CONTINUOUS
 62
    7
 10
438.73944002437526
 20
272.30246139393563
 11
438.17109274187146
 21
271.70417454621997
  0
LINE
  8
_0-0_
  6
CONTINUOUS
 62
    7
 10
407.57381372578106
 20
241.1068969431731
 11
406.975040791109
 21
240.50861150850093
  0
LINE
  8
_0-0_
  6
CONTINUOUS
 62
    7
 10
408.38069687780603
 20
240.50861150850093
 11
408.97946839943461
 21
241.10689694317307
  0
LINE
  8
_0-0_
  6
CONTINUOUS
 62
    7
 10
439.54705230683487
 20
271.70417454621997
 11
440.14460719802884
 21
272.30246139393563
  0
LINE
  8
_0-0_
  6
CONTINUOUS
 62
    7
 10
441.55074937168229
 20
272.30246139393563
 11
440.95222089353194
 21
271.70417454621997
  0
LINE
  8
_0-0_
  6
CONTINUOUS
 62
    7
 10
410.38536752960982
 20
241.10689694317307
 11
409.78708209493766
 21
240.50861150850093
  0
LINE
  8
_0-0_
  6
CONTINUOUS
 62
    7
 10
411.1927367685912
 20
240.50861150850093
 11
411.79102220326342
 21
241.10689694317307
  0
LINE
  8
_0-0_
  6
CONTINUOUS
 62
    7
 10
442.35836306718539
 20
271.70417454621997
 11
442.95616100185771
 21
272.30246139393563
  0
LINE
  8
_0-0_
  6
CONTINUOUS
 62
    7
 10
444.3623031755111
 20
272.30246139393563
 11
443.7637746973607
 21
271.70417454621997
  0
LINE
  8
_0-0_
  6
CONTINUOUS
 62
    7
 10
413.19667828996035
 20
241.10689694317307
 11
412.59863589876647
 21
240.50861150850093
  0
LINE
  8
_0-0_
  6
CONTINUOUS
 62
    7
 10
414.00429057241996
 20
240.50861150850093
 11
414.60208992013577
 21
241.10689694317307
  0
LINE
  8
_0-0_
  6
CONTINUOUS
 62
    7
 10
445.16991545797066
 20
271.70417454621997
 11
445.76747176220817
 21
272.30246139393563
  0
LINE
  8
_0-0_
  6
CONTINUOUS
 62
    7
 10
447.17385697933986
 20
272.30246139393563
 11
446.57508404466785
 21
271.70417454621997
  0
LINE
  8
_0-0_
  6
CONTINUOUS
 62
    7
 10
415.97780644162083
 20
241.10689694317307
 11
415.40945915911709
 21
240.50861150850093
  0
LINE
  8
_0-0_
  6
CONTINUOUS
 62
    7
 10
416.81584437624878
 20
240.50861150850093
 11
417.38346111527437
 21
241.10689694317307
  0
LINE
  8
_0-0_
  6
CONTINUOUS
 62
    7
 10
447.98146926179942
 20
271.70417454621997
 11
448.57951165299346
 21
272.30246139393563
  0
LINE
  8
_0-0_
  6
CONTINUOUS
 62
    7
 10
449.98541078316862
 20
272.30246139393563
 11
449.38712534849645
 21
271.70417454621997
  0
LINE
  8
_0-0_
  6
CONTINUOUS
 62
    7
 10
450.79278002215
 20
271.70417454621997
 11
451.39106545682216
 21
272.30246139393563
  0
LINE
  8
_0-0_
  6
CONTINUOUS
 62
    7
 10
452.79623404351923
 20
272.30246139393563
 11
452.19867915232521
 21
271.70417454621997
  0
LINE
  8
_0-0_
  6
CONTINUOUS
 62
    7
 10
453.60384632597891
 20
271.70417454621997
 11
454.20261926065092
 21
272.30246139393563
  0
LINE
  8
_0-0_
  6
CONTINUOUS
 62
    7
 10
455.60778784734799
 20
272.30246139393563
 11
455.0099884996323
 21
271.70417454621997
  0
LINE
  8
_0-0_
  6
CONTINUOUS
 62
    7
 10
456.41540012980761
 20
271.70417454621997
 11
457.01344252100159
 21
272.30246139393563
  0
LINE
  8
_0-0_
  6
CONTINUOUS
 62
    7
 10
458.41982773813322
 20
272.30246139393563
 11
457.82154230346111
 21
271.70417454621997
  0
LINE
  8
_0-0_
  6
CONTINUOUS
 62
    7
 10
459.22671089015819
 20
271.70417454621997
 11
459.82548382483026
 21
272.30246139393563
  0
LINE
  8
_0-0_
  6
CONTINUOUS
 62
    7
 10
461.23138154196204
 20
272.30246139393563
 11
460.63309610728993
 21
271.70417454621997
  0
LINE
  8
_0-0_
  6
CONTINUOUS
 62
    7
 10
462.03875078094336
 20
271.70417454621997
 11
462.63703762865907
 21
272.30246139393563
  0
LINE
  8
_0-0_
  6
CONTINUOUS
 62
    7
 10
464.04269230231262
 20
272.30246139393563
 11
463.44464991111863
 21
271.70417454621997
  0
LINE
  8
_0-0_
  6
CONTINUOUS
 62
    7
 10
433.65474013400956
 20
240.50861150850093
 11
434.25302698172527
 21
241.10689694317307
  0
LINE
  8
_0-0_
  6
CONTINUOUS
 62
    7
 10
464.85030458477218
 20
271.70417454621997
 11
465.44810393248792
 21
272.30246139393563
  0
LINE
  8
_0-0_
  6
CONTINUOUS
 62
    7
 10
466.85424610614132
 20
272.30246139393563
 11
466.2554731714693
 21
271.70417454621997
  0
LINE
  8
_0-0_
  6
CONTINUOUS
 62
    7
 10
435.65819415537885
 20
241.10689694317307
 11
435.06063926418483
 21
240.50861150850093
  0
LINE
  8
_0-0_
  6
CONTINUOUS
 62
    7
 10
436.46580785088196
 20
240.50861150850093
 11
437.06433632903236
 21
241.10689694317307
  0
LINE
  8
_0-0_
  6
CONTINUOUS
 62
    7
 10
467.66185838860099
 20
271.70417454621997
 11
468.2594146928385
 21
272.30246139393563
  0
LINE
  8
_0-0_
  6
CONTINUOUS
 62
    7
 10
469.66579990997013
 20
272.30246139393563
 11
469.06702697529806
 21
271.70417454621997
  0
LINE
  8
_0-0_
  6
CONTINUOUS
 62
    7
 10
438.46974795920767
 20
241.10689694317307
 11
437.87195002453541
 21
240.50861150850093
  0
LINE
  8
_0-0_
  6
CONTINUOUS
 62
    7
 10
439.27736165471072
 20
240.50861150850093
 11
439.87589013286106
 21
241.10689694317307
  0
LINE
  8
_0-0_
  6
CONTINUOUS
 62
    7
 10
470.47316914895146
 20
271.70417454621997
 11
471.07145458362368
 21
272.30246139393563
  0
LINE
  8
_0-0_
  6
CONTINUOUS
 62
    7
 10
472.47710925727722
 20
272.30246139393563
 11
471.87906686608329
 21
271.70417454621997
  0
LINE
  8
_0-0_
  6
CONTINUOUS
 62
    7
 10
441.28105871955813
 20
241.10689694317307
 11
440.68350241532062
 21
240.50861150850093
  0
LINE
  8
_0-0_
  6
CONTINUOUS
 62
    7
 10
442.0886710020178
 20
240.50861150850093
 11
442.68744393668987
 21
241.10689694317307
  0
LINE
  8
_0-0_
  6
CONTINUOUS
 62
    7
 10
473.28472295278027
 20
271.70417454621997
 11
473.88300838745238
 21
272.30246139393563
  0
LINE
  8
_0-0_
  6
CONTINUOUS
 62
    7
 10
475.25872490893755
 20
272.30246139393563
 11
474.69062066991205
 21
271.70417454621997
  0
LINE
  8
_0-0_
  6
CONTINUOUS
 62
    7
 10
444.09309861034342
 20
241.10689694317307
 11
443.49505621914949
 21
240.50861150850093
  0
LINE
  8
_0-0_
  6
CONTINUOUS
 62
    7
 10
444.90071230584647
 20
240.50861150850093
 11
445.49899774051858
 21
241.10689694317307
  0
LINE
  8
_0-0_
  6
CONTINUOUS
 62
    7
 10
476.09627675660909
 20
271.70417454621997
 11
476.66413653911292
 21
272.30246139393563
  0
LINE
  8
_0-0_
  6
CONTINUOUS
 62
    7
 10
478.07027871276637
 20
272.30246139393563
 11
477.4715057780943
 21
271.70417454621997
  0
LINE
  8
_0-0_
  6
CONTINUOUS
 62
    7
 10
446.90465241417218
 20
241.10689694317307
 11
446.30636697950001
 21
240.50861150850093
  0
LINE
  8
_0-0_
  6
CONTINUOUS
 62
    7
 10
447.71226610967528
 20
240.50861150850093
 11
448.30982100086919
 21
241.10689694317307
  0
LINE
  8
_0-0_
  6
CONTINUOUS
 62
    7
 10
478.87789099522598
 20
271.70417454621997
 11
479.4754472994635
 21
272.30246139393563
  0
LINE
  8
_0-0_
  6
CONTINUOUS
 62
    7
 10
480.88183251659507
 20
272.30246139393563
 11
480.28305958192306
 21
271.70417454621997
  0
LINE
  8
_0-0_
  6
CONTINUOUS
 62
    7
 10
449.71620621800093
 20
241.10689694317307
 11
449.11743328332886
 21
240.50861150850093
  0
LINE
  8
_0-0_
  6
CONTINUOUS
 62
    7
 10
450.52357545698231
 20
240.50861150850093
 11
451.12137480469806
 21
241.10689694317307
  0
LINE
  8
_0-0_
  6
CONTINUOUS
 62
    7
 10
481.68920175557651
 20
271.70417454621997
 11
482.28748719024867
 21
272.30246139393563
  0
LINE
  8
_0-0_
  6
CONTINUOUS
 62
    7
 10
483.69314186390221
 20
272.30246139393563
 11
483.09509947270828
 21
271.70417454621997
  0
LINE
  8
_0-0_
  6
CONTINUOUS
 62
    7
 10
452.52702947835155
 20
241.10689694317307
 11
451.92898708715762
 21
240.50861150850093
  0
LINE
  8
_0-0_
  6
CONTINUOUS
 62
    7
 10
453.33512926081107
 20
240.50861150850093
 11
453.90347654331481
 21
241.10689694317307
  0
LINE
  8
_0-0_
  6
CONTINUOUS
 62
    7
 10
484.50075555940521
 20
271.70417454621997
 11
485.09904099407743
 21
272.30246139393563
  0
LINE
  8
_0-0_
  6
CONTINUOUS
 62
    7
 10
486.50420958077456
 20
272.30246139393563
 11
485.90665327653704
 21
271.70417454621997
  0
LINE
  8
_0-0_
  6
CONTINUOUS
 62
    7
 10
455.30913121696841
 20
241.10689694317307
 11
454.7402978475082
 21
240.50861150850093
  0
LINE
  8
_0-0_
  6
CONTINUOUS
 62
    7
 10
456.1167449124714
 20
240.50861150850093
 11
456.71503034714362
 21
241.10689694317307
  0
LINE
  8
_0-0_
  6
CONTINUOUS
 62
    7
 10
487.31230936323408
 20
271.70417454621997
 11
487.91035034138451
 21
272.30246139393563
  0
LINE
  8
_0-0_
  6
CONTINUOUS
 62
    7
 10
489.31576338460331
 20
272.30246139393563
 11
488.71796403688757
 21
271.70417454621997
  0
LINE
  8
_0-0_
  6
CONTINUOUS
 62
    7
 10
458.12068502079717
 20
241.10689694317307
 11
457.522399586125
 21
240.50861150850093
  0
LINE
  8
_0-0_
  6
CONTINUOUS
 62
    7
 10
458.92829871630028
 20
240.50861150850093
 11
459.5258536074943
 21
241.10689694317307
  0
LINE
  8
_0-0_
  6
CONTINUOUS
 62
    7
 10
490.12337566706287
 20
271.70417454621997
 11
490.72190414521327
 21
272.30246139393563
  0
LINE
  8
_0-0_
  6
CONTINUOUS
 62
    7
 10
492.12707273191035
 20
272.30246139393563
 11
491.52951784071632
 21
271.70417454621997
  0
LINE
  8
_0-0_
  6
CONTINUOUS
 62
    7
 10
460.93223882462593
 20
241.10689694317307
 11
460.33346588995386
 21
240.50861150850093
  0
LINE
  8
_0-0_
  6
CONTINUOUS
 62
    7
 10
461.73960806360731
 20
240.50861150850093
 11
462.33740741132306
 21
241.10689694317307
  0
LINE
  8
_0-0_
  6
CONTINUOUS
 62
    7
 10
463.7430620849766
 20
241.10689694317307
 11
463.14501969378261
 21
240.50861150850093
  0
LINE
  8
_0-0_
  6
CONTINUOUS
 62
    7
 10
464.55116186743612
 20
240.50861150850093
 11
465.14944730210823
 21
241.10689694317307
  0
LINE
  8
_0-0_
  6
CONTINUOUS
 62
    7
 10
466.55510338880526
 20
241.10689694317307
 11
465.95633045413319
 21
240.50861150850093
  0
LINE
  8
_0-0_
  6
CONTINUOUS
 62
    7
 10
467.36271567126494
 20
240.50861150850093
 11
467.96100110593704
 21
241.10689694317307
  0
LINE
  8
_0-0_
  6
CONTINUOUS
 62
    7
 10
469.36665719263402
 20
241.10689694317307
 11
468.76837034491837
 21
240.50861150850093
  0
LINE
  8
_0-0_
  6
CONTINUOUS
 62
    7
 10
470.17426947509364
 20
240.50861150850093
 11
470.77231186628757
 21
241.10689694317307
  0
LINE
  8
_0-0_
  6
CONTINUOUS
 62
    7
 10
472.17772349646293
 20
241.10689694317307
 11
471.57992414874718
 21
240.50861150850093
  0
LINE
  8
_0-0_
  6
CONTINUOUS
 62
    7
 10
472.98509273544425
 20
240.50861150850093
 11
473.58386567011632
 21
241.10689694317307
  0
LINE
  8
_0-0_
  6
CONTINUOUS
 62
    7
 10
474.98903425681351
 20
241.10689694317307
 11
474.391477952576
 21
240.50861150850093
  0
LINE
  8
_0-0_
  6
CONTINUOUS
 62
    7
 10
475.79664653927307
 20
240.50861150850093
 11
476.39541947394508
 21
241.10689694317307
  0
LINE
  8
_0-0_
  6
CONTINUOUS
 62
    7
 10
477.80107414759868
 20
241.10689694317307
 11
477.20278871292646
 21
240.50861150850091
  0
LINE
  8
_0-0_
  6
CONTINUOUS
 62
    7
 10
478.60868643005824
 20
240.50861150850091
 11
479.20672882125223
 21
241.10689694317307
  0
LINE
  8
_0-0_
  6
CONTINUOUS
 62
    7
 10
480.61262795142738
 20
241.10689694317307
 11
480.01434251675528
 21
240.50861150850091
  0
LINE
  8
_0-0_
  6
CONTINUOUS
 62
    7
 10
481.42024023388706
 20
240.50861150850091
 11
482.01779653812457
 21
241.10689694317307
  0
LINE
  8
_0-0_
  6
CONTINUOUS
 62
    7
 10
483.42393729873453
 20
241.10689694317307
 11
482.82589632058409
 21
240.50861150850091
  0
LINE
  8
_0-0_
  6
CONTINUOUS
 62
    7
 10
484.23155099423752
 20
240.50861150850091
 11
484.82935034195327
 21
241.10689694317307
  0
LINE
  8
_0-0_
  6
CONTINUOUS
 62
    7
 10
486.23549110256329
 20
241.10689694317307
 11
485.63696262441294
 21
240.50861150850091
  0
LINE
  8
_0-0_
  6
CONTINUOUS
 62
    7
 10
487.04310479806634
 20
240.50861150850091
 11
487.64065968926042
 21
241.10689694317307
  0
LINE
  8
_0-0_
  6
CONTINUOUS
 62
    7
 10
489.04704490639199
 20
241.10689694317307
 11
488.44827338476341
 21
240.50861150850091
  0
LINE
  8
_0-0_
  6
CONTINUOUS
 62
    7
 10
489.85465860189515
 20
240.50861150850091
 11
490.45270099308902
 21
241.10689694317307
  0
LINE
  8
_0-0_
  6
CONTINUOUS
 62
    7
 10
491.8585987102208
 20
241.10689694317307
 11
491.2603132755487
 21
240.50861150850091
  0
LINE
  8
_0-0_
  6
CONTINUOUS
 62
    7
 10
292.0635261384104
 20
271.70417454622003
 11
292.66181157308256
 21
272.30246139393569
  0
LINE
  8
_0-0_
  6
CONTINUOUS
 62
    7
 10
291.25591244290734
 20
272.30246139393569
 11
290.65762700823518
 21
271.70417454622003
  0
LINE
  8
_0-0_
  6
CONTINUOUS
 62
    7
 10
289.25221537805987
 20
271.70417454622003
 11
289.85050081273204
 21
272.30246139393569
  0
LINE
  8
_0-0_
  6
CONTINUOUS
 62
    7
 10
288.44460309560026
 20
272.30246139393569
 11
287.8463162478846
 21
271.70417454622003
  0
LINE
  8
_0-0_
  6
CONTINUOUS
 62
    7
 10
286.44041853075288
 20
271.70417454622003
 11
287.03870396542504
 21
272.30246139393569
  0
LINE
  8
_0-0_
  6
CONTINUOUS
 62
    7
 10
285.63329233524973
 20
272.30246139393569
 11
285.03500690057757
 21
271.70417454622003
  0
LINE
  8
_0-0_
  6
CONTINUOUS
 62
    7
 10
283.59941266171217
 20
271.64429824188323
 11
284.22739320507446
 21
272.27252182872382
  0
LINE
  8
_0-0_
  6
CONTINUOUS
 62
    7
 10
282.76161777056245
 20
272.21264552438703
 11
282.10394211851002
 21
271.58466356798124
  0
LINE
  8
_0-0_
  6
CONTINUOUS
 62
    7
 10
280.57828896661772
 20
271.43497139409584
 11
281.23645211867012
 21
272.09289008962651
  0
LINE
  8
_0-0_
  6
CONTINUOUS
 62
    7
 10
279.68110385808768
 20
271.94344095921934
 11
278.99324559734509
 21
271.28552085064513
  0
LINE
  8
_0-0_
  6
CONTINUOUS
 62
    7
 10
277.37801961938243
 20
271.04625585068931
 11
278.06587788012502
 21
271.76405226360026
  0
LINE
  8
_0-0_
  6
CONTINUOUS
 62
    7
 10
276.42095679347221
 20
271.49484769843258
 11
275.67322222839283
 21
270.74711313335325
  0
LINE
  8
_0-0_
  6
CONTINUOUS
 62
    7
 10
273.90854570697951
 20
270.38809269863691
 11
274.68597679379252
 21
271.1657668289281
  0
LINE
  8
_0-0_
  6
CONTINUOUS
 62
    7
 10
272.89160657673244
 20
270.77705128552162
 11
272.08399429427288
 21
269.96943900306201
  0
LINE
  8
_0-0_
  6
CONTINUOUS
 62
    7
 10
270.14017353376215
 20
269.43102987272664
 11
271.00717603360209
 21
270.29851987256649
  0
LINE
  8
_0-0_
  6
CONTINUOUS
 62
    7
 10
269.03317407744481
 20
269.73017259006269
 11
268.10629386022458
 21
268.80304932936428
  0
LINE
  8
_0-0_
  6
CONTINUOUS
 62
    7
 10
265.89278244758975
 20
267.99543563386123
 11
266.90972299088025
 21
269.01237617715174
  0
LINE
  8
_0-0_
  6
CONTINUOUS
 62
    7
 10
264.6368213608651
 20
268.14488617731195
 11
263.52982190454776
 21
267.03837422099446
  0
LINE
  8
_0-0_
  6
CONTINUOUS
 62
    7
 10
260.8981428832945
 20
265.8121068299165
 11
262.15410538306259
 21
267.06831237316283
  0
LINE
  8
_0-0_
  6
CONTINUOUS
 62
    7
 10
259.3724897314022
 20
265.69235280819947
 11
257.84732407950986
 21
264.16694269978541
  0
LINE
  8
_0-0_
  6
CONTINUOUS
 62
    7
 10
237.41895593110735
 20
243.73881900790462
 11
235.89379027921501
 21
242.21340889949059
  0
LINE
  8
_0-0_
  6
CONTINUOUS
 62
    7
 10
237.77821940930187
 20
245.50349411627448
 11
239.8417941915296
 21
247.56731194198042
  0
LINE
  8
_0-0_
  6
CONTINUOUS
 62
    7
 10
254.01858668891236
 20
261.74434748284136
 11
256.08264897114003
 21
263.80816672159079
  0
LINE
  8
_0-0_
  6
CONTINUOUS
 62
    7
 10
251.56605331979992
 20
260.69747020042598
 11
240.88842984351029
 21
250.01984531109287
  0
LINE
  8
_0-0_
  6
CONTINUOUS
 62
    7
 10
302.32249591912517
 20
241.1068969431731
 11
302.98065907117757
 21
241.1068969431731
  0
LINE
  8
_0-0_
  6
CONTINUOUS
 62
    7
 10
505.4972265337899
 20
240.50861150850091
 11
492.54645697096339
 21
240.50861150850091
  0
LINE
  8
_0-0_
  6
CONTINUOUS
 62
    7
 10
505.4972265337899
 20
272.30246139393563
 11
492.48609316662669
 21
272.30246139393563
  0
LINE
  8
_0-0_
  6
CONTINUOUS
 62
    7
 10
141.35003410101709
 20
294.85403758542452
 11
141.35003410101709
 21
296.8280395415818
  0
LINE
  8
_0-0_
  6
CONTINUOUS
 62
    7
 10
141.35003410101709
 20
296.8280395415818
 11
160.76146311917256
 21
296.8280395415818
  0
LINE
  8
_0-0_
  6
CONTINUOUS
 62
    7
 10
160.76146311917256
 20
294.85403758542452
 11
141.88844323135245
 21
294.85403758542452
  0
LINE
  8
_0-0_
  6
CONTINUOUS
 62
    7
 10
145.86614225235726
 20
296.8280395415818
 11
145.86614225235726
 21
294.85403758542452
  0
LINE
  8
_0-0_
  6
CONTINUOUS
 62
    7
 10
145.86614225235726
 20
294.85403758542452
 11
141.35003410101709
 21
294.85403758542452
  0
LINE
  8
_0-0_
  6
CONTINUOUS
 62
    7
 10
141.88844323135245
 20
293.35856562917883
 11
141.64893377487493
 21
293.41844334655912
  0
LINE
  8
_0-0_
  6
CONTINUOUS
 62
    7
 10
141.64893377487493
 20
293.41844334655912
 11
141.46978953577758
 21
293.59783204217814
  0
LINE
  8
_0-0_
  6
CONTINUOUS
 62
    7
 10
141.46978953577758
 20
293.59783204217814
 11
141.37972920970725
 21
293.83709704213396
  0
LINE
  8
_0-0_
  6
CONTINUOUS
 62
    7
 10
141.37972920970725
 20
294.34556802030102
 11
141.37972920970725
 21
293.83709704213396
  0
LINE
  8
_0-0_
  6
CONTINUOUS
 62
    7
 10
141.37972920970725
 20
294.34556802030102
 11
141.46978953577758
 21
294.58483302025684
  0
LINE
  8
_0-0_
  6
CONTINUOUS
 62
    7
 10
141.46978953577758
 20
294.58483302025684
 11
141.64893377487493
 21
294.7644647593541
  0
LINE
  8
_0-0_
  6
CONTINUOUS
 62
    7
 10
141.64893377487493
 20
294.7644647593541
 11
141.88844323135245
 21
294.85403758542452
  0
LINE
  8
_0-0_
  6
CONTINUOUS
 62
    7
 10
140.63199464462789
 20
294.34556802030102
 11
140.63199464462789
 21
302.30145356231048
  0
LINE
  8
_0-0_
  6
CONTINUOUS
 62
    7
 10
141.14070725322964
 20
293.35856562917883
 11
141.14070725322964
 21
302.30145356231048
  0
LINE
  8
_0-0_
  6
CONTINUOUS
 62
    7
 10
140.63199464462789
 20
294.34556802030102
 11
141.14070725322964
 21
294.34556802030102
  0
LINE
  8
_0-0_
  6
CONTINUOUS
 62
    7
 10
141.14070725322964
 20
293.35856562917883
 11
143.11470920938694
 21
293.35856562917883
  0
LINE
  8
_0-0_
  6
CONTINUOUS
 62
    7
 10
143.11470920938694
 20
292.37156465110019
 11
143.11470920938694
 21
293.35856562917883
  0
LINE
  8
_0-0_
  6
CONTINUOUS
 62
    7
 10
160.76146311917256
 20
293.35856562917883
 11
141.88844323135245
 21
293.35856562917883
  0
LINE
  8
_0-0_
  6
CONTINUOUS
 62
    7
 10
145.86614225235726
 20
295.06336443321197
 11
145.62712029587965
 21
294.85403758542452
  0
LINE
  8
_0-0_
  6
CONTINUOUS
 62
    7
 10
145.20846660030475
 20
294.85403758542452
 11
145.86614225235726
 21
295.482261172265
  0
LINE
  8
_0-0_
  6
CONTINUOUS
 62
    7
 10
145.86614225235726
 20
296.34950812862667
 11
144.37067170915509
 21
294.85403758542452
  0
LINE
  8
_0-0_
  6
CONTINUOUS
 62
    7
 10
143.95201801358019
 20
294.85403758542452
 11
145.86614225235726
 21
296.76816182420157
  0
LINE
  8
_0-0_
  6
CONTINUOUS
 62
    7
 10
145.08871257858772
 20
296.8280395415818
 11
143.11470920938694
 21
294.85403758542452
  0
LINE
  8
_0-0_
  6
CONTINUOUS
 62
    7
 10
142.66587431816546
 20
294.85403758542452
 11
144.67005746996938
 21
296.8280395415818
  0
LINE
  8
_0-0_
  6
CONTINUOUS
 62
    7
 10
143.83226257881969
 20
296.8280395415818
 11
141.82856551397222
 21
294.85403758542452
  0
LINE
  8
_0-0_
  6
CONTINUOUS
 62
    7
 10
141.40991181839735
 20
294.85403758542452
 11
143.41360888324482
 21
296.8280395415818
  0
LINE
  8
_0-0_
  6
CONTINUOUS
 62
    7
 10
142.54660638340488
 20
296.8280395415818
 11
141.35003410101709
 21
295.63171171571571
  0
LINE
  8
_0-0_
  6
CONTINUOUS
 62
    7
 10
141.35003410101709
 20
296.05036541129061
 11
142.12746518783007
 21
296.8280395415818
  0
LINE
  8
_0-0_
  6
CONTINUOUS
 62
    7
 10
141.61923866618477
 20
292.37156465110019
 11
139.67493181871762
 21
294.3156284550891
  0
LINE
  8
_0-0_
  6
CONTINUOUS
 62
    7
 10
139.40572725354994
 20
296.67859041117458
 11
141.14070725322964
 21
294.94385345497312
  0
LINE
  8
_0-0_
  6
CONTINUOUS
 62
    7
 10
142.72575062250223
 20
293.35856562917883
 11
143.11470920938694
 21
292.96985149881584
  0
LINE
  8
_0-0_
  6
CONTINUOUS
 62
    7
 10
141.14070725322964
 20
297.03736638936925
 11
139.40572725354994
 21
298.80204149773908
  0
LINE
  8
_0-0_
  6
CONTINUOUS
 62
    7
 10
139.40572725354994
 20
300.89579888865694
 11
141.14070725322964
 21
299.16106193245542
  0
LINE
  8
_0-0_
  6
CONTINUOUS
 62
    7
 10
141.14070725322964
 20
301.25457486685156
 11
140.1237681229826
 21
302.30145356231048
  0
LINE
  8
_0-0_
  6
CONTINUOUS
 62
    7
 10
144.37067170915509
 20
293.35856562917883
 11
144.61018116563261
 21
293.29868932484203
  0
LINE
  8
_0-0_
  6
CONTINUOUS
 62
    7
 10
144.61018116563261
 20
293.29868932484203
 11
144.7898129047299
 21
293.11930062922301
  0
LINE
  8
_0-0_
  6
CONTINUOUS
 62
    7
 10
144.7898129047299
 20
293.11930062922301
 11
144.87938573080029
 21
292.85009606405532
  0
LINE
  8
_0-0_
  6
CONTINUOUS
 62
    7
 10
160.76146311917256
 20
292.85009606405532
 11
145.86614225235726
 21
292.85009606405532
  0
LINE
  8
_0-0_
  6
CONTINUOUS
 62
    7
 10
143.62293573103224
 20
267.03837422099446
 11
143.62293573103224
 21
266.05137324291582
  0
LINE
  8
_0-0_
  6
CONTINUOUS
 62
    7
 10
160.76146311917256
 20
267.03837422099446
 11
143.62293573103224
 21
267.03837422099446
  0
LINE
  8
_0-0_
  6
CONTINUOUS
 62
    7
 10
117.93072486621017
 20
138.39768391865661
 11
202.93355072008256
 21
138.39768391865661
  0
LINE
  8
_0-0_
  6
CONTINUOUS
 62
    7
 10
117.9307248662102
 20
266.05137324291582
 11
141.37972920970722
 21
266.05137324291582
  0
LINE
  8
_0-0_
  6
CONTINUOUS
 62
    7
 10
117.9307248662102
 20
266.05137324291582
 11
141.37972920970722
 21
266.05137324291582
  0
LINE
  8
_0-0_
  6
CONTINUOUS
 62
    7
 10
117.9307248662102
 20
296.8280395415818
 11
141.35003410101709
 21
296.8280395415818
  0
LINE
  8
_0-0_
  6
CONTINUOUS
 62
    7
 10
144.87938573080029
 20
283.60806541358761
 11
144.87938573080029
 21
292.85009606405532
  0
LINE
  8
_0-0_
  6
CONTINUOUS
 62
    7
 10
176.64305300754489
 20
283.60806541358761
 11
176.64305300754492
 21
292.85009606405532
  0
LINE
  8
_0-0_
  6
CONTINUOUS
 62
    7
 10
160.76146311917256
 20
325.56573486784367
 11
245.19569396972656
 21
325.56573486784367
  0
LINE
  8
_0-0_
  6
CONTINUOUS
 62
    7
 10
160.76146311917256
 20
325.56573486784367
 11
166.55701807690696
 21
327.11864913845875
  0
LINE
  8
_0-0_
  6
CONTINUOUS
 62
    7
 10
160.76146311917256
 20
325.56573486784367
 11
166.55701807690696
 21
324.01282059722854
  0
LINE
  8
_0-0_
  6
CONTINUOUS
 62
    7
 10
245.19569396972656
 20
325.56573486784367
 11
239.40013901199217
 21
327.11864913845875
  0
LINE
  8
_0-0_
  6
CONTINUOUS
 62
    7
 10
245.19569396972656
 20
325.56573486784367
 11
239.40013901199217
 21
324.01282059722854
  0
LINE
  8
_0-0_
  6
CONTINUOUS
 62
    7
 10
245.19569396972656
 20
325.56573486784367
 11
492.48609924316406
 21
325.56573486784367
  0
LINE
  8
_0-0_
  6
CONTINUOUS
 62
    7
 10
245.19569396972656
 20
325.56573486784367
 11
250.99124892746096
 21
327.11864913845875
  0
LINE
  8
_0-0_
  6
CONTINUOUS
 62
    7
 10
245.19569396972656
 20
325.56573486784367
 11
250.99124892746096
 21
324.01282059722854
  0
LINE
  8
_0-0_
  6
CONTINUOUS
 62
    7
 10
492.48609924316406
 20
325.56573486784367
 11
486.69054428542967
 21
327.11864913845875
  0
LINE
  8
_0-0_
  6
CONTINUOUS
 62
    7
 10
492.48609924316406
 20
325.56573486784367
 11
486.69054428542967
 21
324.01282059722854
  0
LINE
  8
_0-0_
  6
CONTINUOUS
 62
    7
 10
245.19569723401946
 20
325.56573486784367
 11
245.19569723401946
 21
215.6838892304753
  0
LINE
  8
_0-0_
  6
CONTINUOUS
 62
    7
 10
492.48609316662669
 20
325.56573649604695
 11
492.48609316662669
 21
272.30246139393563
  0
LINE
  8
_0-0_
  6
CONTINUOUS
 62
    7
 10
144.87938573080029
 20
276.65701260957258
 11
134.87938573080029
 21
276.65701260957258
  0
LINE
  8
_0-0_
  6
CONTINUOUS
 62
    7
 10
176.64305300754492
 20
276.65701260957258
 11
186.64305300754492
 21
276.65701260957258
  0
LINE
  8
_0-0_
  6
CONTINUOUS
 62
    7
 10
144.87938573080029
 20
276.65701260957258
 11
176.64305300754492
 21
276.65701260957258
  0
LINE
  8
_0-0_
  6
CONTINUOUS
 62
    7
 10
144.87938573080029
 20
276.65701260957258
 11
139.08383077306587
 21
275.10409833895744
  0
LINE
  8
_0-0_
  6
CONTINUOUS
 62
    7
 10
144.87938573080029
 20
276.65701260957258
 11
139.08383077306587
 21
278.20992688018771
  0
LINE
  8
_0-0_
  6
CONTINUOUS
 62
    7
 10
176.64305300754492
 20
276.65701260957258
 11
182.43860796527935
 21
275.10409833895744
  0
LINE
  8
_0-0_
  6
CONTINUOUS
 62
    7
 10
176.64305300754492
 20
276.65701260957258
 11
182.43860796527935
 21
278.20992688018771
  0
LINE
  8
_0-0_
  6
CONTINUOUS
 62
    7
 10
106.51005635119759
 20
138.42786652734665
 11
106.51005635119759
 21
266.05137324291582
  0
LINE
  8
_0-0_
  6
CONTINUOUS
 62
    7
 10
106.51005635119759
 20
138.42786652734665
 11
104.95714208058246
 21
144.22342148508108
  0
LINE
  8
_0-0_
  6
CONTINUOUS
 62
    7
 10
106.51005635119759
 20
138.42786652734665
 11
108.06297062181272
 21
144.22342148508108
  0
LINE
  8
_0-0_
  6
CONTINUOUS
 62
    7
 10
106.51005635119759
 20
266.05137324291582
 11
104.95714208058246
 21
260.25581828518142
  0
LINE
  8
_0-0_
  6
CONTINUOUS
 62
    7
 10
106.51005635119759
 20
266.05137324291582
 11
108.06297062181272
 21
260.25581828518142
  0
LINE
  8
_0-0_
  6
CONTINUOUS
 62
    7
 10
106.51005635119759
 20
138.42786652734665
 11
195.46777387252706
 21
138.42786652734665
  0
LINE
  8
_0-0_
  6
CONTINUOUS
 62
    7
 10
106.51005635119759
 20
266.05137324291582
 11
135.37972920970722
 21
266.05137324291582
  0
LINE
  8
_0-0_
  6
CONTINUOUS
 62
    7
 10
106.51005635119759
 20
266.05137324291582
 11
106.51005635119759
 21
296.8280395415818
  0
LINE
  8
_0-0_
  6
CONTINUOUS
 62
    7
 10
106.51005635119759
 20
266.05137324291582
 11
104.95714208058246
 21
271.84692820065027
  0
LINE
  8
_0-0_
  6
CONTINUOUS
 62
    7
 10
106.51005635119759
 20
266.05137324291582
 11
108.06297062181272
 21
271.84692820065027
  0
LINE
  8
_0-0_
  6
CONTINUOUS
 62
    7
 10
106.51005635119759
 20
296.8280395415818
 11
104.95714208058246
 21
291.03248458384741
  0
LINE
  8
_0-0_
  6
CONTINUOUS
 62
    7
 10
106.51005635119759
 20
296.8280395415818
 11
108.06297062181272
 21
291.03248458384741
  0
LINE
  8
_0-0_
  6
CONTINUOUS
 62
    7
 10
106.51005635119759
 20
296.8280395415818
 11
133.40572725354994
 21
296.8280395415818
  0
LINE
  8
_0-0_
  6
CONTINUOUS
 62
    7
 10
319.19405837165624
 20
138.39768391865658
 11
319.19405837165624
 21
256.39044444035153
  0
LINE
  8
_0-0_
  6
CONTINUOUS
 62
    7
 10
319.19405837165624
 20
138.39768391865658
 11
317.64114410104111
 21
144.19323887639098
  0
LINE
  8
_0-0_
  6
CONTINUOUS
 62
    7
 10
319.19405837165624
 20
138.39768391865658
 11
320.74697264227137
 21
144.19323887639098
  0
LINE
  8
_0-0_
  6
CONTINUOUS
 62
    7
 10
319.19405837165624
 20
256.39044444035153
 11
317.64114410104111
 21
250.59488948261713
  0
LINE
  8
_0-0_
  6
CONTINUOUS
 62
    7
 10
319.19405837165624
 20
256.39044444035153
 11
320.74697264227137
 21
250.59488948261713
  0
LINE
  8
_0-0_
  6
CONTINUOUS
 62
    7
 10
319.19405837165624
 20
138.39768391865658
 11
202.99342702441933
 21
138.39768391865661
  0
LINE
  8
_0-0_
  6
CONTINUOUS
 62
    7
 10
456.1071169907836
 20
224.11830759848334
 11
456.1071169907836
 21
288.69276530395319
  0
LINE
  8
_0-0_
  6
CONTINUOUS
 62
    7
 10
456.1071169907836
 20
224.11830759848334
 11
454.55420272016846
 21
229.91386255621777
  0
LINE
  8
_0-0_
  6
CONTINUOUS
 62
    7
 10
456.1071169907836
 20
224.11830759848334
 11
457.66003126139873
 21
229.91386255621777
  0
LINE
  8
_0-0_
  6
CONTINUOUS
 62
    7
 10
456.1071169907836
 20
288.69276530395319
 11
454.55420272016846
 21
282.8972103462188
  0
LINE
  8
_0-0_
  6
CONTINUOUS
 62
    7
 10
456.1071169907836
 20
288.69276530395319
 11
457.66003126139873
 21
282.8972103462188
  0
LINE
  8
_0-0_
  6
CONTINUOUS
 62
    7
 10
456.1071169907836
 20
224.11830759848334
 11
438.87706600371837
 21
224.11830759848334
  0
LINE
  8
_0-0_
  6
CONTINUOUS
 62
    7
 10
456.1071169907836
 20
288.69276530395319
 11
438.87706600371837
 21
288.69276530395319
  0
LINE
  8
_0-0_
  6
CONTINUOUS
 62
    7
 10
505.4972265337899
 20
240.50861150850091
 11
505.4972265337899
 21
272.30246139393563
  0
LINE
  8
_0-0_
  6
CONTINUOUS
 62
    7
 10
505.4972265337899
 20
240.50861150850091
 11
503.94431226317477
 21
246.30416646623533
  0
LINE
  8
_0-0_
  6
CONTINUOUS
 62
    7
 10
505.4972265337899
 20
240.50861150850091
 11
507.05014080440503
 21
246.30416646623533
  0
LINE
  8
_0-0_
  6
CONTINUOUS
 62
    7
 10
505.4972265337899
 20
272.30246139393563
 11
503.94431226317477
 21
266.50690643620123
  0
LINE
  8
_0-0_
  6
CONTINUOUS
 62
    7
 10
505.4972265337899
 20
272.30246139393563
 11
507.05014080440503
 21
266.50690643620123
  0
LINE
  8
_0-0_
  6
CONTINUOUS
 62
    7
 10
160.76146311917256
 20
310.51226740789753
 11
160.76146311917256
 21
325.56573486784367
  0
LINE
  8
_0-0_
  6
CONTINUOUS
 62
    7
 10
245.19569723401946
 20
325.56573486784367
 11
245.19569723401946
 21
209.94127064457894
  0
ENDSEC
  0
EOF
