  0
SECTION
  2
HEADER
  9
$ACADVER
  1
AC1009
  9
$INSBASE
 10
0
 20
0
 30
0
  9
$EXTMIN
 10
0
 20
0
  9
$EXTMAX
 10
840
 20
594
  9
$LIMMIN
 10
0
 20
0
  9
$LIMMAX
 10
840
 20
594
  9
$LTSCALE
 40
2
  0
ENDSEC
  0
SECTION
  2
TABLES
  0
TABLE
  2
LTYPE
 70
     9
  0
LTYPE
  2
CONTINUOUS
 70
    64
  3
実線
 72
    65
 73
     0
 40
0.0
  0
LTYPE
  2
DASHED1
 70
    64
  3
--  --  --  --  --  --  --  --  
 72
    65
 73
     2
 40
2.5
 49
1.25
 49
-1.25
  0
LTYPE
  2
DASHED2
 70
    64
  3
----    ----    ----    ----    
 72
    65
 73
     2
 40
5.0
 49
2.5
 49
-2.5
  0
LTYPE
  2
DASHED3
 70
    64
  3
------  ------  ------  ------  
 72
    65
 73
     2
 40
5.0
 49
3.75
 49
-1.25
  0
LTYPE
  2
CENTER1
 70
    64
  3
----- - ----- - ----- - ----- - 
 72
    65
 73
     4
 40
10.0
 49
6.25
 49
-1.25
 49
1.25
 49
-1.25
  0
LTYPE
  2
CENTER2
 70
    64
  3
----------  --  ----------  --  
 72
    65
 73
     4
 40
20.0
 49
12.5
 49
-2.5
 49
2.5
 49
-2.5
  0
LTYPE
  2
PHANTOM1
 70
    64
  3
--- - - --- - - --- - - --- - - 
 72
    65
 73
     6
 40
10.0
 49
3.25
 49
-1.25
 49
1.25
 49
-1.25
 49
1.25
 49
-1.25
  0
LTYPE
  2
PHANTOM2
 70
    64
  3
--------  -  -  --------  -  -  
 72
    65
 73
     6
 40
20.0
 49
10.0
 49
-2.5
 49
1.25
 49
-2.5
 49
1.25
 49
-2.5
  0
LTYPE
  2
DOT
 70
    64
  3
-   -   -   -   -   -   -   -   
 72
    65
 73
     2
 40
2.5
 49
0.625
 49
-1.875
  0
LTYPE
  2
DUMMY
 70
    64
  3
ダミー
 72
    65
 73
     0
 40
0.0
  0
LTYPE
  2
RAND1
 70
    64
  3
ランダム線1
 72
    65
 73
     4
 40
10.0
 49
1.0
 49
-2.0
 49
3.0
 49
-4.0
  0
LTYPE
  2
RAND2
 70
    64
  3
ランダム線2
 72
    65
 73
     4
 40
14.0
 49
2.0
 49
-3.0
 49
4.0
 49
-5.0
  0
LTYPE
  2
RAND3
 70
    64
  3
ランダム線3
 72
    65
 73
     4
 40
18.0
 49
3.0
 49
-4.0
 49
5.0
 49
-6.0
  0
LTYPE
  2
RAND4
 70
    64
  3
ランダム線4
 72
    65
 73
     4
 40
22.0
 49
4.0
 49
-5.0
 49
6.0
 49
-7.0
  0
LTYPE
  2
RAND5
 70
    64
  3
ランダム線5
 72
    65
 73
     4
 40
26.0
 49
5.0
 49
-6.0
 49
7.0
 49
-8.0
  0
LTYPE
  2
LONG1
 70
    64
  3
----------  --  ----------  --  
 72
    65
 73
     4
 40
40.0
 49
32.5
 49
-2.5
 49
2.5
 49
-2.5
  0
LTYPE
  2
LONG2
 70
    64
  3
--------  -  -  --------  -  -  
 72
    65
 73
     6
 40
40.0
 49
30.0
 49
-2.5
 49
1.25
 49
-2.5
 49
1.25
 49
-2.5
  0
LTYPE
  2
LONG3
 70
    64
  3
+++++++++++++++..+++++++++++++++
 72
    65
 73
     2
 40
40.0
 49
37.5
 49
-2.5
  0
LTYPE
  2
LONG4
 70
    64
  3
+++++++++++++++..+++++++++++++++
 72
    65
 73
     2
 40
80.0
 49
75.0
 49
-5.0
  0
LTYPE
  2
LONG5
 70
    64
  3
----------  --  ----------  --  
 72
    65
 73
     4
 40
60.0
 49
37.5
 49
-7.5
 49
7.5
 49
-7.5
  0
LTYPE
  2
dashed
 70
   64
  3
-------   -------------   ------
 72
   65
 73
    2
 40
7.5
 49
6
 49
-1.5
  0
LTYPE
  2
dashed_spaced
 70
   64
  3
----        --------        ----
 72
   65
 73
    2
 40
12
 49
6
 49
-6
  0
LTYPE
  2
long_dashed_dotted
 70
   64
  3
------------- --- --------------
 72
   65
 73
    4
 40
15.25
 49
12
 49
-1.5
 49
0.25
 49
-1.5
  0
LTYPE
  2
long_dashed_double-dotted
 70
   64
  3
----------- --- --- ------------
 72
   65
 73
    6
 40
17
 49
12
 49
-1.5
 49
0.25
 49
-1.5
 49
0.25
 49
-1.5
  0
LTYPE
  2
long_dashed_triplicate-dotted
 70
   64
  3
--------- --- --- --- ----------
 72
   65
 73
    8
 40
18.75
 49
12
 49
-1.5
 49
0.25
 49
-1.5
 49
0.25
 49
-1.5
 49
0.25
 49
-1.5
  0
LTYPE
  2
dotted
 70
   64
  3
   -       -       -       -    
 72
   65
 73
    2
 40
1.75
 49
0.25
 49
-1.5
  0
LTYPE
  2
chain
 70
   64
  3
-------------- -- --------------
 72
   65
 73
    4
 40
18.5
 49
12
 49
-1.5
 49
3.5
 49
-1.5
  0
LTYPE
  2
chain_double_dash
 70
   64
  3
------------ -- -- -------------
 72
   65
 73
    6
 40
23.5
 49
12
 49
-1.5
 49
3.5
 49
-1.5
 49
3.5
 49
-1.5
  0
LTYPE
  2
dashed_dotted
 70
   64
  3
-----------     -     ----------
 72
   65
 73
    4
 40
9.25
 49
6
 49
-1.5
 49
0.25
 49
-1.5
  0
LTYPE
  2
double-dashed_dotted
 70
   64
  3
------   -----------   -   -----
 72
   65
 73
    6
 40
16.75
 49
6
 49
-1.5
 49
6
 49
-1.5
 49
0.25
 49
-1.5
  0
LTYPE
  2
dashed_double-dotted
 70
   64
  3
---------    -    -    ---------
 72
   65
 73
    6
 40
11
 49
6
 49
-1.5
 49
0.25
 49
-1.5
 49
0.25
 49
-1.5
  0
LTYPE
  2
double-dashed_double-dotted
 70
   64
  3
-----   ---------   -   -   ----
 72
   65
 73
    8
 40
18.5
 49
6
 49
-1.5
 49
6
 49
-1.5
 49
0.25
 49
-1.5
 49
0.25
 49
-1.5
  0
LTYPE
  2
dashed_triplicate-dotted
 70
   64
  3
-------    -    -    -    ------
 72
   65
 73
    8
 40
12.75
 49
6
 49
-1.5
 49
0.25
 49
-1.5
 49
0.25
 49
-1.5
 49
0.25
 49
-1.5
  0
LTYPE
  2
double-dashed_triplicate-dotted
 70
   64
  3
-----  ---------  -  -  -  -----
 72
   65
 73
   10
 40
20.25
 49
6
 49
-1.5
 49
6
 49
-1.5
 49
0.25
 49
-1.5
 49
0.25
 49
-1.5
 49
0.25
 49
-1.5
  0
LTYPE
  2
undefined
 70
   64
  3
--------------------------------
 72
   65
 73
    0
 40
0
  0
LTYPE
  2
CENTER
 70
   64
  3
----------    ----    ----------
 72
   65
 73
    4
 40
50.799999999999983
 49
31.75
 49
-6.3499999999999979
 49
6.3499999999999979
 49
-6.3499999999999979
  0
LTYPE
  2
HIDDEN
 70
   64
  3
------     -----------     -----
 72
   65
 73
    2
 40
9.524999999999995
 49
6.3499999999999979
 49
-3.174999999999998
  0
LTYPE
  2
CENTER2_19
 70
   64
  3
----------    ----    ----------
 72
   65
 73
    4
 40
28.574999999999996
 49
19.050000000000001
 49
-3.1749999999999989
 49
3.1749999999999989
 49
-3.1749999999999989
  0
LTYPE
  2
DASHED
 70
   64
  3
------     -----------     -----
 72
   65
 73
    2
 40
19.049999999999997
 49
12.699999999999999
 49
-6.3499999999999988
  0
ENDTAB
  0
TABLE
  2
STYLE
  5
3
100
AcDbSymbolTable
 70
     1
  0
STYLE
  5
10
100
AcDbSymbolTableRecord
100
AcDbTextStyleTableRecord
  2
STANDARD
 70
     0
 40
0.0
 41
1.0
 50
0.0
 71
     0
 42
0.2
  3
txt
  4
bigfont.shx
  0
STYLE
  5
26
100
AcDbSymbolTableRecord
100
AcDbTextStyleTableRecord
  2
TATEGAKI
 70
    68
 40
0.0
 41
1.0
 50
0.0
 71
     0
 42
1.0
  3
txt
  4
bigfont.shx
  0
ENDTAB
  0
TABLE
  2
LAYER
 70
   10
  0
LAYER
  2
_0-1_1
 70
   64
 62
    7
  6
CONTINUOUS
  0
LAYER
  2
_0-2_0
 70
   64
 62
    7
  6
CONTINUOUS
  0
LAYER
  2
_0-3_寸法線
 70
   64
 62
    7
  6
CONTINUOUS
  0
LAYER
  2
_0-4_中心線
 70
   64
 62
    7
  6
CONTINUOUS
  0
LAYER
  2
_0-5_DEFPOINTS
 70
   64
 62
    7
  6
CONTINUOUS
  0
LAYER
  2
_0-6_図面枠
 70
   64
 62
    7
  6
CONTINUOUS
  0
LAYER
  2
_0-7_細線
 70
   64
 62
    7
  6
CONTINUOUS
  0
LAYER
  2
_0-8__0-0_
 70
   64
 62
    7
  6
CONTINUOUS
  0
LAYER
  2
_0-9_文字
 70
   64
 62
    7
  6
CONTINUOUS
  0
LAYER
  2
ADD_LINE
 70
   64
 62
    7
  6
CONTINUOUS
  0
ENDTAB
  0
ENDSEC
  0
SECTION
  2
BLOCKS
  0
BLOCK
  2
-000-_X37
 70
   64
 10
0
 20
0
 30
0
  0
LINE
  8
_0-2_0
  6
CENTER
 62
    7
 10
441.32949816313157
 20
323.398222392565
 11
428.3294981631318
 21
323.398222392565
  0
LINE
  8
_0-2_0
  6
CENTER
 62
    7
 10
441.32949816313157
 20
321.398222392565
 11
428.32949816313169
 21
321.398222392565
  0
LINE
  8
_0-2_0
  6
CENTER
 62
    7
 10
441.32949816313152
 20
319.398222392565
 11
428.32949816313169
 21
319.398222392565
  0
LINE
  8
_0-2_0
  6
CENTER
 62
    7
 10
441.3294981631314
 20
317.398222392565
 11
428.32949816313169
 21
317.398222392565
  0
LINE
  8
_0-2_0
  6
CENTER
 62
    7
 10
441.3294981631314
 20
315.398222392565
 11
428.3294981631318
 21
315.398222392565
  0
LINE
  8
_0-2_0
  6
CENTER
 62
    7
 10
441.3294981631314
 20
313.398222392565
 11
428.32949816313192
 21
313.398222392565
  0
LINE
  8
_0-2_0
  6
CENTER
 62
    7
 10
441.32949816313129
 20
311.398222392565
 11
428.32949816313192
 21
311.398222392565
  0
LINE
  8
_0-2_0
  6
CENTER
 62
    7
 10
441.32949816313129
 20
309.398222392565
 11
428.3294981631318
 21
309.398222392565
  0
LINE
  8
_0-2_0
  6
CENTER
 62
    7
 10
441.32949816313118
 20
307.398222392565
 11
428.32949816313169
 21
307.398222392565
  0
LINE
  8
_0-2_0
  6
CENTER
 62
    7
 10
441.32949816313118
 20
305.398222392565
 11
428.32949816313169
 21
305.398222392565
  0
LINE
  8
_0-2_0
  6
CENTER
 62
    7
 10
441.32949816313129
 20
303.398222392565
 11
428.32949816313169
 21
303.398222392565
  0
ENDBLK
  0
ENDSEC
  0
SECTION
  2
ENTITIES
  0
LINE
  8
_0-5_DEFPOINTS
  6
CONTINUOUS
 62
    6
 10
104.99999853316706
 20
-148.50000207452115
 11
734.99999853316706
 21
-148.50000207452115
  0
LINE
  8
_0-5_DEFPOINTS
  6
CONTINUOUS
 62
    6
 10
734.99999853316706
 20
-148.50000207452115
 11
734.99999853316706
 21
742.49999792547885
  0
LINE
  8
_0-5_DEFPOINTS
  6
CONTINUOUS
 62
    6
 10
734.99999853316706
 20
742.49999792547885
 11
104.99999853316706
 21
742.49999792547885
  0
LINE
  8
_0-5_DEFPOINTS
  6
CONTINUOUS
 62
    6
 10
104.99999853316706
 20
742.49999792547885
 11
104.99999853316706
 21
-148.50000207452115
  0
LINE
  8
_0-6_図面枠
  6
CONTINUOUS
 62
    7
 10
708.66983395957857
 20
712.7473152515613
 11
708.66983395957857
 21
-118.74731940060377
  0
LINE
  8
_0-6_図面枠
  6
CONTINUOUS
 62
    7
 10
131.33016310675509
 20
712.7473152515613
 11
708.66983395957857
 21
712.7473152515613
  0
LINE
  8
_0-6_図面枠
  6
CONTINUOUS
 62
    7
 10
708.66983395957857
 20
-118.74731940060377
 11
131.33016310675509
 21
-118.74731940060377
  0
LINE
  8
_0-6_図面枠
  6
CONTINUOUS
 62
    7
 10
513.66983395957936
 20
-64.747319406003783
 11
513.66983395957936
 21
-118.74731940060377
  0
LINE
  8
_0-6_図面枠
  6
CONTINUOUS
 62
    7
 10
708.66983395957857
 20
-64.747319406004124
 11
131.33016310675509
 21
-64.747319406004124
  0
LINE
  8
_0-7_細線
  6
CONTINUOUS
 62
    4
 10
166.233486499886
 20
-108.30453293415331
 11
178.84503590647989
 21
-108.30453293415331
  0
LINE
  8
_0-7_細線
  6
CONTINUOUS
 62
    4
 10
178.84503590647989
 20
-108.30453293415331
 11
178.84503590647989
 21
-95.675225301927583
  0
LINE
  8
_0-7_細線
  6
CONTINUOUS
 62
    4
 10
166.233486499886
 20
-95.675225301927583
 11
166.233486499886
 21
-108.30453293415331
  0
LINE
  8
_0-7_細線
  6
CONTINUOUS
 62
    4
 10
178.84503590647989
 20
-95.675225301927583
 11
166.233486499886
 21
-95.675225301927583
  0
LINE
  8
_0-7_細線
  6
CONTINUOUS
 62
    4
 10
180.27400239385531
 20
-91.556850012555799
 11
186.72400239385468
 21
-80.385122303736978
  0
LINE
  8
_0-7_細線
  6
CONTINUOUS
 62
    4
 10
180.27400239385531
 20
-91.556850012555799
 11
193.1740023938554
 21
-91.556850012555799
  0
LINE
  8
_0-7_細線
  6
CONTINUOUS
 62
    4
 10
186.72400239385468
 20
-80.385122303736978
 11
193.1740023938554
 21
-91.556850012555799
  0
CIRCLE
  8
_0-7_細線
  6
CONTINUOUS
 62
    4
 10
196.87231077436525
 20
-77.99781236972143
 40
4.4276147505487149
  0
LINE
  8
_0-7_細線
  6
CONTINUOUS
 62
    4
 10
205.77269846671686
 20
-101.7150324476151
 11
211.20949337325226
 21
-101.7150324476151
  0
LINE
  8
_0-7_細線
  6
CONTINUOUS
 62
    4
 10
212.60841634771796
 20
-104.71503244761499
 11
214.42701621452244
 21
-108.61503244761519
  0
LINE
  8
_0-7_細線
  6
CONTINUOUS
 62
    4
 10
204.37377549225118
 20
-104.71503244761499
 11
202.55517562544708
 21
-108.61503244761519
  0
LINE
  8
_0-7_細線
  6
CONTINUOUS
 62
    4
 10
208.49109591998456
 20
-95.885410296385714
 11
211.20949337325226
 21
-101.7150324476151
  0
LINE
  8
_0-7_細線
  6
CONTINUOUS
 62
    4
 10
208.49109591998456
 20
-95.885410296385714
 11
205.77269846671686
 21
-101.7150324476151
  0
LINE
  8
_0-7_細線
  6
CONTINUOUS
 62
    4
 10
206.70615647163947
 20
-91.349648306065262
 11
198.65517562544653
 21
-108.61503244761519
  0
LINE
  8
_0-7_細線
  6
CONTINUOUS
 62
    4
 10
230.23477483892555
 20
-94.349648306065262
 11
230.45921686368536
 21
-94.472818540343781
  0
LINE
  8
_0-7_細線
  6
CONTINUOUS
 62
    4
 10
230.45921686368536
 20
-94.472818540343781
 11
230.84200622207925
 21
-94.688007138587807
  0
LINE
  8
_0-7_細線
  6
CONTINUOUS
 62
    4
 10
230.84200622207925
 20
-94.688007138587807
 11
231.21318544210345
 21
-94.911046085029454
  0
LINE
  8
_0-7_細線
  6
CONTINUOUS
 62
    4
 10
231.21318544210345
 20
-94.911046085029454
 11
231.56540633491466
 21
-95.146903954475931
  0
LINE
  8
_0-7_細線
  6
CONTINUOUS
 62
    4
 10
231.56540633491466
 20
-95.146903954475931
 11
231.89132071167376
 21
-95.40054932173615
  0
LINE
  8
_0-7_細線
  6
CONTINUOUS
 62
    4
 10
231.89132071167376
 20
-95.40054932173615
 11
232.18358038353736
 21
-95.676950761617888
  0
LINE
  8
_0-7_細線
  6
CONTINUOUS
 62
    4
 10
232.18358038353736
 20
-95.676950761617888
 11
232.33477483892494
 21
-95.849648306065262
  0
LINE
  8
_0-7_細線
  6
CONTINUOUS
 62
    4
 10
232.33477483892494
 20
-95.849648306065262
 11
232.55062075062406
 21
-96.154251895388882
  0
LINE
  8
_0-7_細線
  6
CONTINUOUS
 62
    4
 10
232.55062075062406
 20
-96.154251895388882
 11
232.83698746289096
 21
-96.736785743935741
  0
LINE
  8
_0-7_細線
  6
CONTINUOUS
 62
    4
 10
232.83698746289096
 20
-96.736785743935741
 11
233.03029778304415
 21
-97.380443714758087
  0
LINE
  8
_0-7_細線
  6
CONTINUOUS
 62
    4
 10
233.03029778304415
 20
-97.380443714758087
 11
233.14860714467645
 21
-98.071879929630711
  0
LINE
  8
_0-7_細線
  6
CONTINUOUS
 62
    4
 10
233.14860714467645
 20
-98.071879929630711
 11
233.20997098137906
 21
-98.797748510326358
  0
LINE
  8
_0-7_細線
  6
CONTINUOUS
 62
    4
 10
233.20997098137906
 20
-98.797748510326358
 11
233.23244472674546
 21
-99.54470357861959
  0
LINE
  8
_0-7_細線
  6
CONTINUOUS
 62
    4
 10
233.23244472674546
 20
-99.54470357861959
 11
233.23477483892555
 21
-99.982340376840114
  0
LINE
  8
_0-7_細線
  6
CONTINUOUS
 62
    4
 10
233.23477483892555
 20
-99.982340376840114
 11
233.23244472674546
 21
-100.41997717506052
  0
LINE
  8
_0-7_細線
  6
CONTINUOUS
 62
    4
 10
233.23244472674546
 20
-100.41997717506052
 11
233.20997098137906
 21
-101.16693224335376
  0
LINE
  8
_0-7_細線
  6
CONTINUOUS
 62
    4
 10
233.20997098137906
 20
-101.16693224335376
 11
233.14860714467645
 21
-101.89280082404929
  0
LINE
  8
_0-7_細線
  6
CONTINUOUS
 62
    4
 10
233.14860714467645
 20
-101.89280082404929
 11
233.03029778304415
 21
-102.5842370389218
  0
LINE
  8
_0-7_細線
  6
CONTINUOUS
 62
    4
 10
233.03029778304415
 20
-102.5842370389218
 11
232.83698746289096
 21
-103.22789500974471
  0
LINE
  8
_0-7_細線
  6
CONTINUOUS
 62
    4
 10
232.83698746289096
 20
-103.22789500974471
 11
232.55062075062406
 21
-103.81042885829135
  0
LINE
  8
_0-7_細線
  6
CONTINUOUS
 62
    4
 10
232.55062075062406
 20
-103.81042885829135
 11
232.33477483892494
 21
-104.11503244761519
  0
LINE
  8
_0-7_細線
  6
CONTINUOUS
 62
    4
 10
232.33477483892494
 20
-104.11503244761519
 11
232.18358038353736
 21
-104.287729992062
  0
LINE
  8
_0-7_細線
  6
CONTINUOUS
 62
    4
 10
232.18358038353736
 20
-104.287729992062
 11
231.89132071167376
 21
-104.56413143194374
  0
LINE
  8
_0-7_細線
  6
CONTINUOUS
 62
    4
 10
231.89132071167376
 20
-104.56413143194374
 11
231.56540633491466
 21
-104.8177767992043
  0
LINE
  8
_0-7_細線
  6
CONTINUOUS
 62
    4
 10
231.56540633491466
 20
-104.8177767992043
 11
231.21318544210345
 21
-105.05363466865077
  0
LINE
  8
_0-7_細線
  6
CONTINUOUS
 62
    4
 10
231.21318544210345
 20
-105.05363466865077
 11
230.84200622207925
 21
-105.27667361509231
  0
LINE
  8
_0-7_細線
  6
CONTINUOUS
 62
    4
 10
230.84200622207925
 20
-105.27667361509231
 11
230.45921686368536
 21
-105.4918622133369
  0
LINE
  8
_0-7_細線
  6
CONTINUOUS
 62
    4
 10
230.45921686368536
 20
-105.4918622133369
 11
230.23477483892555
 21
-105.61503244761519
  0
LINE
  8
_0-7_細線
  6
CONTINUOUS
 62
    4
 10
230.23477483892555
 20
-108.61503244761519
 11
230.43124101849827
 21
-108.56417103275083
  0
LINE
  8
_0-7_細線
  6
CONTINUOUS
 62
    4
 10
230.43124101849827
 20
-108.56417103275083
 11
230.77017311487805
 21
-108.47559777067778
  0
LINE
  8
_0-7_細線
  6
CONTINUOUS
 62
    4
 10
230.77017311487805
 20
-108.47559777067778
 11
231.10965327795867
 21
-108.38457682115978
  0
LINE
  8
_0-7_細線
  6
CONTINUOUS
 62
    4
 10
231.10965327795867
 20
-108.38457682115978
 11
231.45002838540026
 21
-108.2895590149289
  0
LINE
  8
_0-7_細線
  6
CONTINUOUS
 62
    4
 10
231.45002838540026
 20
-108.2895590149289
 11
231.79164531485986
 21
-108.18899518271729
  0
LINE
  8
_0-7_細線
  6
CONTINUOUS
 62
    4
 10
231.79164531485986
 20
-108.18899518271729
 11
232.13485094399755
 21
-108.08133615525509
  0
LINE
  8
_0-7_細線
  6
CONTINUOUS
 62
    4
 10
232.13485094399755
 20
-108.08133615525509
 11
232.33477483892494
 21
-108.01503244761517
  0
LINE
  8
_0-7_細線
  6
CONTINUOUS
 62
    4
 10
232.33477483892494
 20
-108.01503244761517
 11
232.73228755680506
 21
-107.8740842480733
  0
LINE
  8
_0-7_細線
  6
CONTINUOUS
 62
    4
 10
232.73228755680506
 20
-107.8740842480733
 11
233.41299533009695
 21
-107.59766261819442
  0
LINE
  8
_0-7_細線
  6
CONTINUOUS
 62
    4
 10
233.41299533009695
 20
-107.59766261819442
 11
234.07074511525377
 21
-107.27317591038542
  0
LINE
  8
_0-7_細線
  6
CONTINUOUS
 62
    4
 10
234.07074511525377
 20
-107.27317591038542
 11
234.68569907160216
 21
-106.8939065520421
  0
LINE
  8
_0-7_細線
  6
CONTINUOUS
 62
    4
 10
234.68569907160216
 20
-106.8939065520421
 11
235.23801935846757
 21
-106.4531369705598
  0
LINE
  8
_0-7_細線
  6
CONTINUOUS
 62
    4
 10
235.23801935846757
 20
-106.4531369705598
 11
235.70786813517935
 21
-105.94414959333488
  0
LINE
  8
_0-7_細線
  6
CONTINUOUS
 62
    4
 10
235.70786813517935
 20
-105.94414959333488
 11
235.93477483892485
 21
-105.61503244761519
  0
LINE
  8
_0-7_細線
  6
CONTINUOUS
 62
    4
 10
235.93477483892485
 20
-105.61503244761519
 11
236.00998634116496
 21
-105.48547857854641
  0
LINE
  8
_0-7_細線
  6
CONTINUOUS
 62
    4
 10
236.00998634116496
 20
-105.48547857854641
 11
236.12821423059077
 21
-105.25438225353577
  0
LINE
  8
_0-7_細線
  6
CONTINUOUS
 62
    4
 10
236.12821423059077
 20
-105.25438225353577
 11
236.23359859662045
 21
-105.01494847967052
  0
LINE
  8
_0-7_細線
  6
CONTINUOUS
 62
    4
 10
236.23359859662045
 20
-105.01494847967052
 11
236.32805396818677
 21
-104.76885668091433
  0
LINE
  8
_0-7_細線
  6
CONTINUOUS
 62
    4
 10
236.32805396818677
 20
-104.76885668091433
 11
236.41349487421925
 21
-104.51778628123071
  0
LINE
  8
_0-7_細線
  6
CONTINUOUS
 62
    4
 10
236.41349487421925
 20
-104.51778628123071
 11
236.49183584365105
 21
-104.26341670458345
  0
LINE
  8
_0-7_細線
  6
CONTINUOUS
 62
    4
 10
236.49183584365105
 20
-104.26341670458345
 11
236.53477483892476
 21
-104.11503244761519
  0
LINE
  8
_0-7_細線
  6
CONTINUOUS
 62
    4
 10
236.53477483892476
 20
-104.11503244761519
 11
236.63922033374536
 21
-103.7303504541199
  0
LINE
  8
_0-7_細線
  6
CONTINUOUS
 62
    4
 10
236.63922033374536
 20
-103.7303504541199
 11
236.79717997335126
 21
-103.06409573793957
  0
LINE
  8
_0-7_細線
  6
CONTINUOUS
 62
    4
 10
236.79717997335126
 20
-103.06409573793957
 11
236.92622042289787
 21
-102.3946333381387
  0
LINE
  8
_0-7_細線
  6
CONTINUOUS
 62
    4
 10
236.92622042289787
 20
-102.3946333381387
 11
237.02527109008705
 21
-101.72266362232
  0
LINE
  8
_0-7_細線
  6
CONTINUOUS
 62
    4
 10
237.02527109008705
 20
-101.72266362232
 11
237.09326138261696
 21
-101.04888695808626
  0
LINE
  8
_0-7_細線
  6
CONTINUOUS
 62
    4
 10
237.09326138261696
 20
-101.04888695808626
 11
237.12912070818976
 21
-100.37400371304028
  0
LINE
  8
_0-7_細線
  6
CONTINUOUS
 62
    4
 10
237.12912070818976
 20
-100.37400371304028
 11
237.13477483892515
 21
-99.982340376840114
  0
LINE
  8
_0-7_細線
  6
CONTINUOUS
 62
    4
 10
237.13477483892515
 20
-99.982340376840114
 11
237.12912070818976
 21
-99.590677040639832
  0
LINE
  8
_0-7_細線
  6
CONTINUOUS
 62
    4
 10
237.12912070818976
 20
-99.590677040639832
 11
237.09326138261696
 21
-98.91579379559397
  0
LINE
  8
_0-7_細線
  6
CONTINUOUS
 62
    4
 10
237.09326138261696
 20
-98.91579379559397
 11
237.02527109008705
 21
-98.242017131360683
  0
LINE
  8
_0-7_細線
  6
CONTINUOUS
 62
    4
 10
237.02527109008705
 20
-98.242017131360683
 11
236.92622042289787
 21
-97.570047415541978
  0
LINE
  8
_0-7_細線
  6
CONTINUOUS
 62
    4
 10
236.92622042289787
 20
-97.570047415541978
 11
236.79717997335126
 21
-96.90058501574066
  0
LINE
  8
_0-7_細線
  6
CONTINUOUS
 62
    4
 10
236.79717997335126
 20
-96.90058501574066
 11
236.63922033374536
 21
-96.234330299560554
  0
LINE
  8
_0-7_細線
  6
CONTINUOUS
 62
    4
 10
236.63922033374536
 20
-96.234330299560554
 11
236.53477483892476
 21
-95.849648306065262
  0
LINE
  8
_0-7_細線
  6
CONTINUOUS
 62
    4
 10
236.53477483892476
 20
-95.849648306065262
 11
236.49183584365105
 21
-95.701264049096778
  0
LINE
  8
_0-7_細線
  6
CONTINUOUS
 62
    4
 10
236.49183584365105
 20
-95.701264049096778
 11
236.41349487421925
 21
-95.446894472449969
  0
LINE
  8
_0-7_細線
  6
CONTINUOUS
 62
    4
 10
236.41349487421925
 20
-95.446894472449969
 11
236.32805396818677
 21
-95.195824072766243
  0
LINE
  8
_0-7_細線
  6
CONTINUOUS
 62
    4
 10
236.32805396818677
 20
-95.195824072766243
 11
236.23359859662045
 21
-94.949732274009591
  0
LINE
  8
_0-7_細線
  6
CONTINUOUS
 62
    4
 10
236.23359859662045
 20
-94.949732274009591
 11
236.12821423059077
 21
-94.710298500144461
  0
LINE
  8
_0-7_細線
  6
CONTINUOUS
 62
    4
 10
236.12821423059077
 20
-94.710298500144461
 11
236.00998634116496
 21
-94.479202175134162
  0
LINE
  8
_0-7_細線
  6
CONTINUOUS
 62
    4
 10
236.00998634116496
 20
-94.479202175134162
 11
235.93477483892485
 21
-94.349648306065262
  0
LINE
  8
_0-7_細線
  6
CONTINUOUS
 62
    4
 10
235.93477483892485
 20
-94.349648306065262
 11
235.70786813517935
 21
-94.020531160345229
  0
LINE
  8
_0-7_細線
  6
CONTINUOUS
 62
    4
 10
235.70786813517935
 20
-94.020531160345229
 11
235.23801935846757
 21
-93.511543783120317
  0
LINE
  8
_0-7_細線
  6
CONTINUOUS
 62
    4
 10
235.23801935846757
 20
-93.511543783120317
 11
234.68569907160216
 21
-93.070774201638358
  0
LINE
  8
_0-7_細線
  6
CONTINUOUS
 62
    4
 10
234.68569907160216
 20
-93.070774201638358
 11
234.07074511525377
 21
-92.691504843295149
  0
LINE
  8
_0-7_細線
  6
CONTINUOUS
 62
    4
 10
234.07074511525377
 20
-92.691504843295149
 11
233.41299533009695
 21
-92.367018135486035
  0
LINE
  8
_0-7_細線
  6
CONTINUOUS
 62
    4
 10
233.41299533009695
 20
-92.367018135486035
 11
232.73228755680506
 21
-92.090596505607152
  0
LINE
  8
_0-7_細線
  6
CONTINUOUS
 62
    4
 10
232.73228755680506
 20
-92.090596505607152
 11
232.33477483892494
 21
-91.949648306065285
  0
LINE
  8
_0-7_細線
  6
CONTINUOUS
 62
    4
 10
232.33477483892494
 20
-91.949648306065285
 11
232.13485094399755
 21
-91.883344598425481
  0
LINE
  8
_0-7_細線
  6
CONTINUOUS
 62
    4
 10
232.13485094399755
 20
-91.883344598425481
 11
231.79164531485986
 21
-91.775685570962935
  0
LINE
  8
_0-7_細線
  6
CONTINUOUS
 62
    4
 10
231.79164531485986
 20
-91.775685570962935
 11
231.45002838540026
 21
-91.675121738751102
  0
LINE
  8
_0-7_細線
  6
CONTINUOUS
 62
    4
 10
231.45002838540026
 20
-91.675121738751102
 11
231.10965327795867
 21
-91.580103932520672
  0
LINE
  8
_0-7_細線
  6
CONTINUOUS
 62
    4
 10
231.10965327795867
 20
-91.580103932520672
 11
230.77017311487805
 21
-91.489082983002788
  0
LINE
  8
_0-7_細線
  6
CONTINUOUS
 62
    4
 10
230.77017311487805
 20
-91.489082983002788
 11
230.43124101849827
 21
-91.400509720929733
  0
LINE
  8
_0-7_細線
  6
CONTINUOUS
 62
    4
 10
230.43124101849827
 20
-91.400509720929733
 11
230.23477483892555
 21
-91.349648306065262
  0
LINE
  8
_0-7_細線
  6
CONTINUOUS
 62
    4
 10
241.03477483892476
 20
-91.349648306065262
 11
247.13575568511746
 21
-104.43324395262158
  0
LINE
  8
_0-7_細線
  6
CONTINUOUS
 62
    4
 10
253.23673653131016
 20
-91.349648306065262
 11
247.13575568511746
 21
-104.43324395262158
  0
LINE
  8
_0-7_細線
  6
CONTINUOUS
 62
    4
 10
237.13477483892515
 20
-91.349648306065262
 11
245.18575568511807
 21
-108.61503244761519
  0
LINE
  8
_0-7_細線
  6
CONTINUOUS
 62
    4
 10
249.08575568511776
 20
-108.61503244761519
 11
257.13673653130979
 21
-91.349648306065262
  0
LINE
  8
_0-7_細線
  6
CONTINUOUS
 62
    4
 10
260.13673653131065
 20
-91.349648306065262
 11
252.08575568511776
 21
-108.61503244761519
  0
LINE
  8
_0-7_細線
  6
CONTINUOUS
 62
    4
 10
264.14303841265098
 20
-91.349648306065262
 11
272.19401925884296
 21
-108.61503244761519
  0
LINE
  8
_0-7_細線
  6
CONTINUOUS
 62
    4
 10
204.37377549225118
 20
-104.71503244761499
 11
212.60841634771796
 21
-104.71503244761499
  0
LINE
  8
_0-7_細線
  6
CONTINUOUS
 62
    4
 10
257.80435555192145
 20
-104.71503244761499
 11
266.47541939203876
 21
-104.71503244761499
  0
LINE
  8
_0-7_細線
  6
CONTINUOUS
 62
    4
 10
259.20327852638718
 20
-101.7150324476151
 11
265.07649641757405
 21
-101.7150324476151
  0
LINE
  8
_0-7_細線
  6
CONTINUOUS
 62
    4
 10
277.82366464299218
 20
-94.349648306065262
 11
286.73766598626003
 21
-108.61503244761519
  0
LINE
  8
_0-7_細線
  6
CONTINUOUS
 62
    4
 10
288.55994277586694
 20
-105.30392119665265
 11
288.55994277586694
 21
-91.349648306065262
  0
LINE
  8
_0-7_細線
  6
CONTINUOUS
 62
    4
 10
291.85994277586713
 20
-108.61503244761519
 11
291.85994277586713
 21
-91.349648306065262
  0
LINE
  8
_0-7_細線
  6
CONTINUOUS
 62
    4
 10
279.84034531835994
 20
-91.349648306065262
 11
288.55994277586694
 21
-105.30392119665265
  0
LINE
  8
_0-7_細線
  6
CONTINUOUS
 62
    4
 10
273.92366464299209
 20
-91.349648306065262
 11
273.92366464299209
 21
-108.61503244761519
  0
LINE
  8
_0-7_細線
  6
CONTINUOUS
 62
    4
 10
230.23477483892555
 20
-94.349648306065262
 11
224.23477483892555
 21
-94.349648306065262
  0
LINE
  8
_0-7_細線
  6
CONTINUOUS
 62
    4
 10
224.23477483892555
 20
-105.61503244761519
 11
230.23477483892555
 21
-105.61503244761519
  0
LINE
  8
_0-7_細線
  6
CONTINUOUS
 62
    4
 10
265.07649641757405
 20
-101.7150324476151
 11
262.13988747198056
 21
-95.417454240959557
  0
LINE
  8
_0-7_細線
  6
CONTINUOUS
 62
    4
 10
259.20327852638718
 20
-101.7150324476151
 11
262.13988747198056
 21
-95.417454240959557
  0
LINE
  8
_0-7_細線
  6
CONTINUOUS
 62
    4
 10
255.98575568511737
 20
-108.61503244761519
 11
257.80435555192145
 21
-104.71503244761499
  0
LINE
  8
_0-7_細線
  6
CONTINUOUS
 62
    4
 10
268.29401925884287
 20
-108.61503244761519
 11
266.47541939203876
 21
-104.71503244761499
  0
LINE
  8
_0-7_細線
  6
CONTINUOUS
 62
    4
 10
277.82366464299218
 20
-94.349648306065262
 11
277.82366464299218
 21
-108.61503244761519
  0
LINE
  8
_0-7_細線
  6
CONTINUOUS
 62
    4
 10
198.65517562544653
 20
-108.61503244761519
 11
202.55517562544708
 21
-108.61503244761519
  0
LINE
  8
_0-7_細線
  6
CONTINUOUS
 62
    4
 10
214.42701621452244
 20
-108.61503244761519
 11
218.32701621452256
 21
-108.61503244761519
  0
LINE
  8
_0-7_細線
  6
CONTINUOUS
 62
    4
 10
210.27603536833055
 20
-91.349648306065262
 11
218.32701621452256
 21
-108.61503244761519
  0
LINE
  8
_0-7_細線
  6
CONTINUOUS
 62
    4
 10
210.27603536833055
 20
-91.349648306065262
 11
206.70615647163947
 21
-91.349648306065262
  0
LINE
  8
_0-7_細線
  6
CONTINUOUS
 62
    4
 10
220.33477483892545
 20
-91.349648306065262
 11
220.33477483892545
 21
-108.61503244761519
  0
LINE
  8
_0-7_細線
  6
CONTINUOUS
 62
    4
 10
224.23477483892555
 20
-94.349648306065262
 11
224.23477483892555
 21
-105.61503244761519
  0
LINE
  8
_0-7_細線
  6
CONTINUOUS
 62
    4
 10
220.33477483892545
 20
-108.61503244761519
 11
230.23477483892555
 21
-108.61503244761519
  0
LINE
  8
_0-7_細線
  6
CONTINUOUS
 62
    4
 10
230.23477483892555
 20
-91.349648306065262
 11
220.33477483892545
 21
-91.349648306065262
  0
LINE
  8
_0-7_細線
  6
CONTINUOUS
 62
    4
 10
241.03477483892476
 20
-91.349648306065262
 11
237.13477483892515
 21
-91.349648306065262
  0
LINE
  8
_0-7_細線
  6
CONTINUOUS
 62
    4
 10
245.18575568511807
 20
-108.61503244761519
 11
249.08575568511776
 21
-108.61503244761519
  0
LINE
  8
_0-7_細線
  6
CONTINUOUS
 62
    4
 10
257.13673653130979
 20
-91.349648306065262
 11
253.23673653131016
 21
-91.349648306065262
  0
LINE
  8
_0-7_細線
  6
CONTINUOUS
 62
    4
 10
252.08575568511776
 20
-108.61503244761519
 11
255.98575568511737
 21
-108.61503244761519
  0
LINE
  8
_0-7_細線
  6
CONTINUOUS
 62
    4
 10
268.29401925884287
 20
-108.61503244761519
 11
272.19401925884296
 21
-108.61503244761519
  0
LINE
  8
_0-7_細線
  6
CONTINUOUS
 62
    4
 10
273.92366464299209
 20
-108.61503244761519
 11
277.82366464299218
 21
-108.61503244761519
  0
LINE
  8
_0-7_細線
  6
CONTINUOUS
 62
    4
 10
286.73766598626003
 20
-108.61503244761519
 11
291.85994277586713
 21
-108.61503244761519
  0
LINE
  8
_0-7_細線
  6
CONTINUOUS
 62
    4
 10
291.85994277586713
 20
-91.349648306065262
 11
288.55994277586694
 21
-91.349648306065262
  0
LINE
  8
_0-7_細線
  6
CONTINUOUS
 62
    4
 10
279.84034531835994
 20
-91.349648306065262
 11
273.92366464299209
 21
-91.349648306065262
  0
LINE
  8
_0-7_細線
  6
CONTINUOUS
 62
    4
 10
264.14303841265098
 20
-91.349648306065262
 11
260.13673653131065
 21
-91.349648306065262
  0
LINE
  8
_0-7_細線
  6
CONTINUOUS
 62
    4
 10
198.87218781463559
 20
-108.14964830606533
 11
202.77218781463569
 21
-108.14964830606533
  0
LINE
  8
_0-7_細線
  6
CONTINUOUS
 62
    4
 10
214.21000402533338
 20
-108.14964830606533
 11
218.11000402533398
 21
-108.14964830606533
  0
LINE
  8
_0-7_細線
  6
CONTINUOUS
 62
    4
 10
220.33477483892545
 20
-108.14964830606533
 11
231.91707900931476
 21
-108.14964830606533
  0
LINE
  8
_0-7_細線
  6
CONTINUOUS
 62
    4
 10
244.96874349592906
 20
-108.14964830606533
 11
249.30276787430586
 21
-108.14964830606533
  0
LINE
  8
_0-7_細線
  6
CONTINUOUS
 62
    4
 10
252.30276787430637
 20
-108.14964830606533
 11
256.20276787430595
 21
-108.14964830606533
  0
LINE
  8
_0-7_細線
  6
CONTINUOUS
 62
    4
 10
268.07700706965517
 20
-108.14964830606533
 11
271.97700706965486
 21
-108.14964830606533
  0
LINE
  8
_0-7_細線
  6
CONTINUOUS
 62
    4
 10
273.92366464299209
 20
-108.14964830606533
 11
277.82366464299218
 21
-108.14964830606533
  0
LINE
  8
_0-7_細線
  6
CONTINUOUS
 62
    4
 10
286.44686169934153
 20
-108.14964830606533
 11
291.85994277586713
 21
-108.14964830606533
  0
LINE
  8
_0-7_細線
  6
CONTINUOUS
 62
    4
 10
199.15197240952864
 20
-107.54964830606519
 11
203.05197240952828
 21
-107.54964830606519
  0
LINE
  8
_0-7_細線
  6
CONTINUOUS
 62
    4
 10
213.93021943044124
 20
-107.54964830606519
 11
217.83021943044136
 21
-107.54964830606519
  0
LINE
  8
_0-7_細線
  6
CONTINUOUS
 62
    4
 10
220.33477483892545
 20
-107.54964830606519
 11
233.51032259413375
 21
-107.54964830606519
  0
LINE
  8
_0-7_細線
  6
CONTINUOUS
 62
    4
 10
244.68895890103596
 20
-107.54964830606519
 11
249.58255246919896
 21
-107.54964830606519
  0
LINE
  8
_0-7_細線
  6
CONTINUOUS
 62
    4
 10
252.58255246919896
 20
-107.54964830606519
 11
256.48255246919859
 21
-107.54964830606519
  0
LINE
  8
_0-7_細線
  6
CONTINUOUS
 62
    4
 10
267.79722247476167
 20
-107.54964830606519
 11
271.69722247476176
 21
-107.54964830606519
  0
LINE
  8
_0-7_細線
  6
CONTINUOUS
 62
    4
 10
273.92366464299209
 20
-107.54964830606519
 11
277.82366464299218
 21
-107.54964830606519
  0
LINE
  8
_0-7_細線
  6
CONTINUOUS
 62
    4
 10
286.07194008819607
 20
-107.54964830606519
 11
291.85994277586713
 21
-107.54964830606519
  0
LINE
  8
_0-7_細線
  6
CONTINUOUS
 62
    4
 10
199.43175700442168
 20
-106.94964830606528
 11
203.33175700442177
 21
-106.94964830606528
  0
LINE
  8
_0-7_細線
  6
CONTINUOUS
 62
    4
 10
213.65043483554734
 20
-106.94964830606528
 11
217.55043483554786
 21
-106.94964830606528
  0
LINE
  8
_0-7_細線
  6
CONTINUOUS
 62
    4
 10
220.33477483892545
 20
-106.94964830606528
 11
234.59531841886457
 21
-106.94964830606528
  0
LINE
  8
_0-7_細線
  6
CONTINUOUS
 62
    4
 10
244.40917430614297
 20
-106.94964830606528
 11
249.86233706409195
 21
-106.94964830606528
  0
LINE
  8
_0-7_細線
  6
CONTINUOUS
 62
    4
 10
252.86233706409195
 20
-106.94964830606528
 11
256.76233706409209
 21
-106.94964830606528
  0
LINE
  8
_0-7_細線
  6
CONTINUOUS
 62
    4
 10
267.51743787986914
 20
-106.94964830606528
 11
271.41743787986877
 21
-106.94964830606528
  0
LINE
  8
_0-7_細線
  6
CONTINUOUS
 62
    4
 10
273.92366464299209
 20
-106.94964830606528
 11
277.82366464299218
 21
-106.94964830606528
  0
LINE
  8
_0-7_細線
  6
CONTINUOUS
 62
    4
 10
285.69701847705056
 20
-106.94964830606528
 11
291.85994277586713
 21
-106.94964830606528
  0
LINE
  8
_0-7_細線
  6
CONTINUOUS
 62
    4
 10
199.71154159931382
 20
-106.34964830606515
 11
203.61154159931436
 21
-106.34964830606515
  0
LINE
  8
_0-7_細線
  6
CONTINUOUS
 62
    4
 10
213.37065024065515
 20
-106.34964830606515
 11
217.27065024065524
 21
-106.34964830606515
  0
LINE
  8
_0-7_細線
  6
CONTINUOUS
 62
    4
 10
220.33477483892545
 20
-106.34964830606515
 11
235.33355025882415
 21
-106.34964830606515
  0
LINE
  8
_0-7_細線
  6
CONTINUOUS
 62
    4
 10
244.12938971124987
 20
-106.34964830606515
 11
250.14212165898505
 21
-106.34964830606515
  0
LINE
  8
_0-7_細線
  6
CONTINUOUS
 62
    4
 10
253.14212165898496
 20
-106.34964830606515
 11
257.04212165898468
 21
-106.34964830606515
  0
LINE
  8
_0-7_細線
  6
CONTINUOUS
 62
    4
 10
267.23765328497564
 20
-106.34964830606515
 11
271.13765328497567
 21
-106.34964830606515
  0
LINE
  8
_0-7_細線
  6
CONTINUOUS
 62
    4
 10
273.92366464299209
 20
-106.34964830606515
 11
277.82366464299218
 21
-106.34964830606515
  0
LINE
  8
_0-7_細線
  6
CONTINUOUS
 62
    4
 10
285.32209686590505
 20
-106.34964830606515
 11
291.85994277586713
 21
-106.34964830606515
  0
LINE
  8
_0-7_細線
  6
CONTINUOUS
 62
    4
 10
199.99132619420732
 20
-105.74964830606535
 11
203.89132619420786
 21
-105.74964830606535
  0
LINE
  8
_0-7_細線
  6
CONTINUOUS
 62
    4
 10
213.09086564576126
 20
-105.74964830606535
 11
216.99086564576174
 21
-105.74964830606535
  0
LINE
  8
_0-7_細線
  6
CONTINUOUS
 62
    4
 10
220.33477483892545
 20
-105.74964830606535
 11
235.84196520834155
 21
-105.74964830606535
  0
LINE
  8
_0-7_細線
  6
CONTINUOUS
 62
    4
 10
243.84960511635686
 20
-105.74964830606535
 11
250.42190625387806
 21
-105.74964830606535
  0
LINE
  8
_0-7_細線
  6
CONTINUOUS
 62
    4
 10
253.42190625387806
 20
-105.74964830606535
 11
257.32190625387818
 21
-105.74964830606535
  0
LINE
  8
_0-7_細線
  6
CONTINUOUS
 62
    4
 10
266.95786869008305
 20
-105.74964830606535
 11
270.85786869008359
 21
-105.74964830606535
  0
LINE
  8
_0-7_細線
  6
CONTINUOUS
 62
    4
 10
273.92366464299209
 20
-105.74964830606535
 11
277.82366464299218
 21
-105.74964830606535
  0
LINE
  8
_0-7_細線
  6
CONTINUOUS
 62
    4
 10
284.94717525475869
 20
-105.74964830606535
 11
291.85994277586713
 21
-105.74964830606535
  0
LINE
  8
_0-7_細線
  6
CONTINUOUS
 62
    4
 10
200.27111078910082
 20
-105.14964830606556
 11
204.17111078910045
 21
-105.14964830606556
  0
LINE
  8
_0-7_細線
  6
CONTINUOUS
 62
    4
 10
212.81108105086867
 20
-105.14964830606556
 11
216.71108105086915
 21
-105.14964830606556
  0
LINE
  8
_0-7_細線
  6
CONTINUOUS
 62
    4
 10
220.33477483892545
 20
-105.14964830606556
 11
224.23477483892555
 21
-105.14964830606556
  0
LINE
  8
_0-7_細線
  6
CONTINUOUS
 62
    4
 10
231.05340049146645
 20
-105.14964830606556
 11
236.17431182358166
 21
-105.14964830606556
  0
LINE
  8
_0-7_細線
  6
CONTINUOUS
 62
    4
 10
243.56982052146387
 20
-105.14964830606556
 11
250.70169084877105
 21
-105.14964830606556
  0
LINE
  8
_0-7_細線
  6
CONTINUOUS
 62
    4
 10
253.70169084877116
 20
-105.14964830606556
 11
257.60169084877077
 21
-105.14964830606556
  0
LINE
  8
_0-7_細線
  6
CONTINUOUS
 62
    4
 10
266.67808409518955
 20
-105.14964830606556
 11
270.57808409518964
 21
-105.14964830606556
  0
LINE
  8
_0-7_細線
  6
CONTINUOUS
 62
    4
 10
273.92366464299209
 20
-105.14964830606556
 11
277.82366464299218
 21
-105.14964830606556
  0
LINE
  8
_0-7_細線
  6
CONTINUOUS
 62
    4
 10
284.57225364361318
 20
-105.14964830606556
 11
288.46354237470757
 21
-105.14964830606556
  0
LINE
  8
_0-7_細線
  6
CONTINUOUS
 62
    4
 10
288.55994277586694
 20
-105.14964830606556
 11
291.85994277586713
 21
-105.14964830606556
  0
LINE
  8
_0-7_細線
  6
CONTINUOUS
 62
    4
 10
200.55089538399386
 20
-104.54964830606519
 11
216.43129645597566
 21
-104.54964830606519
  0
LINE
  8
_0-7_細線
  6
CONTINUOUS
 62
    4
 10
220.33477483892545
 20
-104.54964830606519
 11
224.23477483892555
 21
-104.54964830606519
  0
LINE
  8
_0-7_細線
  6
CONTINUOUS
 62
    4
 10
231.90663479114647
 20
-104.54964830606519
 11
236.40265201789936
 21
-104.54964830606519
  0
LINE
  8
_0-7_細線
  6
CONTINUOUS
 62
    4
 10
243.29003592657077
 20
-104.54964830606519
 11
250.98147544366415
 21
-104.54964830606519
  0
LINE
  8
_0-7_細線
  6
CONTINUOUS
 62
    4
 10
253.98147544366415
 20
-104.54964830606519
 11
270.29829950029745
 21
-104.54964830606519
  0
LINE
  8
_0-7_細線
  6
CONTINUOUS
 62
    4
 10
273.92366464299209
 20
-104.54964830606519
 11
277.82366464299218
 21
-104.54964830606519
  0
LINE
  8
_0-7_細線
  6
CONTINUOUS
 62
    4
 10
284.19733203246767
 20
-104.54964830606519
 11
288.08862076356206
 21
-104.54964830606519
  0
LINE
  8
_0-7_細線
  6
CONTINUOUS
 62
    4
 10
288.55994277586694
 20
-104.54964830606519
 11
291.85994277586713
 21
-104.54964830606519
  0
LINE
  8
_0-7_細線
  6
CONTINUOUS
 62
    4
 10
200.830679978886
 20
-103.94964830606506
 11
216.15151186108307
 21
-103.94964830606506
  0
LINE
  8
_0-7_細線
  6
CONTINUOUS
 62
    4
 10
220.33477483892545
 20
-103.94964830606506
 11
224.23477483892555
 21
-103.94964830606506
  0
LINE
  8
_0-7_細線
  6
CONTINUOUS
 62
    4
 10
232.45196810934146
 20
-103.94964830606506
 11
236.57967849647036
 21
-103.94964830606506
  0
LINE
  8
_0-7_細線
  6
CONTINUOUS
 62
    4
 10
243.01025133167866
 20
-103.94964830606506
 11
246.91025133167736
 21
-103.94964830606506
  0
LINE
  8
_0-7_細線
  6
CONTINUOUS
 62
    4
 10
247.36126003855756
 20
-103.94964830606506
 11
251.26126003855717
 21
-103.94964830606506
  0
LINE
  8
_0-7_細線
  6
CONTINUOUS
 62
    4
 10
254.26126003855717
 20
-103.94964830606506
 11
270.01851490540355
 21
-103.94964830606506
  0
LINE
  8
_0-7_細線
  6
CONTINUOUS
 62
    4
 10
273.92366464299209
 20
-103.94964830606506
 11
277.82366464299218
 21
-103.94964830606506
  0
LINE
  8
_0-7_細線
  6
CONTINUOUS
 62
    4
 10
283.82241042132216
 20
-103.94964830606506
 11
287.71369915241655
 21
-103.94964830606506
  0
LINE
  8
_0-7_細線
  6
CONTINUOUS
 62
    4
 10
288.55994277586694
 20
-103.94964830606506
 11
291.85994277586713
 21
-103.94964830606506
  0
LINE
  8
_0-7_細線
  6
CONTINUOUS
 62
    4
 10
201.11046457377995
 20
-103.34964830606515
 11
215.87172726618957
 21
-103.34964830606515
  0
LINE
  8
_0-7_細線
  6
CONTINUOUS
 62
    4
 10
220.33477483892545
 20
-103.34964830606515
 11
224.23477483892555
 21
-103.34964830606515
  0
LINE
  8
_0-7_細線
  6
CONTINUOUS
 62
    4
 10
232.77713499034854
 20
-103.34964830606515
 11
236.72947946834196
 21
-103.34964830606515
  0
LINE
  8
_0-7_細線
  6
CONTINUOUS
 62
    4
 10
242.73046673678516
 20
-103.34964830606515
 11
246.63046673678477
 21
-103.34964830606515
  0
LINE
  8
_0-7_細線
  6
CONTINUOUS
 62
    4
 10
247.64104463345015
 20
-103.34964830606515
 11
251.54104463345027
 21
-103.34964830606515
  0
LINE
  8
_0-7_細線
  6
CONTINUOUS
 62
    4
 10
254.54104463345027
 20
-103.34964830606515
 11
269.73873031051136
 21
-103.34964830606515
  0
LINE
  8
_0-7_細線
  6
CONTINUOUS
 62
    4
 10
273.92366464299209
 20
-103.34964830606515
 11
277.82366464299218
 21
-103.34964830606515
  0
LINE
  8
_0-7_細線
  6
CONTINUOUS
 62
    4
 10
283.44748881017665
 20
-103.34964830606515
 11
287.33877754127104
 21
-103.34964830606515
  0
LINE
  8
_0-7_細線
  6
CONTINUOUS
 62
    4
 10
288.55994277586694
 20
-103.34964830606515
 11
291.85994277586713
 21
-103.34964830606515
  0
LINE
  8
_0-7_細線
  6
CONTINUOUS
 62
    4
 10
201.39024916867209
 20
-102.74964830606535
 11
215.59194267129706
 21
-102.74964830606535
  0
LINE
  8
_0-7_細線
  6
CONTINUOUS
 62
    4
 10
220.33477483892545
 20
-102.74964830606535
 11
224.23477483892555
 21
-102.74964830606535
  0
LINE
  8
_0-7_細線
  6
CONTINUOUS
 62
    4
 10
232.98061968309355
 20
-102.74964830606535
 11
236.85779045420887
 21
-102.74964830606535
  0
LINE
  8
_0-7_細線
  6
CONTINUOUS
 62
    4
 10
242.45068214189166
 20
-102.74964830606535
 11
246.35068214189215
 21
-102.74964830606535
  0
LINE
  8
_0-7_細線
  6
CONTINUOUS
 62
    4
 10
247.92082922834365
 20
-102.74964830606535
 11
251.82082922834326
 21
-102.74964830606535
  0
LINE
  8
_0-7_細線
  6
CONTINUOUS
 62
    4
 10
254.82082922834326
 20
-102.74964830606535
 11
269.45894571561746
 21
-102.74964830606535
  0
LINE
  8
_0-7_細線
  6
CONTINUOUS
 62
    4
 10
273.92366464299209
 20
-102.74964830606535
 11
277.82366464299218
 21
-102.74964830606535
  0
LINE
  8
_0-7_細線
  6
CONTINUOUS
 62
    4
 10
283.07256719903114
 20
-102.74964830606535
 11
286.96385593012553
 21
-102.74964830606535
  0
LINE
  8
_0-7_細線
  6
CONTINUOUS
 62
    4
 10
288.55994277586694
 20
-102.74964830606535
 11
291.85994277586713
 21
-102.74964830606535
  0
LINE
  8
_0-7_細線
  6
CONTINUOUS
 62
    4
 10
201.67003376356558
 20
-102.14964830606533
 11
215.31215807640348
 21
-102.14964830606533
  0
LINE
  8
_0-7_細線
  6
CONTINUOUS
 62
    4
 10
220.33477483892545
 20
-102.14964830606533
 11
224.23477483892555
 21
-102.14964830606533
  0
LINE
  8
_0-7_細線
  6
CONTINUOUS
 62
    4
 10
233.10465882235786
 20
-102.14964830606533
 11
236.96233206648395
 21
-102.14964830606533
  0
LINE
  8
_0-7_細線
  6
CONTINUOUS
 62
    4
 10
242.17089754699907
 20
-102.14964830606533
 11
246.07089754699916
 21
-102.14964830606533
  0
LINE
  8
_0-7_細線
  6
CONTINUOUS
 62
    4
 10
248.20061382323627
 20
-102.14964830606533
 11
252.10061382323636
 21
-102.14964830606533
  0
LINE
  8
_0-7_細線
  6
CONTINUOUS
 62
    4
 10
255.10061382323636
 20
-102.14964830606533
 11
269.17916112072527
 21
-102.14964830606533
  0
LINE
  8
_0-7_細線
  6
CONTINUOUS
 62
    4
 10
273.92366464299209
 20
-102.14964830606533
 11
277.82366464299218
 21
-102.14964830606533
  0
LINE
  8
_0-7_細線
  6
CONTINUOUS
 62
    4
 10
282.69764558788467
 20
-102.14964830606533
 11
286.58893431897997
 21
-102.14964830606533
  0
LINE
  8
_0-7_細線
  6
CONTINUOUS
 62
    4
 10
288.55994277586694
 20
-102.14964830606533
 11
291.85994277586713
 21
-102.14964830606533
  0
LINE
  8
_0-7_細線
  6
CONTINUOUS
 62
    4
 10
201.94981835845817
 20
-101.54964830606519
 11
205.84981835845826
 21
-101.54964830606519
  0
LINE
  8
_0-7_細線
  6
CONTINUOUS
 62
    4
 10
211.13237348151085
 20
-101.54964830606519
 11
215.03237348151094
 21
-101.54964830606519
  0
LINE
  8
_0-7_細線
  6
CONTINUOUS
 62
    4
 10
220.33477483892545
 20
-101.54964830606519
 11
224.23477483892555
 21
-101.54964830606519
  0
LINE
  8
_0-7_細線
  6
CONTINUOUS
 62
    4
 10
233.17761674178186
 20
-101.54964830606519
 11
237.04272993452085
 21
-101.54964830606519
  0
LINE
  8
_0-7_細線
  6
CONTINUOUS
 62
    4
 10
241.89111295210557
 20
-101.54964830606519
 11
245.79111295210606
 21
-101.54964830606519
  0
LINE
  8
_0-7_細線
  6
CONTINUOUS
 62
    4
 10
248.48039841812977
 20
-101.54964830606519
 11
252.38039841812846
 21
-101.54964830606519
  0
LINE
  8
_0-7_細線
  6
CONTINUOUS
 62
    4
 10
255.38039841812846
 20
-101.54964830606519
 11
259.28039841812904
 21
-101.54964830606519
  0
LINE
  8
_0-7_細線
  6
CONTINUOUS
 62
    4
 10
264.99937652583219
 20
-101.54964830606519
 11
268.89937652583137
 21
-101.54964830606519
  0
LINE
  8
_0-7_細線
  6
CONTINUOUS
 62
    4
 10
273.92366464299209
 20
-101.54964830606519
 11
277.82366464299218
 21
-101.54964830606519
  0
LINE
  8
_0-7_細線
  6
CONTINUOUS
 62
    4
 10
282.32272397673916
 20
-101.54964830606519
 11
286.21401270783446
 21
-101.54964830606519
  0
LINE
  8
_0-7_細線
  6
CONTINUOUS
 62
    4
 10
288.55994277586694
 20
-101.54964830606519
 11
291.85994277586713
 21
-101.54964830606519
  0
LINE
  8
_0-7_細線
  6
CONTINUOUS
 62
    4
 10
202.22960295335167
 20
-100.94964830606494
 11
206.12960295335125
 21
-100.94964830606494
  0
LINE
  8
_0-7_細線
  6
CONTINUOUS
 62
    4
 10
210.85258888661775
 20
-100.94964830606494
 11
214.75258888661745
 21
-100.94964830606494
  0
LINE
  8
_0-7_細線
  6
CONTINUOUS
 62
    4
 10
220.33477483892545
 20
-100.94964830606494
 11
224.23477483892555
 21
-100.94964830606494
  0
LINE
  8
_0-7_細線
  6
CONTINUOUS
 62
    4
 10
233.21650843468325
 20
-100.94964830606494
 11
237.09853434080455
 21
-100.94964830606494
  0
LINE
  8
_0-7_細線
  6
CONTINUOUS
 62
    4
 10
241.61132835721295
 20
-100.94964830606494
 11
245.51132835721305
 21
-100.94964830606494
  0
LINE
  8
_0-7_細線
  6
CONTINUOUS
 62
    4
 10
248.76018301302236
 20
-100.94964830606494
 11
252.66018301302245
 21
-100.94964830606494
  0
LINE
  8
_0-7_細線
  6
CONTINUOUS
 62
    4
 10
255.66018301302196
 20
-100.94964830606494
 11
259.56018301302254
 21
-100.94964830606494
  0
LINE
  8
_0-7_細線
  6
CONTINUOUS
 62
    4
 10
264.71959193093915
 20
-100.94964830606494
 11
268.61959193093924
 21
-100.94964830606494
  0
LINE
  8
_0-7_細線
  6
CONTINUOUS
 62
    4
 10
273.92366464299209
 20
-100.94964830606494
 11
277.82366464299218
 21
-100.94964830606494
  0
LINE
  8
_0-7_細線
  6
CONTINUOUS
 62
    4
 10
281.94780236559365
 20
-100.94964830606494
 11
285.83909109668895
 21
-100.94964830606494
  0
LINE
  8
_0-7_細線
  6
CONTINUOUS
 62
    4
 10
288.55994277586694
 20
-100.94964830606494
 11
291.85994277586713
 21
-100.94964830606494
  0
LINE
  8
_0-7_細線
  6
CONTINUOUS
 62
    4
 10
202.50938754824426
 20
-100.34964830606526
 11
206.40938754824435
 21
-100.34964830606526
  0
LINE
  8
_0-7_細線
  6
CONTINUOUS
 62
    4
 10
210.57280429172476
 20
-100.34964830606526
 11
214.47280429172525
 21
-100.34964830606526
  0
LINE
  8
_0-7_細線
  6
CONTINUOUS
 62
    4
 10
220.33477483892545
 20
-100.34964830606526
 11
224.23477483892555
 21
-100.34964830606526
  0
LINE
  8
_0-7_細線
  6
CONTINUOUS
 62
    4
 10
233.23281917915656
 20
-100.34964830606526
 11
237.12947230774566
 21
-100.34964830606526
  0
LINE
  8
_0-7_細線
  6
CONTINUOUS
 62
    4
 10
241.33154376232036
 20
-100.34964830606526
 11
245.23154376232006
 21
-100.34964830606526
  0
LINE
  8
_0-7_細線
  6
CONTINUOUS
 62
    4
 10
249.03996760791495
 20
-100.34964830606526
 11
252.93996760791455
 21
-100.34964830606526
  0
LINE
  8
_0-7_細線
  6
CONTINUOUS
 62
    4
 10
255.93996760791455
 20
-100.34964830606526
 11
259.83996760791507
 21
-100.34964830606526
  0
LINE
  8
_0-7_細線
  6
CONTINUOUS
 62
    4
 10
264.4398073360461
 20
-100.34964830606526
 11
268.33980733604574
 21
-100.34964830606526
  0
LINE
  8
_0-7_細線
  6
CONTINUOUS
 62
    4
 10
273.92366464299209
 20
-100.34964830606526
 11
277.82366464299218
 21
-100.34964830606526
  0
LINE
  8
_0-7_細線
  6
CONTINUOUS
 62
    4
 10
281.57288075444819
 20
-100.34964830606526
 11
285.46416948554349
 21
-100.34964830606526
  0
LINE
  8
_0-7_細線
  6
CONTINUOUS
 62
    4
 10
288.55994277586694
 20
-100.34964830606526
 11
291.85994277586713
 21
-100.34964830606526
  0
LINE
  8
_0-7_細線
  6
CONTINUOUS
 62
    4
 10
202.78917214313776
 20
-99.749648306065126
 11
206.68917214313734
 21
-99.749648306065126
  0
LINE
  8
_0-7_細線
  6
CONTINUOUS
 62
    4
 10
210.29301969683166
 20
-99.749648306065126
 11
214.19301969683227
 21
-99.749648306065126
  0
LINE
  8
_0-7_細線
  6
CONTINUOUS
 62
    4
 10
220.33477483892545
 20
-99.749648306065126
 11
224.23477483892555
 21
-99.749648306065126
  0
LINE
  8
_0-7_細線
  6
CONTINUOUS
 62
    4
 10
233.23353591516326
 20
-99.749648306065126
 11
237.13141564936706
 21
-99.749648306065126
  0
LINE
  8
_0-7_細線
  6
CONTINUOUS
 62
    4
 10
241.05175916742687
 20
-99.749648306065126
 11
244.95175916742696
 21
-99.749648306065126
  0
LINE
  8
_0-7_細線
  6
CONTINUOUS
 62
    4
 10
249.31975220280796
 20
-99.749648306065126
 11
253.21975220280856
 21
-99.749648306065126
  0
LINE
  8
_0-7_細線
  6
CONTINUOUS
 62
    4
 10
256.21975220280808
 20
-99.749648306065126
 11
260.11975220280766
 21
-99.749648306065126
  0
LINE
  8
_0-7_細線
  6
CONTINUOUS
 62
    4
 10
264.16002274115306
 20
-99.749648306065126
 11
268.06002274115315
 21
-99.749648306065126
  0
LINE
  8
_0-7_細線
  6
CONTINUOUS
 62
    4
 10
273.92366464299209
 20
-99.749648306065126
 11
277.82366464299218
 21
-99.749648306065126
  0
LINE
  8
_0-7_細線
  6
CONTINUOUS
 62
    4
 10
281.19795914330268
 20
-99.749648306065126
 11
285.08924787439798
 21
-99.749648306065126
  0
LINE
  8
_0-7_細線
  6
CONTINUOUS
 62
    4
 10
288.55994277586694
 20
-99.749648306065126
 11
291.85994277586713
 21
-99.749648306065126
  0
LINE
  8
_0-7_細線
  6
CONTINUOUS
 62
    4
 10
203.06895673803035
 20
-99.149648306065217
 11
206.96895673803044
 21
-99.149648306065217
  0
LINE
  8
_0-7_細線
  6
CONTINUOUS
 62
    4
 10
210.01323510193916
 20
-99.149648306065217
 11
213.91323510193916
 21
-99.149648306065217
  0
LINE
  8
_0-7_細線
  6
CONTINUOUS
 62
    4
 10
220.33477483892545
 20
-99.149648306065217
 11
224.23477483892555
 21
-99.149648306065217
  0
LINE
  8
_0-7_細線
  6
CONTINUOUS
 62
    4
 10
233.22055864152057
 20
-99.149648306065217
 11
237.10568703563047
 21
-99.149648306065217
  0
LINE
  8
_0-7_細線
  6
CONTINUOUS
 62
    4
 10
240.77197457253425
 20
-99.149648306065217
 11
244.67197457253386
 21
-99.149648306065217
  0
LINE
  8
_0-7_細線
  6
CONTINUOUS
 62
    4
 10
249.59953679770106
 20
-99.149648306065217
 11
253.49953679770067
 21
-99.149648306065217
  0
LINE
  8
_0-7_細線
  6
CONTINUOUS
 62
    4
 10
256.49953679770067
 20
-99.149648306065217
 11
260.39953679770116
 21
-99.149648306065217
  0
LINE
  8
_0-7_細線
  6
CONTINUOUS
 62
    4
 10
263.88023814625996
 20
-99.149648306065217
 11
267.78023814625965
 21
-99.149648306065217
  0
LINE
  8
_0-7_細線
  6
CONTINUOUS
 62
    4
 10
273.92366464299209
 20
-99.149648306065217
 11
277.82366464299218
 21
-99.149648306065217
  0
LINE
  8
_0-7_細線
  6
CONTINUOUS
 62
    4
 10
280.82303753215666
 20
-99.149648306065217
 11
284.71432626325196
 21
-99.149648306065217
  0
LINE
  8
_0-7_細線
  6
CONTINUOUS
 62
    4
 10
288.55994277586694
 20
-99.149648306065217
 11
291.85994277586713
 21
-99.149648306065217
  0
LINE
  8
_0-7_細線
  6
CONTINUOUS
 62
    4
 10
203.34874133292385
 20
-98.549648306065535
 11
207.24874133292346
 21
-98.549648306065535
  0
LINE
  8
_0-7_細線
  6
CONTINUOUS
 62
    4
 10
209.73345050704654
 20
-98.549648306065535
 11
213.63345050704618
 21
-98.549648306065535
  0
LINE
  8
_0-7_細線
  6
CONTINUOUS
 62
    4
 10
220.33477483892545
 20
-98.549648306065535
 11
224.23477483892555
 21
-98.549648306065535
  0
LINE
  8
_0-7_細線
  6
CONTINUOUS
 62
    4
 10
233.18899696373305
 20
-98.549648306065535
 11
237.05631391877145
 21
-98.549648306065535
  0
LINE
  8
_0-7_細線
  6
CONTINUOUS
 62
    4
 10
240.49218997764075
 20
-98.549648306065535
 11
244.39218997764087
 21
-98.549648306065535
  0
LINE
  8
_0-7_細線
  6
CONTINUOUS
 62
    4
 10
249.87932139259405
 20
-98.549648306065535
 11
253.77932139259417
 21
-98.549648306065535
  0
LINE
  8
_0-7_細線
  6
CONTINUOUS
 62
    4
 10
256.77932139259417
 20
-98.549648306065535
 11
260.67932139259375
 21
-98.549648306065535
  0
LINE
  8
_0-7_細線
  6
CONTINUOUS
 62
    4
 10
263.60045355136697
 20
-98.549648306065535
 11
267.50045355136706
 21
-98.549648306065535
  0
LINE
  8
_0-7_細線
  6
CONTINUOUS
 62
    4
 10
273.92366464299209
 20
-98.549648306065535
 11
277.82366464299218
 21
-98.549648306065535
  0
LINE
  8
_0-7_細線
  6
CONTINUOUS
 62
    4
 10
280.44811592101115
 20
-98.549648306065535
 11
284.33940465210645
 21
-98.549648306065535
  0
LINE
  8
_0-7_細線
  6
CONTINUOUS
 62
    4
 10
288.55994277586694
 20
-98.549648306065535
 11
291.85994277586713
 21
-98.549648306065535
  0
LINE
  8
_0-7_細線
  6
CONTINUOUS
 62
    4
 10
203.62852592781644
 20
-97.949648306064944
 11
207.52852592781656
 21
-97.949648306064944
  0
LINE
  8
_0-7_細線
  6
CONTINUOUS
 62
    4
 10
209.45366591215304
 20
-97.949648306064944
 11
213.35366591215316
 21
-97.949648306064944
  0
LINE
  8
_0-7_細線
  6
CONTINUOUS
 62
    4
 10
220.33477483892545
 20
-97.949648306064944
 11
224.23477483892555
 21
-97.949648306064944
  0
LINE
  8
_0-7_細線
  6
CONTINUOUS
 62
    4
 10
233.12769249623295
 20
-97.949648306064944
 11
236.98217491100496
 21
-97.949648306064944
  0
LINE
  8
_0-7_細線
  6
CONTINUOUS
 62
    4
 10
240.21240538274816
 20
-97.949648306064944
 11
244.11240538274785
 21
-97.949648306064944
  0
LINE
  8
_0-7_細線
  6
CONTINUOUS
 62
    4
 10
250.15910598748707
 20
-97.949648306064944
 11
254.05910598748676
 21
-97.949648306064944
  0
LINE
  8
_0-7_細線
  6
CONTINUOUS
 62
    4
 10
257.05910598748676
 20
-97.949648306064944
 11
260.95910598748725
 21
-97.949648306064944
  0
LINE
  8
_0-7_細線
  6
CONTINUOUS
 62
    4
 10
263.32066895647387
 20
-97.949648306064944
 11
267.22066895647356
 21
-97.949648306064944
  0
LINE
  8
_0-7_細線
  6
CONTINUOUS
 62
    4
 10
273.92366464299209
 20
-97.949648306064944
 11
277.82366464299218
 21
-97.949648306064944
  0
LINE
  8
_0-7_細線
  6
CONTINUOUS
 62
    4
 10
280.0731943098657
 20
-97.949648306064944
 11
283.964483040961
 21
-97.949648306064944
  0
LINE
  8
_0-7_細線
  6
CONTINUOUS
 62
    4
 10
288.55994277586694
 20
-97.949648306064944
 11
291.85994277586713
 21
-97.949648306064944
  0
LINE
  8
_0-7_細線
  6
CONTINUOUS
 62
    4
 10
203.90831052270994
 20
-97.349648306065262
 11
207.80831052270958
 21
-97.349648306065262
  0
LINE
  8
_0-7_細線
  6
CONTINUOUS
 62
    4
 10
209.17388131726045
 20
-97.349648306065262
 11
213.07388131726006
 21
-97.349648306065262
  0
LINE
  8
_0-7_細線
  6
CONTINUOUS
 62
    4
 10
220.33477483892545
 20
-97.349648306065262
 11
224.23477483892555
 21
-97.349648306065262
  0
LINE
  8
_0-7_細線
  6
CONTINUOUS
 62
    4
 10
233.02104897298736
 20
-97.349648306065262
 11
236.88373797702005
 21
-97.349648306065262
  0
LINE
  8
_0-7_細線
  6
CONTINUOUS
 62
    4
 10
239.93262078785466
 20
-97.349648306065262
 11
243.83262078785526
 21
-97.349648306065262
  0
LINE
  8
_0-7_細線
  6
CONTINUOUS
 62
    4
 10
250.43889058238017
 20
-97.349648306065262
 11
254.33889058238026
 21
-97.349648306065262
  0
LINE
  8
_0-7_細線
  6
CONTINUOUS
 62
    4
 10
257.33889058238026
 20
-97.349648306065262
 11
261.2388905823799
 21
-97.349648306065262
  0
LINE
  8
_0-7_細線
  6
CONTINUOUS
 62
    4
 10
263.04088436158088
 20
-97.349648306065262
 11
266.94088436158097
 21
-97.349648306065262
  0
LINE
  8
_0-7_細線
  6
CONTINUOUS
 62
    4
 10
273.92366464299209
 20
-97.349648306065262
 11
277.82366464299218
 21
-97.349648306065262
  0
LINE
  8
_0-7_細線
  6
CONTINUOUS
 62
    4
 10
279.69827269872019
 20
-97.349648306065262
 11
283.58956142981549
 21
-97.349648306065262
  0
LINE
  8
_0-7_細線
  6
CONTINUOUS
 62
    4
 10
288.55994277586694
 20
-97.349648306065262
 11
291.85994277586713
 21
-97.349648306065262
  0
LINE
  8
_0-7_細線
  6
CONTINUOUS
 62
    4
 10
204.18809511760253
 20
-96.749648306065126
 11
208.08809511760256
 21
-96.749648306065126
  0
LINE
  8
_0-7_細線
  6
CONTINUOUS
 62
    4
 10
208.89409672236695
 20
-96.749648306065126
 11
212.79409672236704
 21
-96.749648306065126
  0
LINE
  8
_0-7_細線
  6
CONTINUOUS
 62
    4
 10
220.33477483892545
 20
-96.749648306065126
 11
224.23477483892555
 21
-96.749648306065126
  0
LINE
  8
_0-7_細線
  6
CONTINUOUS
 62
    4
 10
232.84085048660185
 20
-96.749648306065126
 11
236.76139499849916
 21
-96.749648306065126
  0
LINE
  8
_0-7_細線
  6
CONTINUOUS
 62
    4
 10
239.65283619296207
 20
-96.749648306065126
 11
243.55283619296267
 21
-96.749648306065126
  0
LINE
  8
_0-7_細線
  6
CONTINUOUS
 62
    4
 10
250.71867517727316
 20
-96.749648306065126
 11
254.61867517727285
 21
-96.749648306065126
  0
LINE
  8
_0-7_細線
  6
CONTINUOUS
 62
    4
 10
257.61867517727285
 20
-96.749648306065126
 11
261.51867517727283
 21
-96.749648306065126
  0
LINE
  8
_0-7_細線
  6
CONTINUOUS
 62
    4
 10
262.76109976668783
 20
-96.749648306065126
 11
266.66109976668747
 21
-96.749648306065126
  0
LINE
  8
_0-7_細線
  6
CONTINUOUS
 62
    4
 10
273.92366464299209
 20
-96.749648306065126
 11
277.82366464299218
 21
-96.749648306065126
  0
LINE
  8
_0-7_細線
  6
CONTINUOUS
 62
    4
 10
279.32335108757468
 20
-96.749648306065126
 11
283.21463981866947
 21
-96.749648306065126
  0
LINE
  8
_0-7_細線
  6
CONTINUOUS
 62
    4
 10
288.55994277586694
 20
-96.749648306065126
 11
291.85994277586713
 21
-96.749648306065126
  0
LINE
  8
_0-7_細線
  6
CONTINUOUS
 62
    4
 10
204.46787971249603
 20
-96.149648306065217
 11
208.36787971249566
 21
-96.149648306065217
  0
LINE
  8
_0-7_細線
  6
CONTINUOUS
 62
    4
 10
208.61431212747436
 20
-96.149648306065217
 11
212.51431212747394
 21
-96.149648306065217
  0
LINE
  8
_0-7_細線
  6
CONTINUOUS
 62
    4
 10
220.33477483892545
 20
-96.149648306065217
 11
224.23477483892555
 21
-96.149648306065217
  0
LINE
  8
_0-7_細線
  6
CONTINUOUS
 62
    4
 10
232.54735858967325
 20
-96.149648306065217
 11
236.61622821853675
 21
-96.149648306065217
  0
LINE
  8
_0-7_細線
  6
CONTINUOUS
 62
    4
 10
239.37305159806857
 20
-96.149648306065217
 11
243.27305159806915
 21
-96.149648306065217
  0
LINE
  8
_0-7_細線
  6
CONTINUOUS
 62
    4
 10
250.99845977216626
 20
-96.149648306065217
 11
254.89845977216635
 21
-96.149648306065217
  0
LINE
  8
_0-7_細線
  6
CONTINUOUS
 62
    4
 10
257.89845977216635
 20
-96.149648306065217
 11
261.79845977216598
 21
-96.149648306065217
  0
LINE
  8
_0-7_細線
  6
CONTINUOUS
 62
    4
 10
262.48131517179479
 20
-96.149648306065217
 11
266.38131517179488
 21
-96.149648306065217
  0
LINE
  8
_0-7_細線
  6
CONTINUOUS
 62
    4
 10
273.92366464299209
 20
-96.149648306065217
 11
277.82366464299218
 21
-96.149648306065217
  0
LINE
  8
_0-7_細線
  6
CONTINUOUS
 62
    4
 10
278.94842947642917
 20
-96.149648306065217
 11
282.83971820752396
 21
-96.149648306065217
  0
LINE
  8
_0-7_細線
  6
CONTINUOUS
 62
    4
 10
288.55994277586694
 20
-96.149648306065217
 11
291.85994277586713
 21
-96.149648306065217
  0
LINE
  8
_0-7_細線
  6
CONTINUOUS
 62
    4
 10
204.74766430738862
 20
-95.549648306065535
 11
212.23452753258096
 21
-95.549648306065535
  0
LINE
  8
_0-7_細線
  6
CONTINUOUS
 62
    4
 10
220.33477483892545
 20
-95.549648306065535
 11
224.23477483892555
 21
-95.549648306065535
  0
LINE
  8
_0-7_細線
  6
CONTINUOUS
 62
    4
 10
232.04897408805874
 20
-95.549648306065535
 11
236.44514109168165
 21
-95.549648306065535
  0
LINE
  8
_0-7_細線
  6
CONTINUOUS
 62
    4
 10
239.09326700317595
 20
-95.549648306065535
 11
242.99326700317656
 21
-95.549648306065535
  0
LINE
  8
_0-7_細線
  6
CONTINUOUS
 62
    4
 10
251.27824436705927
 20
-95.549648306065535
 11
255.17824436705897
 21
-95.549648306065535
  0
LINE
  8
_0-7_細線
  6
CONTINUOUS
 62
    4
 10
258.17824436705894
 20
-95.549648306065535
 11
262.07824436705903
 21
-95.549648306065535
  0
LINE
  8
_0-7_細線
  6
CONTINUOUS
 62
    4
 10
262.20153057690175
 20
-95.549648306065535
 11
266.10153057690138
 21
-95.549648306065535
  0
LINE
  8
_0-7_細線
  6
CONTINUOUS
 62
    4
 10
273.92366464299209
 20
-95.549648306065535
 11
277.82366464299218
 21
-95.549648306065535
  0
LINE
  8
_0-7_細線
  6
CONTINUOUS
 62
    4
 10
278.57350786528366
 20
-95.549648306065535
 11
282.46479659637845
 21
-95.549648306065535
  0
LINE
  8
_0-7_細線
  6
CONTINUOUS
 62
    4
 10
288.55994277586694
 20
-95.549648306065535
 11
291.85994277586713
 21
-95.549648306065535
  0
LINE
  8
_0-7_細線
  6
CONTINUOUS
 62
    4
 10
205.02744890228206
 20
-94.949648306065058
 11
211.95474293768785
 21
-94.949648306065058
  0
LINE
  8
_0-7_細線
  6
CONTINUOUS
 62
    4
 10
220.33477483892545
 20
-94.949648306065058
 11
224.23477483892555
 21
-94.949648306065058
  0
LINE
  8
_0-7_細線
  6
CONTINUOUS
 62
    4
 10
231.27083248517084
 20
-94.949648306065058
 11
236.23356163897446
 21
-94.949648306065058
  0
LINE
  8
_0-7_細線
  6
CONTINUOUS
 62
    4
 10
238.81348240828257
 20
-94.949648306065058
 11
242.71348240828306
 21
-94.949648306065058
  0
LINE
  8
_0-7_細線
  6
CONTINUOUS
 62
    4
 10
251.55802896195226
 20
-94.949648306065058
 11
255.45802896195246
 21
-94.949648306065058
  0
LINE
  8
_0-7_細線
  6
CONTINUOUS
 62
    4
 10
258.45802896195244
 20
-94.949648306065058
 11
265.82174598200879
 21
-94.949648306065058
  0
LINE
  8
_0-7_細線
  6
CONTINUOUS
 62
    4
 10
273.92366464299209
 20
-94.949648306065058
 11
277.82366464299218
 21
-94.949648306065058
  0
LINE
  8
_0-7_細線
  6
CONTINUOUS
 62
    4
 10
278.19858625413815
 20
-94.949648306065058
 11
282.089874985233
 21
-94.949648306065058
  0
LINE
  8
_0-7_細線
  6
CONTINUOUS
 62
    4
 10
288.55994277586694
 20
-94.949648306065058
 11
291.85994277586713
 21
-94.949648306065058
  0
LINE
  8
_0-7_細線
  6
CONTINUOUS
 62
    4
 10
205.30723349717465
 20
-94.349648306065262
 11
211.67495834279487
 21
-94.349648306065262
  0
LINE
  8
_0-7_細線
  6
CONTINUOUS
 62
    4
 10
220.33477483892545
 20
-94.349648306065262
 11
224.23477483892555
 21
-94.349648306065262
  0
LINE
  8
_0-7_細線
  6
CONTINUOUS
 62
    4
 10
230.23477483892555
 20
-94.349648306065262
 11
235.93477483892485
 21
-94.349648306065262
  0
LINE
  8
_0-7_細線
  6
CONTINUOUS
 62
    4
 10
238.53369781339035
 20
-94.349648306065262
 11
242.43369781339047
 21
-94.349648306065262
  0
LINE
  8
_0-7_細線
  6
CONTINUOUS
 62
    4
 10
251.83781355684445
 20
-94.349648306065262
 11
255.73781355684505
 21
-94.349648306065262
  0
LINE
  8
_0-7_細線
  6
CONTINUOUS
 62
    4
 10
258.73781355684497
 20
-94.349648306065262
 11
265.54196138711529
 21
-94.349648306065262
  0
LINE
  8
_0-7_細線
  6
CONTINUOUS
 62
    4
 10
273.92366464299209
 20
-94.349648306065262
 11
277.82366464299218
 21
-94.349648306065262
  0
LINE
  8
_0-7_細線
  6
CONTINUOUS
 62
    4
 10
277.82366464299218
 20
-94.349648306065262
 11
281.71495337408749
 21
-94.349648306065262
  0
LINE
  8
_0-7_細線
  6
CONTINUOUS
 62
    4
 10
288.55994277586694
 20
-94.349648306065262
 11
291.85994277586713
 21
-94.349648306065262
  0
LINE
  8
_0-7_細線
  6
CONTINUOUS
 62
    4
 10
205.58701809206724
 20
-93.749648306065126
 11
211.39517374790177
 21
-93.749648306065126
  0
LINE
  8
_0-7_細線
  6
CONTINUOUS
 62
    4
 10
220.33477483892545
 20
-93.749648306065126
 11
235.45781482656895
 21
-93.749648306065126
  0
LINE
  8
_0-7_細線
  6
CONTINUOUS
 62
    4
 10
238.25391321849645
 20
-93.749648306065126
 11
242.15391321849697
 21
-93.749648306065126
  0
LINE
  8
_0-7_細線
  6
CONTINUOUS
 62
    4
 10
252.11759815173795
 20
-93.749648306065126
 11
256.01759815173847
 21
-93.749648306065126
  0
LINE
  8
_0-7_細線
  6
CONTINUOUS
 62
    4
 10
259.01759815173847
 20
-93.749648306065126
 11
265.26217679222265
 21
-93.749648306065126
  0
LINE
  8
_0-7_細線
  6
CONTINUOUS
 62
    4
 10
273.92366464299209
 20
-93.749648306065126
 11
281.34003176294198
 21
-93.749648306065126
  0
LINE
  8
_0-7_細線
  6
CONTINUOUS
 62
    4
 10
288.55994277586694
 20
-93.749648306065126
 11
291.85994277586713
 21
-93.749648306065126
  0
LINE
  8
_0-7_細線
  6
CONTINUOUS
 62
    4
 10
205.86680268696026
 20
-93.14964830606533
 11
211.11538915300878
 21
-93.14964830606533
  0
LINE
  8
_0-7_細線
  6
CONTINUOUS
 62
    4
 10
220.33477483892545
 20
-93.14964830606533
 11
234.78453476674426
 21
-93.14964830606533
  0
LINE
  8
_0-7_細線
  6
CONTINUOUS
 62
    4
 10
237.97412862360426
 20
-93.14964830606533
 11
241.87412862360435
 21
-93.14964830606533
  0
LINE
  8
_0-7_細線
  6
CONTINUOUS
 62
    4
 10
252.39738274663057
 20
-93.14964830606533
 11
256.29738274663106
 21
-93.14964830606533
  0
LINE
  8
_0-7_細線
  6
CONTINUOUS
 62
    4
 10
259.29738274663106
 20
-93.14964830606533
 11
264.98239219733006
 21
-93.14964830606533
  0
LINE
  8
_0-7_細線
  6
CONTINUOUS
 62
    4
 10
273.92366464299209
 20
-93.14964830606533
 11
280.96511015179647
 21
-93.14964830606533
  0
LINE
  8
_0-7_細線
  6
CONTINUOUS
 62
    4
 10
288.55994277586694
 20
-93.14964830606533
 11
291.85994277586713
 21
-93.14964830606533
  0
LINE
  8
_0-7_細線
  6
CONTINUOUS
 62
    4
 10
206.14658728185336
 20
-92.549648306065535
 11
210.83560455811576
 21
-92.549648306065535
  0
LINE
  8
_0-7_細線
  6
CONTINUOUS
 62
    4
 10
220.33477483892545
 20
-92.549648306065535
 11
233.78319525684526
 21
-92.549648306065535
  0
LINE
  8
_0-7_細線
  6
CONTINUOUS
 62
    4
 10
237.69434402871127
 20
-92.549648306065535
 11
241.59434402871085
 21
-92.549648306065535
  0
LINE
  8
_0-7_細線
  6
CONTINUOUS
 62
    4
 10
252.67716734152407
 20
-92.549648306065535
 11
256.57716734152365
 21
-92.549648306065535
  0
LINE
  8
_0-7_細線
  6
CONTINUOUS
 62
    4
 10
259.57716734152456
 20
-92.549648306065535
 11
264.70260760243707
 21
-92.549648306065535
  0
LINE
  8
_0-7_細線
  6
CONTINUOUS
 62
    4
 10
273.92366464299209
 20
-92.549648306065535
 11
280.59018854065096
 21
-92.549648306065535
  0
LINE
  8
_0-7_細線
  6
CONTINUOUS
 62
    4
 10
288.55994277586694
 20
-92.549648306065535
 11
291.85994277586713
 21
-92.549648306065535
  0
LINE
  8
_0-7_細線
  6
CONTINUOUS
 62
    4
 10
206.42637187674646
 20
-91.949648306065285
 11
210.55581996322266
 21
-91.949648306065285
  0
LINE
  8
_0-7_細線
  6
CONTINUOUS
 62
    4
 10
220.33477483892545
 20
-91.949648306065285
 11
232.33477483892494
 21
-91.949648306065285
  0
LINE
  8
_0-7_細線
  6
CONTINUOUS
 62
    4
 10
237.41455943381825
 20
-91.949648306065285
 11
241.31455943381826
 21
-91.949648306065285
  0
LINE
  8
_0-7_細線
  6
CONTINUOUS
 62
    4
 10
252.95695193641666
 20
-91.949648306065285
 11
256.85695193641715
 21
-91.949648306065285
  0
LINE
  8
_0-7_細線
  6
CONTINUOUS
 62
    4
 10
259.85695193641715
 20
-91.949648306065285
 11
264.42282300754397
 21
-91.949648306065285
  0
LINE
  8
_0-7_細線
  6
CONTINUOUS
 62
    4
 10
273.92366464299209
 20
-91.949648306065285
 11
280.21526692950545
 21
-91.949648306065285
  0
LINE
  8
_0-7_細線
  6
CONTINUOUS
 62
    4
 10
288.55994277586694
 20
-91.949648306065285
 11
291.85994277586713
 21
-91.949648306065285
  0
LINE
  8
_0-7_細線
  6
CONTINUOUS
 62
    4
 10
206.70615647163947
 20
-91.349648306065262
 11
210.27603536833055
 21
-91.349648306065262
  0
LINE
  8
_0-7_細線
  6
CONTINUOUS
 62
    4
 10
220.33477483892545
 20
-91.349648306065262
 11
230.23477483892555
 21
-91.349648306065262
  0
LINE
  8
_0-7_細線
  6
CONTINUOUS
 62
    4
 10
237.13477483892515
 20
-91.349648306065262
 11
241.03477483892476
 21
-91.349648306065262
  0
LINE
  8
_0-7_細線
  6
CONTINUOUS
 62
    4
 10
253.23673653131016
 20
-91.349648306065262
 11
257.13673653130979
 21
-91.349648306065262
  0
LINE
  8
_0-7_細線
  6
CONTINUOUS
 62
    4
 10
260.13673653131065
 20
-91.349648306065262
 11
264.14303841265098
 21
-91.349648306065262
  0
LINE
  8
_0-7_細線
  6
CONTINUOUS
 62
    4
 10
273.92366464299209
 20
-91.349648306065262
 11
279.84034531835994
 21
-91.349648306065262
  0
LINE
  8
_0-7_細線
  6
CONTINUOUS
 62
    4
 10
288.55994277586694
 20
-91.349648306065262
 11
291.85994277586713
 21
-91.349648306065262
  0
LINE
  8
_0-7_細線
  6
CONTINUOUS
 62
    4
 10
198.7322955171893
 20
-108.44964830606506
 11
202.63229551718894
 21
-108.44964830606506
  0
LINE
  8
_0-7_細線
  6
CONTINUOUS
 62
    4
 10
214.34989632278015
 20
-108.44964830606506
 11
218.24989632277976
 21
-108.44964830606506
  0
LINE
  8
_0-7_細線
  6
CONTINUOUS
 62
    4
 10
220.33477483892545
 20
-108.44964830606506
 11
230.86695664136397
 21
-108.44964830606506
  0
LINE
  8
_0-7_細線
  6
CONTINUOUS
 62
    4
 10
245.10863579337536
 20
-108.44964830606506
 11
249.16287557685956
 21
-108.44964830606506
  0
LINE
  8
_0-7_細線
  6
CONTINUOUS
 62
    4
 10
252.16287557686005
 20
-108.44964830606506
 11
256.06287557686016
 21
-108.44964830606506
  0
LINE
  8
_0-7_細線
  6
CONTINUOUS
 62
    4
 10
268.21689936710146
 20
-108.44964830606506
 11
272.11689936710155
 21
-108.44964830606506
  0
LINE
  8
_0-7_細線
  6
CONTINUOUS
 62
    4
 10
273.92366464299209
 20
-108.44964830606506
 11
277.82366464299218
 21
-108.44964830606506
  0
LINE
  8
_0-7_細線
  6
CONTINUOUS
 62
    4
 10
286.63432250491383
 20
-108.44964830606506
 11
291.85994277586713
 21
-108.44964830606506
  0
LINE
  8
_0-7_細線
  6
CONTINUOUS
 62
    4
 10
199.01208011208189
 20
-107.84964830606526
 11
202.91208011208198
 21
-107.84964830606526
  0
LINE
  8
_0-7_細線
  6
CONTINUOUS
 62
    4
 10
214.07011172788756
 20
-107.84964830606526
 11
217.97011172788766
 21
-107.84964830606526
  0
LINE
  8
_0-7_細線
  6
CONTINUOUS
 62
    4
 10
220.33477483892545
 20
-107.84964830606526
 11
232.79246278867674
 21
-107.84964830606526
  0
LINE
  8
_0-7_細線
  6
CONTINUOUS
 62
    4
 10
244.82885119848277
 20
-107.84964830606526
 11
249.44266017175215
 21
-107.84964830606526
  0
LINE
  8
_0-7_細線
  6
CONTINUOUS
 62
    4
 10
252.44266017175215
 20
-107.84964830606526
 11
256.34266017175275
 21
-107.84964830606526
  0
LINE
  8
_0-7_細線
  6
CONTINUOUS
 62
    4
 10
267.93711477220847
 20
-107.84964830606526
 11
271.83711477220805
 21
-107.84964830606526
  0
LINE
  8
_0-7_細線
  6
CONTINUOUS
 62
    4
 10
273.92366464299209
 20
-107.84964830606526
 11
277.82366464299218
 21
-107.84964830606526
  0
LINE
  8
_0-7_細線
  6
CONTINUOUS
 62
    4
 10
286.25940089376843
 20
-107.84964830606526
 11
291.85994277586713
 21
-107.84964830606526
  0
LINE
  8
_0-7_細線
  6
CONTINUOUS
 62
    4
 10
199.29186470697539
 20
-107.24964830606535
 11
203.19186470697503
 21
-107.24964830606535
  0
LINE
  8
_0-7_細線
  6
CONTINUOUS
 62
    4
 10
213.79032713299495
 20
-107.24964830606535
 11
217.69032713299376
 21
-107.24964830606535
  0
LINE
  8
_0-7_細線
  6
CONTINUOUS
 62
    4
 10
220.33477483892545
 20
-107.24964830606535
 11
234.10889318348455
 21
-107.24964830606535
  0
LINE
  8
_0-7_細線
  6
CONTINUOUS
 62
    4
 10
244.54906660358927
 20
-107.24964830606535
 11
249.72244476664565
 21
-107.24964830606535
  0
LINE
  8
_0-7_細線
  6
CONTINUOUS
 62
    4
 10
252.72244476664565
 20
-107.24964830606535
 11
256.62244476664625
 21
-107.24964830606535
  0
LINE
  8
_0-7_細線
  6
CONTINUOUS
 62
    4
 10
267.65733017731498
 20
-107.24964830606535
 11
271.55733017731546
 21
-107.24964830606535
  0
LINE
  8
_0-7_細線
  6
CONTINUOUS
 62
    4
 10
273.92366464299209
 20
-107.24964830606535
 11
277.82366464299218
 21
-107.24964830606535
  0
LINE
  8
_0-7_細線
  6
CONTINUOUS
 62
    4
 10
285.88447928262286
 20
-107.24964830606535
 11
291.85994277586713
 21
-107.24964830606535
  0
LINE
  8
_0-7_細線
  6
CONTINUOUS
 62
    4
 10
199.57164930186798
 20
-106.64964830606533
 11
203.47164930186807
 21
-106.64964830606533
  0
LINE
  8
_0-7_細線
  6
CONTINUOUS
 62
    4
 10
213.51054253810145
 20
-106.64964830606533
 11
217.41054253810154
 21
-106.64964830606533
  0
LINE
  8
_0-7_細線
  6
CONTINUOUS
 62
    4
 10
220.33477483892545
 20
-106.64964830606533
 11
234.99177460438597
 21
-106.64964830606533
  0
LINE
  8
_0-7_細線
  6
CONTINUOUS
 62
    4
 10
244.26928200869665
 20
-106.64964830606533
 11
250.00222936153827
 21
-106.64964830606533
  0
LINE
  8
_0-7_細線
  6
CONTINUOUS
 62
    4
 10
253.00222936153827
 20
-106.64964830606533
 11
256.90222936153884
 21
-106.64964830606533
  0
LINE
  8
_0-7_細線
  6
CONTINUOUS
 62
    4
 10
267.37754558242239
 20
-106.64964830606533
 11
271.27754558242196
 21
-106.64964830606533
  0
LINE
  8
_0-7_細線
  6
CONTINUOUS
 62
    4
 10
273.92366464299209
 20
-106.64964830606533
 11
277.82366464299218
 21
-106.64964830606533
  0
LINE
  8
_0-7_細線
  6
CONTINUOUS
 62
    4
 10
285.50955767147695
 20
-106.64964830606533
 11
291.85994277586713
 21
-106.64964830606533
  0
LINE
  8
_0-7_細線
  6
CONTINUOUS
 62
    4
 10
199.85143389676148
 20
-106.04964830606519
 11
203.75143389676111
 21
-106.04964830606519
  0
LINE
  8
_0-7_細線
  6
CONTINUOUS
 62
    4
 10
213.23075794320886
 20
-106.04964830606519
 11
217.13075794320855
 21
-106.04964830606519
  0
LINE
  8
_0-7_細線
  6
CONTINUOUS
 62
    4
 10
220.33477483892545
 20
-106.04964830606519
 11
235.61048174930957
 21
-106.04964830606519
  0
LINE
  8
_0-7_細線
  6
CONTINUOUS
 62
    4
 10
243.98949741380315
 20
-106.04964830606519
 11
250.28201395643177
 21
-106.04964830606519
  0
LINE
  8
_0-7_細線
  6
CONTINUOUS
 62
    4
 10
253.28201395643177
 20
-106.04964830606519
 11
257.18201395643132
 21
-106.04964830606519
  0
LINE
  8
_0-7_細線
  6
CONTINUOUS
 62
    4
 10
267.09776098752934
 20
-106.04964830606519
 11
270.99776098752932
 21
-106.04964830606519
  0
LINE
  8
_0-7_細線
  6
CONTINUOUS
 62
    4
 10
273.92366464299209
 20
-106.04964830606519
 11
277.82366464299218
 21
-106.04964830606519
  0
LINE
  8
_0-7_細線
  6
CONTINUOUS
 62
    4
 10
285.1346360603319
 20
-106.04964830606519
 11
291.85994277586713
 21
-106.04964830606519
  0
LINE
  8
_0-7_細線
  6
CONTINUOUS
 62
    4
 10
200.13121849165407
 20
-105.44964830606528
 11
204.03121849165416
 21
-105.44964830606528
  0
LINE
  8
_0-7_細線
  6
CONTINUOUS
 62
    4
 10
212.95097334831536
 20
-105.44964830606528
 11
216.85097334831545
 21
-105.44964830606528
  0
LINE
  8
_0-7_細線
  6
CONTINUOUS
 62
    4
 10
220.33477483892545
 20
-105.44964830606528
 11
224.23477483892555
 21
-105.44964830606528
  0
LINE
  8
_0-7_細線
  6
CONTINUOUS
 62
    4
 10
230.53430929242757
 20
-105.44964830606528
 11
236.02831695500285
 21
-105.44964830606528
  0
LINE
  8
_0-7_細線
  6
CONTINUOUS
 62
    4
 10
243.70971281891056
 20
-105.44964830606528
 11
250.56179855132436
 21
-105.44964830606528
  0
LINE
  8
_0-7_細線
  6
CONTINUOUS
 62
    4
 10
253.56179855132436
 20
-105.44964830606528
 11
257.46179855132448
 21
-105.44964830606528
  0
LINE
  8
_0-7_細線
  6
CONTINUOUS
 62
    4
 10
266.8179763926363
 20
-105.44964830606528
 11
270.71797639263582
 21
-105.44964830606528
  0
LINE
  8
_0-7_細線
  6
CONTINUOUS
 62
    4
 10
273.92366464299209
 20
-105.44964830606528
 11
277.82366464299218
 21
-105.44964830606528
  0
LINE
  8
_0-7_細線
  6
CONTINUOUS
 62
    4
 10
284.75971444918582
 20
-105.44964830606528
 11
291.85994277586713
 21
-105.44964830606528
  0
LINE
  8
_0-7_細線
  6
CONTINUOUS
 62
    4
 10
200.41100308654757
 20
-104.84964830606515
 11
204.3110030865472
 21
-104.84964830606515
  0
LINE
  8
_0-7_細線
  6
CONTINUOUS
 62
    4
 10
212.67118875342277
 20
-104.84964830606515
 11
216.57118875342246
 21
-104.84964830606515
  0
LINE
  8
_0-7_細線
  6
CONTINUOUS
 62
    4
 10
220.33477483892545
 20
-104.84964830606515
 11
224.23477483892555
 21
-104.84964830606515
  0
LINE
  8
_0-7_細線
  6
CONTINUOUS
 62
    4
 10
231.51781067644407
 20
-104.84964830606515
 11
236.29704438959956
 21
-104.84964830606515
  0
LINE
  8
_0-7_細線
  6
CONTINUOUS
 62
    4
 10
243.42992822401706
 20
-104.84964830606515
 11
250.84158314621786
 21
-104.84964830606515
  0
LINE
  8
_0-7_細線
  6
CONTINUOUS
 62
    4
 10
253.84158314621786
 20
-104.84964830606515
 11
257.74158314621747
 21
-104.84964830606515
  0
LINE
  8
_0-7_細線
  6
CONTINUOUS
 62
    4
 10
266.53819179774325
 20
-104.84964830606515
 11
270.43819179774334
 21
-104.84964830606515
  0
LINE
  8
_0-7_細線
  6
CONTINUOUS
 62
    4
 10
273.92366464299209
 20
-104.84964830606515
 11
277.82366464299218
 21
-104.84964830606515
  0
LINE
  8
_0-7_細線
  6
CONTINUOUS
 62
    4
 10
284.38479283804037
 20
-104.84964830606515
 11
288.27608156913567
 21
-104.84964830606515
  0
LINE
  8
_0-7_細線
  6
CONTINUOUS
 62
    4
 10
288.55994277586694
 20
-104.84964830606515
 11
291.85994277586713
 21
-104.84964830606515
  0
LINE
  8
_0-7_細線
  6
CONTINUOUS
 62
    4
 10
200.69078768144016
 20
-104.24964830606535
 11
216.29140415852936
 21
-104.24964830606535
  0
LINE
  8
_0-7_細線
  6
CONTINUOUS
 62
    4
 10
220.33477483892545
 20
-104.24964830606535
 11
224.23477483892555
 21
-104.24964830606535
  0
LINE
  8
_0-7_細線
  6
CONTINUOUS
 62
    4
 10
232.21692040463026
 20
-104.24964830606535
 11
236.49582010189337
 21
-104.24964830606535
  0
LINE
  8
_0-7_細線
  6
CONTINUOUS
 62
    4
 10
243.15014362912447
 20
-104.24964830606535
 11
247.05014362912405
 21
-104.24964830606535
  0
LINE
  8
_0-7_細線
  6
CONTINUOUS
 62
    4
 10
247.22136774111087
 20
-104.24964830606535
 11
251.12136774111045
 21
-104.24964830606535
  0
LINE
  8
_0-7_細線
  6
CONTINUOUS
 62
    4
 10
254.12136774111045
 20
-104.24964830606535
 11
270.15840720284984
 21
-104.24964830606535
  0
LINE
  8
_0-7_細線
  6
CONTINUOUS
 62
    4
 10
273.92366464299209
 20
-104.24964830606535
 11
277.82366464299218
 21
-104.24964830606535
  0
LINE
  8
_0-7_細線
  6
CONTINUOUS
 62
    4
 10
284.00987122689486
 20
-104.24964830606535
 11
287.90115995798976
 21
-104.24964830606535
  0
LINE
  8
_0-7_細線
  6
CONTINUOUS
 62
    4
 10
288.55994277586694
 20
-104.24964830606535
 11
291.85994277586713
 21
-104.24964830606535
  0
LINE
  8
_0-7_細線
  6
CONTINUOUS
 62
    4
 10
200.97057227633366
 20
-103.64964830606533
 11
216.01161956363637
 21
-103.64964830606533
  0
LINE
  8
_0-7_細線
  6
CONTINUOUS
 62
    4
 10
220.33477483892545
 20
-103.64964830606533
 11
224.23477483892555
 21
-103.64964830606533
  0
LINE
  8
_0-7_細線
  6
CONTINUOUS
 62
    4
 10
232.62965855804475
 20
-103.64964830606533
 11
236.65835368006526
 21
-103.64964830606533
  0
LINE
  8
_0-7_細線
  6
CONTINUOUS
 62
    4
 10
242.87035903423097
 20
-103.64964830606533
 11
246.77035903423155
 21
-103.64964830606533
  0
LINE
  8
_0-7_細線
  6
CONTINUOUS
 62
    4
 10
247.50115233600386
 20
-103.64964830606533
 11
251.40115233600395
 21
-103.64964830606533
  0
LINE
  8
_0-7_細線
  6
CONTINUOUS
 62
    4
 10
254.40115233600395
 20
-103.64964830606533
 11
269.87862260795725
 21
-103.64964830606533
  0
LINE
  8
_0-7_細線
  6
CONTINUOUS
 62
    4
 10
273.92366464299209
 20
-103.64964830606533
 11
277.82366464299218
 21
-103.64964830606533
  0
LINE
  8
_0-7_細線
  6
CONTINUOUS
 62
    4
 10
283.63494961574895
 20
-103.64964830606533
 11
287.52623834684425
 21
-103.64964830606533
  0
LINE
  8
_0-7_細線
  6
CONTINUOUS
 62
    4
 10
288.55994277586694
 20
-103.64964830606533
 11
291.85994277586713
 21
-103.64964830606533
  0
LINE
  8
_0-7_細線
  6
CONTINUOUS
 62
    4
 10
201.25035687122579
 20
-103.04964830606519
 11
215.73183496874327
 21
-103.04964830606519
  0
LINE
  8
_0-7_細線
  6
CONTINUOUS
 62
    4
 10
220.33477483892545
 20
-103.04964830606519
 11
224.23477483892555
 21
-103.04964830606519
  0
LINE
  8
_0-7_細線
  6
CONTINUOUS
 62
    4
 10
232.89052043990105
 20
-103.04964830606519
 11
236.79996474976934
 21
-103.04964830606519
  0
LINE
  8
_0-7_細線
  6
CONTINUOUS
 62
    4
 10
242.59057443933835
 20
-103.04964830606519
 11
246.49057443933805
 21
-103.04964830606519
  0
LINE
  8
_0-7_細線
  6
CONTINUOUS
 62
    4
 10
247.78093693089596
 20
-103.04964830606519
 11
251.68093693089656
 21
-103.04964830606519
  0
LINE
  8
_0-7_細線
  6
CONTINUOUS
 62
    4
 10
254.68093693089656
 20
-103.04964830606519
 11
269.59883801306466
 21
-103.04964830606519
  0
LINE
  8
_0-7_細線
  6
CONTINUOUS
 62
    4
 10
273.92366464299209
 20
-103.04964830606519
 11
277.82366464299218
 21
-103.04964830606519
  0
LINE
  8
_0-7_細線
  6
CONTINUOUS
 62
    4
 10
283.26002800460333
 20
-103.04964830606519
 11
287.15131673569874
 21
-103.04964830606519
  0
LINE
  8
_0-7_細線
  6
CONTINUOUS
 62
    4
 10
288.55994277586694
 20
-103.04964830606519
 11
291.85994277586713
 21
-103.04964830606519
  0
LINE
  8
_0-7_細線
  6
CONTINUOUS
 62
    4
 10
201.53014146611883
 20
-102.44964830606506
 11
215.45205037385026
 21
-102.44964830606506
  0
LINE
  8
_0-7_細線
  6
CONTINUOUS
 62
    4
 10
220.33477483892545
 20
-102.44964830606506
 11
224.23477483892555
 21
-102.44964830606506
  0
LINE
  8
_0-7_細線
  6
CONTINUOUS
 62
    4
 10
233.05332681554844
 20
-102.44964830606506
 11
236.91561615864777
 21
-102.44964830606506
  0
LINE
  8
_0-7_細線
  6
CONTINUOUS
 62
    4
 10
242.31078984444486
 20
-102.44964830606506
 11
246.21078984444546
 21
-102.44964830606506
  0
LINE
  8
_0-7_細線
  6
CONTINUOUS
 62
    4
 10
248.06072152578997
 20
-102.44964830606506
 11
251.96072152579006
 21
-102.44964830606506
  0
LINE
  8
_0-7_細線
  6
CONTINUOUS
 62
    4
 10
254.96072152579006
 20
-102.44964830606506
 11
269.31905341817117
 21
-102.44964830606506
  0
LINE
  8
_0-7_細線
  6
CONTINUOUS
 62
    4
 10
273.92366464299209
 20
-102.44964830606506
 11
277.82366464299218
 21
-102.44964830606506
  0
LINE
  8
_0-7_細線
  6
CONTINUOUS
 62
    4
 10
282.88510639345793
 20
-102.44964830606506
 11
286.77639512455323
 21
-102.44964830606506
  0
LINE
  8
_0-7_細線
  6
CONTINUOUS
 62
    4
 10
288.55994277586694
 20
-102.44964830606506
 11
291.85994277586713
 21
-102.44964830606506
  0
LINE
  8
_0-7_細線
  6
CONTINUOUS
 62
    4
 10
201.80992606101188
 20
-101.84964830606515
 11
215.17226577895724
 21
-101.84964830606515
  0
LINE
  8
_0-7_細線
  6
CONTINUOUS
 62
    4
 10
220.33477483892545
 20
-101.84964830606515
 11
224.23477483892555
 21
-101.84964830606515
  0
LINE
  8
_0-7_細線
  6
CONTINUOUS
 62
    4
 10
233.15225519356167
 20
-101.84964830606515
 11
237.00655310719037
 21
-101.84964830606515
  0
LINE
  8
_0-7_細線
  6
CONTINUOUS
 62
    4
 10
242.03100524955227
 20
-101.84964830606515
 11
245.93100524955287
 21
-101.84964830606515
  0
LINE
  8
_0-7_細線
  6
CONTINUOUS
 62
    4
 10
248.34050612068205
 20
-101.84964830606515
 11
252.24050612068265
 21
-101.84964830606515
  0
LINE
  8
_0-7_細線
  6
CONTINUOUS
 62
    4
 10
255.24050612068217
 20
-101.84964830606515
 11
269.03926882327858
 21
-101.84964830606515
  0
LINE
  8
_0-7_細線
  6
CONTINUOUS
 62
    4
 10
273.92366464299209
 20
-101.84964830606515
 11
277.82366464299218
 21
-101.84964830606515
  0
LINE
  8
_0-7_細線
  6
CONTINUOUS
 62
    4
 10
282.51018478231236
 20
-101.84964830606515
 11
286.40147351340767
 21
-101.84964830606515
  0
LINE
  8
_0-7_細線
  6
CONTINUOUS
 62
    4
 10
288.55994277586694
 20
-101.84964830606515
 11
291.85994277586713
 21
-101.84964830606515
  0
LINE
  8
_0-7_細線
  6
CONTINUOUS
 62
    4
 10
202.08971065590492
 20
-101.24964830606513
 11
205.98971065590456
 21
-101.24964830606513
  0
LINE
  8
_0-7_細線
  6
CONTINUOUS
 62
    4
 10
210.99248118406456
 20
-101.24964830606513
 11
214.89248118406414
 21
-101.24964830606513
  0
LINE
  8
_0-7_細線
  6
CONTINUOUS
 62
    4
 10
220.33477483892545
 20
-101.24964830606513
 11
224.23477483892555
 21
-101.24964830606513
  0
LINE
  8
_0-7_細線
  6
CONTINUOUS
 62
    4
 10
233.20297829000256
 20
-101.24964830606513
 11
237.07300270715027
 21
-101.24964830606513
  0
LINE
  8
_0-7_細線
  6
CONTINUOUS
 62
    4
 10
241.75122065465885
 20
-101.24964830606513
 11
245.65122065465937
 21
-101.24964830606513
  0
LINE
  8
_0-7_細線
  6
CONTINUOUS
 62
    4
 10
248.62029071557606
 20
-101.24964830606513
 11
252.52029071557615
 21
-101.24964830606513
  0
LINE
  8
_0-7_細線
  6
CONTINUOUS
 62
    4
 10
255.52029071557527
 20
-101.24964830606513
 11
259.42029071557579
 21
-101.24964830606513
  0
LINE
  8
_0-7_細線
  6
CONTINUOUS
 62
    4
 10
264.85948422838544
 20
-101.24964830606513
 11
268.75948422838508
 21
-101.24964830606513
  0
LINE
  8
_0-7_細線
  6
CONTINUOUS
 62
    4
 10
273.92366464299209
 20
-101.24964830606513
 11
277.82366464299218
 21
-101.24964830606513
  0
LINE
  8
_0-7_細線
  6
CONTINUOUS
 62
    4
 10
282.13526317116686
 20
-101.24964830606513
 11
286.02655190226216
 21
-101.24964830606513
  0
LINE
  8
_0-7_細線
  6
CONTINUOUS
 62
    4
 10
288.55994277586694
 20
-101.24964830606513
 11
291.85994277586713
 21
-101.24964830606513
  0
LINE
  8
_0-7_細線
  6
CONTINUOUS
 62
    4
 10
202.36949525079797
 20
-100.64964830606522
 11
206.26949525079806
 21
-100.64964830606522
  0
LINE
  8
_0-7_細線
  6
CONTINUOUS
 62
    4
 10
210.71269658917106
 20
-100.64964830606522
 11
214.61269658917155
 21
-100.64964830606522
  0
LINE
  8
_0-7_細線
  6
CONTINUOUS
 62
    4
 10
220.33477483892545
 20
-100.64964830606522
 11
224.23477483892555
 21
-100.64964830606522
  0
LINE
  8
_0-7_細線
  6
CONTINUOUS
 62
    4
 10
233.22553457814985
 20
-100.64964830606522
 11
237.11447457602375
 21
-100.64964830606522
  0
LINE
  8
_0-7_細線
  6
CONTINUOUS
 62
    4
 10
241.47143605976666
 20
-100.64964830606522
 11
245.37143605976675
 21
-100.64964830606522
  0
LINE
  8
_0-7_細線
  6
CONTINUOUS
 62
    4
 10
248.90007531046817
 20
-100.64964830606522
 11
252.80007531046877
 21
-100.64964830606522
  0
LINE
  8
_0-7_細線
  6
CONTINUOUS
 62
    4
 10
255.80007531046877
 20
-100.64964830606522
 11
259.70007531046883
 21
-100.64964830606522
  0
LINE
  8
_0-7_細線
  6
CONTINUOUS
 62
    4
 10
264.57969963349285
 20
-100.64964830606522
 11
268.47969963349249
 21
-100.64964830606522
  0
LINE
  8
_0-7_細線
  6
CONTINUOUS
 62
    4
 10
273.92366464299209
 20
-100.64964830606522
 11
277.82366464299218
 21
-100.64964830606522
  0
LINE
  8
_0-7_細線
  6
CONTINUOUS
 62
    4
 10
281.76034156002135
 20
-100.64964830606522
 11
285.65163029111665
 21
-100.64964830606522
  0
LINE
  8
_0-7_細線
  6
CONTINUOUS
 62
    4
 10
288.55994277586694
 20
-100.64964830606522
 11
291.85994277586713
 21
-100.64964830606522
  0
LINE
  8
_0-7_細線
  6
CONTINUOUS
 62
    4
 10
202.64927984569101
 20
-100.04964830606554
 11
206.54927984569065
 21
-100.04964830606554
  0
LINE
  8
_0-7_細線
  6
CONTINUOUS
 62
    4
 10
210.43291199427847
 20
-100.04964830606554
 11
214.33291199427896
 21
-100.04964830606554
  0
LINE
  8
_0-7_細線
  6
CONTINUOUS
 62
    4
 10
220.33477483892545
 20
-100.04964830606554
 11
224.23477483892555
 21
-100.04964830606554
  0
LINE
  8
_0-7_細線
  6
CONTINUOUS
 62
    4
 10
233.23441647092096
 20
-100.04964830606554
 11
237.13380316811427
 21
-100.04964830606554
  0
LINE
  8
_0-7_細線
  6
CONTINUOUS
 62
    4
 10
241.19165146487367
 20
-100.04964830606554
 11
245.09165146487325
 21
-100.04964830606554
  0
LINE
  8
_0-7_細線
  6
CONTINUOUS
 62
    4
 10
249.17985990536167
 20
-100.04964830606554
 11
253.07985990536216
 21
-100.04964830606554
  0
LINE
  8
_0-7_細線
  6
CONTINUOUS
 62
    4
 10
256.07985990536122
 20
-100.04964830606554
 11
259.97985990536188
 21
-100.04964830606554
  0
LINE
  8
_0-7_細線
  6
CONTINUOUS
 62
    4
 10
264.29991503859935
 20
-100.04964830606554
 11
268.19991503859944
 21
-100.04964830606554
  0
LINE
  8
_0-7_細線
  6
CONTINUOUS
 62
    4
 10
273.92366464299209
 20
-100.04964830606554
 11
277.82366464299218
 21
-100.04964830606554
  0
LINE
  8
_0-7_細線
  6
CONTINUOUS
 62
    4
 10
281.38541994887589
 20
-100.04964830606554
 11
285.27670867997028
 21
-100.04964830606554
  0
LINE
  8
_0-7_細線
  6
CONTINUOUS
 62
    4
 10
288.55994277586694
 20
-100.04964830606554
 11
291.85994277586713
 21
-100.04964830606554
  0
LINE
  8
_0-7_細線
  6
CONTINUOUS
 62
    4
 10
202.92906444058406
 20
-99.449648306064944
 11
206.82906444058415
 21
-99.449648306064944
  0
LINE
  8
_0-7_細線
  6
CONTINUOUS
 62
    4
 10
210.15312739938497
 20
-99.449648306064944
 11
214.05312739938546
 21
-99.449648306064944
  0
LINE
  8
_0-7_細線
  6
CONTINUOUS
 62
    4
 10
220.33477483892545
 20
-99.449648306064944
 11
224.23477483892555
 21
-99.449648306064944
  0
LINE
  8
_0-7_細線
  6
CONTINUOUS
 62
    4
 10
233.22958478498717
 20
-99.449648306064944
 11
237.12162727085007
 21
-99.449648306064944
  0
LINE
  8
_0-7_細線
  6
CONTINUOUS
 62
    4
 10
240.91186686998057
 20
-99.449648306064944
 11
244.81186686998066
 21
-99.449648306064944
  0
LINE
  8
_0-7_細線
  6
CONTINUOUS
 62
    4
 10
249.45964450025426
 20
-99.449648306064944
 11
253.35964450025475
 21
-99.449648306064944
  0
LINE
  8
_0-7_細線
  6
CONTINUOUS
 62
    4
 10
256.35964450025472
 20
-99.449648306064944
 11
260.25964450025447
 21
-99.449648306064944
  0
LINE
  8
_0-7_細線
  6
CONTINUOUS
 62
    4
 10
264.02013044370676
 20
-99.449648306064944
 11
267.9201304437064
 21
-99.449648306064944
  0
LINE
  8
_0-7_細線
  6
CONTINUOUS
 62
    4
 10
273.92366464299209
 20
-99.449648306064944
 11
277.82366464299218
 21
-99.449648306064944
  0
LINE
  8
_0-7_細線
  6
CONTINUOUS
 62
    4
 10
281.01049833773038
 20
-99.449648306064944
 11
284.90178706882477
 21
-99.449648306064944
  0
LINE
  8
_0-7_細線
  6
CONTINUOUS
 62
    4
 10
288.55994277586694
 20
-99.449648306064944
 11
291.85994277586713
 21
-99.449648306064944
  0
LINE
  8
_0-7_細線
  6
CONTINUOUS
 62
    4
 10
203.2088490354771
 20
-98.849648306065262
 11
207.10884903547677
 21
-98.849648306065262
  0
LINE
  8
_0-7_細線
  6
CONTINUOUS
 62
    4
 10
209.87334280449278
 20
-98.849648306065262
 11
213.77334280449296
 21
-98.849648306065262
  0
LINE
  8
_0-7_細線
  6
CONTINUOUS
 62
    4
 10
220.33477483892545
 20
-98.849648306065262
 11
224.23477483892555
 21
-98.849648306065262
  0
LINE
  8
_0-7_細線
  6
CONTINUOUS
 62
    4
 10
233.21153249805397
 20
-98.849648306065262
 11
237.08658669140075
 21
-98.849648306065262
  0
LINE
  8
_0-7_細線
  6
CONTINUOUS
 62
    4
 10
240.63208227508755
 20
-98.849648306065262
 11
244.53208227508716
 21
-98.849648306065262
  0
LINE
  8
_0-7_細線
  6
CONTINUOUS
 62
    4
 10
249.73942909514776
 20
-98.849648306065262
 11
253.63942909514736
 21
-98.849648306065262
  0
LINE
  8
_0-7_細線
  6
CONTINUOUS
 62
    4
 10
256.63942909514833
 20
-98.849648306065262
 11
260.53942909514706
 21
-98.849648306065262
  0
LINE
  8
_0-7_細線
  6
CONTINUOUS
 62
    4
 10
263.74034584881326
 20
-98.849648306065262
 11
267.64034584881335
 21
-98.849648306065262
  0
LINE
  8
_0-7_細線
  6
CONTINUOUS
 62
    4
 10
273.92366464299209
 20
-98.849648306065262
 11
277.82366464299218
 21
-98.849648306065262
  0
LINE
  8
_0-7_細線
  6
CONTINUOUS
 62
    4
 10
280.63557672658487
 20
-98.849648306065262
 11
284.52686545767926
 21
-98.849648306065262
  0
LINE
  8
_0-7_細線
  6
CONTINUOUS
 62
    4
 10
288.55994277586694
 20
-98.849648306065262
 11
291.85994277586713
 21
-98.849648306065262
  0
LINE
  8
_0-7_細線
  6
CONTINUOUS
 62
    4
 10
203.48863363037015
 20
-98.249648306065126
 11
207.38863363037018
 21
-98.249648306065126
  0
LINE
  8
_0-7_細線
  6
CONTINUOUS
 62
    4
 10
209.59355820959885
 20
-98.249648306065126
 11
213.49355820959937
 21
-98.249648306065126
  0
LINE
  8
_0-7_細線
  6
CONTINUOUS
 62
    4
 10
220.33477483892545
 20
-98.249648306065126
 11
224.23477483892555
 21
-98.249648306065126
  0
LINE
  8
_0-7_細線
  6
CONTINUOUS
 62
    4
 10
233.16363541551286
 20
-98.249648306065126
 11
237.02604114614255
 21
-98.249648306065126
  0
LINE
  8
_0-7_細線
  6
CONTINUOUS
 62
    4
 10
240.35229768019445
 20
-98.249648306065126
 11
244.25229768019454
 21
-98.249648306065126
  0
LINE
  8
_0-7_細線
  6
CONTINUOUS
 62
    4
 10
250.01921369004035
 20
-98.249648306065126
 11
253.91921369004046
 21
-98.249648306065126
  0
LINE
  8
_0-7_細線
  6
CONTINUOUS
 62
    4
 10
256.91921369004086
 20
-98.249648306065126
 11
260.81921369004056
 21
-98.249648306065126
  0
LINE
  8
_0-7_細線
  6
CONTINUOUS
 62
    4
 10
263.46056125392067
 20
-98.249648306065126
 11
267.36056125392025
 21
-98.249648306065126
  0
LINE
  8
_0-7_細線
  6
CONTINUOUS
 62
    4
 10
273.92366464299209
 20
-98.249648306065126
 11
277.82366464299218
 21
-98.249648306065126
  0
LINE
  8
_0-7_細線
  6
CONTINUOUS
 62
    4
 10
280.26065511543936
 20
-98.249648306065126
 11
284.15194384653375
 21
-98.249648306065126
  0
LINE
  8
_0-7_細線
  6
CONTINUOUS
 62
    4
 10
288.55994277586694
 20
-98.249648306065126
 11
291.85994277586713
 21
-98.249648306065126
  0
LINE
  8
_0-7_細線
  6
CONTINUOUS
 62
    4
 10
203.76841822526319
 20
-97.649648306065217
 11
207.66841822526277
 21
-97.649648306065217
  0
LINE
  8
_0-7_細線
  6
CONTINUOUS
 62
    4
 10
209.31377361470675
 20
-97.649648306065217
 11
213.21377361470675
 21
-97.649648306065217
  0
LINE
  8
_0-7_細線
  6
CONTINUOUS
 62
    4
 10
220.33477483892545
 20
-97.649648306065217
 11
224.23477483892555
 21
-97.649648306065217
  0
LINE
  8
_0-7_細線
  6
CONTINUOUS
 62
    4
 10
233.07636048942356
 20
-97.649648306065217
 11
236.93795387029866
 21
-97.649648306065217
  0
LINE
  8
_0-7_細線
  6
CONTINUOUS
 62
    4
 10
240.07251308530147
 20
-97.649648306065217
 11
243.97251308530105
 21
-97.649648306065217
  0
LINE
  8
_0-7_細線
  6
CONTINUOUS
 62
    4
 10
250.29899828493384
 20
-97.649648306065217
 11
254.19899828493345
 21
-97.649648306065217
  0
LINE
  8
_0-7_細線
  6
CONTINUOUS
 62
    4
 10
257.19899828493345
 20
-97.649648306065217
 11
261.09899828493315
 21
-97.649648306065217
  0
LINE
  8
_0-7_細線
  6
CONTINUOUS
 62
    4
 10
263.18077665902717
 20
-97.649648306065217
 11
267.08077665902726
 21
-97.649648306065217
  0
LINE
  8
_0-7_細線
  6
CONTINUOUS
 62
    4
 10
273.92366464299209
 20
-97.649648306065217
 11
277.82366464299218
 21
-97.649648306065217
  0
LINE
  8
_0-7_細線
  6
CONTINUOUS
 62
    4
 10
279.88573350429385
 20
-97.649648306065217
 11
283.77702223538824
 21
-97.649648306065217
  0
LINE
  8
_0-7_細線
  6
CONTINUOUS
 62
    4
 10
288.55994277586694
 20
-97.649648306065217
 11
291.85994277586713
 21
-97.649648306065217
  0
LINE
  8
_0-7_細線
  6
CONTINUOUS
 62
    4
 10
204.04820282015578
 20
-97.049648306065194
 11
207.94820282015627
 21
-97.049648306065194
  0
LINE
  8
_0-7_細線
  6
CONTINUOUS
 62
    4
 10
209.03398901981276
 20
-97.049648306065194
 11
212.93398901981334
 21
-97.049648306065194
  0
LINE
  8
_0-7_細線
  6
CONTINUOUS
 62
    4
 10
220.33477483892545
 20
-97.049648306065194
 11
224.23477483892555
 21
-97.049648306065194
  0
LINE
  8
_0-7_細線
  6
CONTINUOUS
 62
    4
 10
232.93094972979486
 20
-97.049648306065194
 11
236.82591227258115
 21
-97.049648306065194
  0
LINE
  8
_0-7_細線
  6
CONTINUOUS
 62
    4
 10
239.79272849040836
 20
-97.049648306065194
 11
243.69272849040846
 21
-97.049648306065194
  0
LINE
  8
_0-7_細線
  6
CONTINUOUS
 62
    4
 10
250.57878287982646
 20
-97.049648306065194
 11
254.47878287982655
 21
-97.049648306065194
  0
LINE
  8
_0-7_細線
  6
CONTINUOUS
 62
    4
 10
257.47878287982655
 20
-97.049648306065194
 11
261.37878287982664
 21
-97.049648306065194
  0
LINE
  8
_0-7_細線
  6
CONTINUOUS
 62
    4
 10
262.90099206413458
 20
-97.049648306065194
 11
266.80099206413422
 21
-97.049648306065194
  0
LINE
  8
_0-7_細線
  6
CONTINUOUS
 62
    4
 10
273.92366464299209
 20
-97.049648306065194
 11
277.82366464299218
 21
-97.049648306065194
  0
LINE
  8
_0-7_細線
  6
CONTINUOUS
 62
    4
 10
279.51081189314743
 20
-97.049648306065194
 11
283.40210062424262
 21
-97.049648306065194
  0
LINE
  8
_0-7_細線
  6
CONTINUOUS
 62
    4
 10
288.55994277586694
 20
-97.049648306065194
 11
291.85994277586713
 21
-97.049648306065194
  0
LINE
  8
_0-7_細線
  6
CONTINUOUS
 62
    4
 10
204.32798741504837
 20
-96.449648306064944
 11
208.22798741504886
 21
-96.449648306064944
  0
LINE
  8
_0-7_細線
  6
CONTINUOUS
 62
    4
 10
208.75420442492066
 20
-96.449648306064944
 11
212.65420442492075
 21
-96.449648306064944
  0
LINE
  8
_0-7_細線
  6
CONTINUOUS
 62
    4
 10
220.33477483892545
 20
-96.449648306064944
 11
224.23477483892555
 21
-96.449648306064944
  0
LINE
  8
_0-7_細線
  6
CONTINUOUS
 62
    4
 10
232.69583411316387
 20
-96.449648306064944
 11
236.69026921022157
 21
-96.449648306064944
  0
LINE
  8
_0-7_細線
  6
CONTINUOUS
 62
    4
 10
239.51294389551535
 20
-96.449648306064944
 11
243.41294389551496
 21
-96.449648306064944
  0
LINE
  8
_0-7_細線
  6
CONTINUOUS
 62
    4
 10
250.85856747471996
 20
-96.449648306064944
 11
254.75856747471957
 21
-96.449648306064944
  0
LINE
  8
_0-7_細線
  6
CONTINUOUS
 62
    4
 10
257.7585674747196
 20
-96.449648306064944
 11
261.65856747471923
 21
-96.449648306064944
  0
LINE
  8
_0-7_細線
  6
CONTINUOUS
 62
    4
 10
262.62120746924109
 20
-96.449648306064944
 11
266.52120746924118
 21
-96.449648306064944
  0
LINE
  8
_0-7_細線
  6
CONTINUOUS
 62
    4
 10
273.92366464299209
 20
-96.449648306064944
 11
277.82366464299218
 21
-96.449648306064944
  0
LINE
  8
_0-7_細線
  6
CONTINUOUS
 62
    4
 10
279.13589028200187
 20
-96.449648306064944
 11
283.02717901309717
 21
-96.449648306064944
  0
LINE
  8
_0-7_細線
  6
CONTINUOUS
 62
    4
 10
288.55994277586694
 20
-96.449648306064944
 11
291.85994277586713
 21
-96.449648306064944
  0
LINE
  8
_0-7_細線
  6
CONTINUOUS
 62
    4
 10
204.60777200994187
 20
-95.849648306065262
 11
212.37441983002725
 21
-95.849648306065262
  0
LINE
  8
_0-7_細線
  6
CONTINUOUS
 62
    4
 10
220.33477483892545
 20
-95.849648306065262
 11
224.23477483892555
 21
-95.849648306065262
  0
LINE
  8
_0-7_細線
  6
CONTINUOUS
 62
    4
 10
232.33477483892494
 20
-95.849648306065262
 11
236.53477483892476
 21
-95.849648306065262
  0
LINE
  8
_0-7_細線
  6
CONTINUOUS
 62
    4
 10
239.23315930062236
 20
-95.849648306065262
 11
243.13315930062285
 21
-95.849648306065262
  0
LINE
  8
_0-7_細線
  6
CONTINUOUS
 62
    4
 10
251.13835206961255
 20
-95.849648306065262
 11
255.03835206961267
 21
-95.849648306065262
  0
LINE
  8
_0-7_細線
  6
CONTINUOUS
 62
    4
 10
258.03835206961264
 20
-95.849648306065262
 11
261.93835206961262
 21
-95.849648306065262
  0
LINE
  8
_0-7_細線
  6
CONTINUOUS
 62
    4
 10
262.3414228743485
 20
-95.849648306065262
 11
266.24142287434904
 21
-95.849648306065262
  0
LINE
  8
_0-7_細線
  6
CONTINUOUS
 62
    4
 10
273.92366464299209
 20
-95.849648306065262
 11
277.82366464299218
 21
-95.849648306065262
  0
LINE
  8
_0-7_細線
  6
CONTINUOUS
 62
    4
 10
278.76096867085636
 20
-95.849648306065262
 11
282.65225740195075
 21
-95.849648306065262
  0
LINE
  8
_0-7_細線
  6
CONTINUOUS
 62
    4
 10
288.55994277586694
 20
-95.849648306065262
 11
291.85994277586713
 21
-95.849648306065262
  0
LINE
  8
_0-7_細線
  6
CONTINUOUS
 62
    4
 10
204.88755660483446
 20
-95.249648306065126
 11
212.09463523513466
 21
-95.249648306065126
  0
LINE
  8
_0-7_細線
  6
CONTINUOUS
 62
    4
 10
220.33477483892545
 20
-95.249648306065126
 11
224.23477483892555
 21
-95.249648306065126
  0
LINE
  8
_0-7_細線
  6
CONTINUOUS
 62
    4
 10
231.69742475762615
 20
-95.249648306065126
 11
236.34637070829365
 21
-95.249648306065126
  0
LINE
  8
_0-7_細線
  6
CONTINUOUS
 62
    4
 10
238.95337470572926
 20
-95.249648306065126
 11
242.85337470572887
 21
-95.249648306065126
  0
LINE
  8
_0-7_細線
  6
CONTINUOUS
 62
    4
 10
251.41813666450605
 20
-95.249648306065126
 11
255.31813666450566
 21
-95.249648306065126
  0
LINE
  8
_0-7_細線
  6
CONTINUOUS
 62
    4
 10
258.31813666450569
 20
-95.249648306065126
 11
265.96163827945543
 21
-95.249648306065126
  0
LINE
  8
_0-7_細線
  6
CONTINUOUS
 62
    4
 10
273.92366464299209
 20
-95.249648306065126
 11
277.82366464299218
 21
-95.249648306065126
  0
LINE
  8
_0-7_細線
  6
CONTINUOUS
 62
    4
 10
278.38604705971085
 20
-95.249648306065126
 11
282.2773357908053
 21
-95.249648306065126
  0
LINE
  8
_0-7_細線
  6
CONTINUOUS
 62
    4
 10
288.55994277586694
 20
-95.249648306065126
 11
291.85994277586713
 21
-95.249648306065126
  0
LINE
  8
_0-7_細線
  6
CONTINUOUS
 62
    4
 10
205.16734119972836
 20
-94.64964830606533
 11
211.81485064024116
 21
-94.64964830606533
  0
LINE
  8
_0-7_細線
  6
CONTINUOUS
 62
    4
 10
220.33477483892545
 20
-94.64964830606533
 11
224.23477483892555
 21
-94.64964830606533
  0
LINE
  8
_0-7_細線
  6
CONTINUOUS
 62
    4
 10
230.77377141312616
 20
-94.64964830606533
 11
236.09718585123875
 21
-94.64964830606533
  0
LINE
  8
_0-7_細線
  6
CONTINUOUS
 62
    4
 10
238.67359011083667
 20
-94.64964830606533
 11
242.57359011083676
 21
-94.64964830606533
  0
LINE
  8
_0-7_細線
  6
CONTINUOUS
 62
    4
 10
251.69792125939867
 20
-94.64964830606533
 11
255.59792125939865
 21
-94.64964830606533
  0
LINE
  8
_0-7_細線
  6
CONTINUOUS
 62
    4
 10
258.59792125939862
 20
-94.64964830606533
 11
265.68185368456295
 21
-94.64964830606533
  0
LINE
  8
_0-7_細線
  6
CONTINUOUS
 62
    4
 10
273.92366464299209
 20
-94.64964830606533
 11
277.82366464299218
 21
-94.64964830606533
  0
LINE
  8
_0-7_細線
  6
CONTINUOUS
 62
    4
 10
278.01112544856539
 20
-94.64964830606533
 11
281.90241417965979
 21
-94.64964830606533
  0
LINE
  8
_0-7_細線
  6
CONTINUOUS
 62
    4
 10
288.55994277586694
 20
-94.64964830606533
 11
291.85994277586713
 21
-94.64964830606533
  0
LINE
  8
_0-7_細線
  6
CONTINUOUS
 62
    4
 10
205.44712579462055
 20
-94.049648306065194
 11
211.53506604534857
 21
-94.049648306065194
  0
LINE
  8
_0-7_細線
  6
CONTINUOUS
 62
    4
 10
220.33477483892545
 20
-94.049648306065194
 11
235.72794267594267
 21
-94.049648306065194
  0
LINE
  8
_0-7_細線
  6
CONTINUOUS
 62
    4
 10
238.39380551594405
 20
-94.049648306065194
 11
242.29380551594286
 21
-94.049648306065194
  0
LINE
  8
_0-7_細線
  6
CONTINUOUS
 62
    4
 10
251.97770585429126
 20
-94.049648306065194
 11
255.87770585429175
 21
-94.049648306065194
  0
LINE
  8
_0-7_細線
  6
CONTINUOUS
 62
    4
 10
258.87770585429178
 20
-94.049648306065194
 11
265.40206908966945
 21
-94.049648306065194
  0
LINE
  8
_0-7_細線
  6
CONTINUOUS
 62
    4
 10
273.92366464299209
 20
-94.049648306065194
 11
281.52749256851428
 21
-94.049648306065194
  0
LINE
  8
_0-7_細線
  6
CONTINUOUS
 62
    4
 10
288.55994277586694
 20
-94.049648306065194
 11
291.85994277586713
 21
-94.049648306065194
  0
LINE
  8
_0-7_細線
  6
CONTINUOUS
 62
    4
 10
205.72691038951405
 20
-93.449648306065058
 11
211.25528145045507
 21
-93.449648306065058
  0
LINE
  8
_0-7_細線
  6
CONTINUOUS
 62
    4
 10
220.33477483892545
 20
-93.449648306065058
 11
235.16045927020596
 21
-93.449648306065058
  0
LINE
  8
_0-7_細線
  6
CONTINUOUS
 62
    4
 10
238.11402092105055
 20
-93.449648306065058
 11
242.01402092105067
 21
-93.449648306065058
  0
LINE
  8
_0-7_細線
  6
CONTINUOUS
 62
    4
 10
252.25749044918467
 20
-93.449648306065058
 11
256.15749044918476
 21
-93.449648306065058
  0
LINE
  8
_0-7_細線
  6
CONTINUOUS
 62
    4
 10
259.15749044918476
 20
-93.449648306065058
 11
265.12228449477595
 21
-93.449648306065058
  0
LINE
  8
_0-7_細線
  6
CONTINUOUS
 62
    4
 10
273.92366464299209
 20
-93.449648306065058
 11
281.15257095736877
 21
-93.449648306065058
  0
LINE
  8
_0-7_細線
  6
CONTINUOUS
 62
    4
 10
288.55994277586694
 20
-93.449648306065058
 11
291.85994277586713
 21
-93.449648306065058
  0
LINE
  8
_0-7_細線
  6
CONTINUOUS
 62
    4
 10
206.00669498440666
 20
-92.849648306065262
 11
210.97549685556245
 21
-92.849648306065262
  0
LINE
  8
_0-7_細線
  6
CONTINUOUS
 62
    4
 10
220.33477483892545
 20
-92.849648306065262
 11
234.32716168559256
 21
-92.849648306065262
  0
LINE
  8
_0-7_細線
  6
CONTINUOUS
 62
    4
 10
237.83423632615796
 20
-92.849648306065262
 11
241.73423632615675
 21
-92.849648306065262
  0
LINE
  8
_0-7_細線
  6
CONTINUOUS
 62
    4
 10
252.53727504407726
 20
-92.849648306065262
 11
256.43727504407696
 21
-92.849648306065262
  0
LINE
  8
_0-7_細線
  6
CONTINUOUS
 62
    4
 10
259.43727504407696
 20
-92.849648306065262
 11
264.84249989988336
 21
-92.849648306065262
  0
LINE
  8
_0-7_細線
  6
CONTINUOUS
 62
    4
 10
273.92366464299209
 20
-92.849648306065262
 11
280.77764934622326
 21
-92.849648306065262
  0
LINE
  8
_0-7_細線
  6
CONTINUOUS
 62
    4
 10
288.55994277586694
 20
-92.849648306065262
 11
291.85994277586713
 21
-92.849648306065262
  0
LINE
  8
_0-7_細線
  6
CONTINUOUS
 62
    4
 10
206.28647957930008
 20
-92.249648306065467
 11
210.69571226066896
 21
-92.249648306065467
  0
LINE
  8
_0-7_細線
  6
CONTINUOUS
 62
    4
 10
220.33477483892545
 20
-92.249648306065467
 11
233.12396384123787
 21
-92.249648306065467
  0
LINE
  8
_0-7_細線
  6
CONTINUOUS
 62
    4
 10
237.55445173126446
 20
-92.249648306065467
 11
241.45445173126456
 21
-92.249648306065467
  0
LINE
  8
_0-7_細線
  6
CONTINUOUS
 62
    4
 10
252.81705963897076
 20
-92.249648306065467
 11
256.71705963897045
 21
-92.249648306065467
  0
LINE
  8
_0-7_細線
  6
CONTINUOUS
 62
    4
 10
259.71705963897085
 20
-92.249648306065467
 11
264.56271530499077
 21
-92.249648306065467
  0
LINE
  8
_0-7_細線
  6
CONTINUOUS
 62
    4
 10
273.92366464299209
 20
-92.249648306065467
 11
280.40272773507775
 21
-92.249648306065467
  0
LINE
  8
_0-7_細線
  6
CONTINUOUS
 62
    4
 10
288.55994277586694
 20
-92.249648306065467
 11
291.85994277586713
 21
-92.249648306065467
  0
LINE
  8
_0-7_細線
  6
CONTINUOUS
 62
    4
 10
206.56626417419267
 20
-91.64964830606533
 11
210.41592766577685
 21
-91.64964830606533
  0
LINE
  8
_0-7_細線
  6
CONTINUOUS
 62
    4
 10
220.33477483892545
 20
-91.64964830606533
 11
231.35877683233485
 21
-91.64964830606533
  0
LINE
  8
_0-7_細線
  6
CONTINUOUS
 62
    4
 10
237.27466713637185
 20
-91.64964830606533
 11
241.17466713637157
 21
-91.64964830606533
  0
LINE
  8
_0-7_細線
  6
CONTINUOUS
 62
    4
 10
253.09684423386426
 20
-91.64964830606533
 11
256.99684423386293
 21
-91.64964830606533
  0
LINE
  8
_0-7_細線
  6
CONTINUOUS
 62
    4
 10
259.99684423386395
 20
-91.64964830606533
 11
264.28293071009728
 21
-91.64964830606533
  0
LINE
  8
_0-7_細線
  6
CONTINUOUS
 62
    4
 10
273.92366464299209
 20
-91.64964830606533
 11
280.02780612393178
 21
-91.64964830606533
  0
LINE
  8
_0-7_細線
  6
CONTINUOUS
 62
    4
 10
288.55994277586694
 20
-91.64964830606533
 11
291.85994277586713
 21
-91.64964830606533
  0
LINE
  8
_0-7_細線
  6
CONTINUOUS
 62
    4
 10
166.233486499886
 20
-108.24284415169137
 11
178.84503590647989
 21
-108.24284415169137
  0
LINE
  8
_0-7_細線
  6
CONTINUOUS
 62
    4
 10
166.233486499886
 20
-107.9428441516913
 11
178.84503590647989
 21
-107.9428441516913
  0
LINE
  8
_0-7_細線
  6
CONTINUOUS
 62
    4
 10
166.233486499886
 20
-107.64284415169158
 11
178.84503590647989
 21
-107.64284415169158
  0
LINE
  8
_0-7_細線
  6
CONTINUOUS
 62
    4
 10
166.233486499886
 20
-107.34284415169162
 11
178.84503590647989
 21
-107.34284415169162
  0
LINE
  8
_0-7_細線
  6
CONTINUOUS
 62
    4
 10
166.233486499886
 20
-107.04284415169155
 11
178.84503590647989
 21
-107.04284415169155
  0
LINE
  8
_0-7_細線
  6
CONTINUOUS
 62
    4
 10
166.233486499886
 20
-106.74284415169149
 11
178.84503590647989
 21
-106.74284415169149
  0
LINE
  8
_0-7_細線
  6
CONTINUOUS
 62
    4
 10
166.233486499886
 20
-106.4428441516913
 11
178.84503590647989
 21
-106.4428441516913
  0
LINE
  8
_0-7_細線
  6
CONTINUOUS
 62
    4
 10
166.233486499886
 20
-106.14284415169158
 11
178.84503590647989
 21
-106.14284415169158
  0
LINE
  8
_0-7_細線
  6
CONTINUOUS
 62
    4
 10
166.233486499886
 20
-105.84284415169162
 11
178.84503590647989
 21
-105.84284415169162
  0
LINE
  8
_0-7_細線
  6
CONTINUOUS
 62
    4
 10
166.233486499886
 20
-105.5428441516919
 11
178.84503590647989
 21
-105.5428441516919
  0
LINE
  8
_0-7_細線
  6
CONTINUOUS
 62
    4
 10
166.233486499886
 20
-105.24284415169149
 11
178.84503590647989
 21
-105.24284415169149
  0
LINE
  8
_0-7_細線
  6
CONTINUOUS
 62
    4
 10
166.233486499886
 20
-104.94284415169176
 11
178.84503590647989
 21
-104.94284415169176
  0
LINE
  8
_0-7_細線
  6
CONTINUOUS
 62
    4
 10
166.233486499886
 20
-104.64284415169158
 11
178.84503590647989
 21
-104.64284415169158
  0
LINE
  8
_0-7_細線
  6
CONTINUOUS
 62
    4
 10
166.233486499886
 20
-104.34284415169162
 11
178.84503590647989
 21
-104.34284415169162
  0
LINE
  8
_0-7_細線
  6
CONTINUOUS
 62
    4
 10
166.233486499886
 20
-104.0428441516919
 11
178.84503590647989
 21
-104.0428441516919
  0
LINE
  8
_0-7_細線
  6
CONTINUOUS
 62
    4
 10
166.233486499886
 20
-103.74284415169149
 11
178.84503590647989
 21
-103.74284415169149
  0
LINE
  8
_0-7_細線
  6
CONTINUOUS
 62
    4
 10
166.233486499886
 20
-103.44284415169176
 11
178.84503590647989
 21
-103.44284415169176
  0
LINE
  8
_0-7_細線
  6
CONTINUOUS
 62
    4
 10
166.233486499886
 20
-103.14284415169169
 11
178.84503590647989
 21
-103.14284415169169
  0
LINE
  8
_0-7_細線
  6
CONTINUOUS
 62
    4
 10
166.233486499886
 20
-102.84284415169196
 11
178.84503590647989
 21
-102.84284415169196
  0
LINE
  8
_0-7_細線
  6
CONTINUOUS
 62
    4
 10
166.233486499886
 20
-102.5428441516919
 11
178.84503590647989
 21
-102.5428441516919
  0
LINE
  8
_0-7_細線
  6
CONTINUOUS
 62
    4
 10
166.233486499886
 20
-102.24284415169183
 11
178.84503590647989
 21
-102.24284415169183
  0
LINE
  8
_0-7_細線
  6
CONTINUOUS
 62
    4
 10
166.233486499886
 20
-101.94284415169176
 11
178.84503590647989
 21
-101.94284415169176
  0
LINE
  8
_0-7_細線
  6
CONTINUOUS
 62
    4
 10
166.233486499886
 20
-101.64284415169169
 11
178.84503590647989
 21
-101.64284415169169
  0
LINE
  8
_0-7_細線
  6
CONTINUOUS
 62
    4
 10
166.233486499886
 20
-101.34284415169196
 11
178.84503590647989
 21
-101.34284415169196
  0
LINE
  8
_0-7_細線
  6
CONTINUOUS
 62
    4
 10
166.233486499886
 20
-101.0428441516919
 11
178.84503590647989
 21
-101.0428441516919
  0
LINE
  8
_0-7_細線
  6
CONTINUOUS
 62
    4
 10
166.233486499886
 20
-100.74284415169217
 11
178.84503590647989
 21
-100.74284415169217
  0
LINE
  8
_0-7_細線
  6
CONTINUOUS
 62
    4
 10
166.233486499886
 20
-100.44284415169176
 11
178.84503590647989
 21
-100.44284415169176
  0
LINE
  8
_0-7_細線
  6
CONTINUOUS
 62
    4
 10
166.233486499886
 20
-100.14284415169203
 11
178.84503590647989
 21
-100.14284415169203
  0
LINE
  8
_0-7_細線
  6
CONTINUOUS
 62
    4
 10
166.233486499886
 20
-99.842844151692191
 11
178.84503590647989
 21
-99.842844151692191
  0
LINE
  8
_0-7_細線
  6
CONTINUOUS
 62
    4
 10
166.233486499886
 20
-99.542844151691895
 11
178.84503590647989
 21
-99.542844151691895
  0
LINE
  8
_0-7_細線
  6
CONTINUOUS
 62
    4
 10
166.233486499886
 20
-99.242844151691827
 11
178.84503590647989
 21
-99.242844151691827
  0
LINE
  8
_0-7_細線
  6
CONTINUOUS
 62
    4
 10
166.233486499886
 20
-98.9428441516921
 11
178.84503590647989
 21
-98.9428441516921
  0
LINE
  8
_0-7_細線
  6
CONTINUOUS
 62
    4
 10
166.233486499886
 20
-98.642844151692032
 11
178.84503590647989
 21
-98.642844151692032
  0
LINE
  8
_0-7_細線
  6
CONTINUOUS
 62
    4
 10
166.233486499886
 20
-98.342844151692191
 11
178.84503590647989
 21
-98.342844151692191
  0
LINE
  8
_0-7_細線
  6
CONTINUOUS
 62
    4
 10
166.233486499886
 20
-98.042844151691895
 11
178.84503590647989
 21
-98.042844151691895
  0
LINE
  8
_0-7_細線
  6
CONTINUOUS
 62
    4
 10
166.233486499886
 20
-97.742844151691827
 11
178.84503590647989
 21
-97.742844151691827
  0
LINE
  8
_0-7_細線
  6
CONTINUOUS
 62
    4
 10
166.233486499886
 20
-97.4428441516921
 11
178.84503590647989
 21
-97.4428441516921
  0
LINE
  8
_0-7_細線
  6
CONTINUOUS
 62
    4
 10
166.233486499886
 20
-97.142844151692032
 11
178.84503590647989
 21
-97.142844151692032
  0
LINE
  8
_0-7_細線
  6
CONTINUOUS
 62
    4
 10
166.233486499886
 20
-96.842844151692191
 11
178.84503590647989
 21
-96.842844151692191
  0
LINE
  8
_0-7_細線
  6
CONTINUOUS
 62
    4
 10
166.233486499886
 20
-96.542844151691895
 11
178.84503590647989
 21
-96.542844151691895
  0
LINE
  8
_0-7_細線
  6
CONTINUOUS
 62
    4
 10
166.233486499886
 20
-96.242844151692168
 11
178.84503590647989
 21
-96.242844151692168
  0
LINE
  8
_0-7_細線
  6
CONTINUOUS
 62
    4
 10
166.233486499886
 20
-95.9428441516921
 11
178.84503590647989
 21
-95.9428441516921
  0
LINE
  8
_0-7_細線
  6
CONTINUOUS
 62
    4
 10
194.67697413163376
 20
-81.84284415169185
 11
199.06764741709674
 21
-81.84284415169185
  0
LINE
  8
_0-7_細線
  6
CONTINUOUS
 62
    4
 10
193.86007885877996
 20
-81.242844151692054
 11
199.88454268995054
 21
-81.242844151692054
  0
LINE
  8
_0-7_細線
  6
CONTINUOUS
 62
    4
 10
193.32159545887669
 20
-80.642844151691918
 11
200.42302608985381
 21
-80.642844151691918
  0
LINE
  8
_0-7_細線
  6
CONTINUOUS
 62
    4
 10
192.94527405566703
 20
-80.042844151692123
 11
200.79934749306346
 21
-80.042844151692123
  0
LINE
  8
_0-7_細線
  6
CONTINUOUS
 62
    4
 10
192.68713986645787
 20
-79.442844151691645
 11
201.05748168227262
 21
-79.442844151691645
  0
LINE
  8
_0-7_細線
  6
CONTINUOUS
 62
    4
 10
192.52608325308654
 20
-78.842844151692191
 11
201.21853829564395
 21
-78.842844151692191
  0
LINE
  8
_0-7_細線
  6
CONTINUOUS
 62
    4
 10
192.45148146244799
 20
-78.242844151692054
 11
201.29314008628251
 21
-78.242844151692054
  0
LINE
  8
_0-7_細線
  6
CONTINUOUS
 62
    4
 10
192.45894811721962
 20
-77.642844151692259
 11
201.28567343151087
 21
-77.642844151692259
  0
LINE
  8
_0-7_細線
  6
CONTINUOUS
 62
    4
 10
192.5489084010195
 20
-77.042844151692123
 11
201.19571314771099
 21
-77.042844151692123
  0
LINE
  8
_0-7_細線
  6
CONTINUOUS
 62
    4
 10
192.72672924456572
 20
-76.442844151692327
 11
201.01789230416477
 21
-76.442844151692327
  0
LINE
  8
_0-7_細線
  6
CONTINUOUS
 62
    4
 10
193.00450980242465
 20
-75.842844151692191
 11
200.74011174630584
 21
-75.842844151692191
  0
LINE
  8
_0-7_細線
  6
CONTINUOUS
 62
    4
 10
193.40620020242466
 20
-75.242844151692054
 11
200.33842134630584
 21
-75.242844151692054
  0
LINE
  8
_0-7_細線
  6
CONTINUOUS
 62
    4
 10
193.98302701618275
 20
-74.642844151692259
 11
199.76159453254775
 21
-74.642844151692259
  0
LINE
  8
_0-7_細線
  6
CONTINUOUS
 62
    4
 10
194.88183375272899
 20
-74.042844151692464
 11
198.8627877960015
 21
-74.042844151692464
  0
LINE
  8
_0-7_細線
  6
CONTINUOUS
 62
    4
 10
201.06694703889013
 20
-79.415133429888954
 11
201.06694703889013
 21
-76.580491309553906
  0
LINE
  8
_0-7_細線
  6
CONTINUOUS
 62
    4
 10
200.46694703889068
 20
-80.582838966305133
 11
200.46694703889068
 21
-75.412785773137728
  0
LINE
  8
_0-7_細線
  6
CONTINUOUS
 62
    4
 10
199.86694703889077
 20
-81.259089117019414
 11
199.86694703889077
 21
-74.736535622423105
  0
LINE
  8
_0-7_細線
  6
CONTINUOUS
 62
    4
 10
199.26694703889086
 20
-81.721988726972484
 11
199.26694703889086
 21
-74.273636012470376
  0
LINE
  8
_0-7_細線
  6
CONTINUOUS
 62
    4
 10
198.66694703889141
 20
-82.045410800561001
 11
198.66694703889141
 21
-73.950213938881859
  0
LINE
  8
_0-7_細線
  6
CONTINUOUS
 62
    4
 10
198.06694703889013
 20
-82.261216710711835
 11
198.06694703889013
 21
-73.734408028730684
  0
LINE
  8
_0-7_細線
  6
CONTINUOUS
 62
    4
 10
197.46694703889068
 20
-82.385315086777211
 11
197.46694703889068
 21
-73.610309652665308
  0
LINE
  8
_0-7_細線
  6
CONTINUOUS
 62
    4
 10
196.86694703889077
 20
-82.425423871381497
 11
196.86694703889077
 21
-73.570200868061022
  0
LINE
  8
_0-7_細線
  6
CONTINUOUS
 62
    4
 10
178.56694703889013
 20
-108.30453293415331
 11
178.56694703889013
 21
-95.675225301927583
  0
LINE
  8
_0-7_細線
  6
CONTINUOUS
 62
    4
 10
178.26694703889086
 20
-108.30453293415331
 11
178.26694703889086
 21
-95.675225301927583
  0
LINE
  8
_0-7_細線
  6
CONTINUOUS
 62
    4
 10
177.96694703889068
 20
-108.30453293415331
 11
177.96694703889068
 21
-95.675225301927583
  0
LINE
  8
_0-7_細線
  6
CONTINUOUS
 62
    4
 10
177.6669470388905
 20
-108.30453293415331
 11
177.66694703889141
 21
-95.675225301927583
  0
LINE
  8
_0-7_細線
  6
CONTINUOUS
 62
    4
 10
177.36694703889077
 20
-108.30453293415331
 11
177.36694703889077
 21
-95.675225301927583
  0
LINE
  8
_0-7_細線
  6
CONTINUOUS
 62
    4
 10
177.06694703889013
 20
-108.30453293415331
 11
177.06694703889013
 21
-95.675225301927583
  0
LINE
  8
_0-7_細線
  6
CONTINUOUS
 62
    4
 10
176.76694703889086
 20
-108.30453293415331
 11
176.76694703889086
 21
-95.675225301927583
  0
LINE
  8
_0-7_細線
  6
CONTINUOUS
 62
    4
 10
176.46694703889068
 20
-108.30453293415331
 11
176.46694703889068
 21
-95.675225301927583
  0
LINE
  8
_0-7_細線
  6
CONTINUOUS
 62
    4
 10
176.1669470388905
 20
-108.30453293415331
 11
176.1669470388905
 21
-95.675225301927583
  0
LINE
  8
_0-7_細線
  6
CONTINUOUS
 62
    4
 10
175.86694703889077
 20
-108.30453293415331
 11
175.86694703889077
 21
-95.675225301927583
  0
LINE
  8
_0-7_細線
  6
CONTINUOUS
 62
    4
 10
175.56694703889013
 20
-108.30453293415331
 11
175.56694703889013
 21
-95.675225301927583
  0
LINE
  8
_0-7_細線
  6
CONTINUOUS
 62
    4
 10
175.26694703889086
 20
-108.30453293415331
 11
175.26694703889086
 21
-95.675225301927583
  0
LINE
  8
_0-7_細線
  6
CONTINUOUS
 62
    4
 10
174.96694703889068
 20
-108.30453293415331
 11
174.96694703889068
 21
-95.675225301927583
  0
LINE
  8
_0-7_細線
  6
CONTINUOUS
 62
    4
 10
174.66694703889141
 20
-108.30453293415331
 11
174.66694703889141
 21
-95.675225301927583
  0
LINE
  8
_0-7_細線
  6
CONTINUOUS
 62
    4
 10
174.36694703889077
 20
-108.30453293415331
 11
174.36694703889077
 21
-95.675225301927583
  0
LINE
  8
_0-7_細線
  6
CONTINUOUS
 62
    4
 10
174.06694703889013
 20
-108.30453293415331
 11
174.06694703889013
 21
-95.675225301927583
  0
LINE
  8
_0-7_細線
  6
CONTINUOUS
 62
    4
 10
173.76694703889086
 20
-108.30453293415331
 11
173.76694703889086
 21
-95.675225301927583
  0
LINE
  8
_0-7_細線
  6
CONTINUOUS
 62
    4
 10
173.46694703889068
 20
-108.30453293415331
 11
173.46694703889068
 21
-95.675225301927583
  0
LINE
  8
_0-7_細線
  6
CONTINUOUS
 62
    4
 10
173.1669470388905
 20
-108.30453293415331
 11
173.1669470388905
 21
-95.675225301927583
  0
LINE
  8
_0-7_細線
  6
CONTINUOUS
 62
    4
 10
172.86694703889077
 20
-108.30453293415331
 11
172.86694703889077
 21
-95.675225301927583
  0
LINE
  8
_0-7_細線
  6
CONTINUOUS
 62
    4
 10
172.56694703889013
 20
-108.30453293415331
 11
172.56694703889013
 21
-95.675225301927583
  0
LINE
  8
_0-7_細線
  6
CONTINUOUS
 62
    4
 10
172.26694703889086
 20
-108.30453293415331
 11
172.26694703889086
 21
-95.675225301927583
  0
LINE
  8
_0-7_細線
  6
CONTINUOUS
 62
    4
 10
171.96694703889068
 20
-108.30453293415331
 11
171.96694703889068
 21
-95.675225301927583
  0
LINE
  8
_0-7_細線
  6
CONTINUOUS
 62
    4
 10
171.66694703889141
 20
-108.30453293415331
 11
171.66694703889141
 21
-95.675225301927583
  0
LINE
  8
_0-7_細線
  6
CONTINUOUS
 62
    4
 10
171.36694703889077
 20
-108.30453293415331
 11
171.36694703889077
 21
-95.675225301927583
  0
LINE
  8
_0-7_細線
  6
CONTINUOUS
 62
    4
 10
171.06694703889013
 20
-108.30453293415331
 11
171.06694703889013
 21
-95.675225301927583
  0
LINE
  8
_0-7_細線
  6
CONTINUOUS
 62
    4
 10
170.76694703889086
 20
-108.30453293415331
 11
170.76694703889086
 21
-95.675225301927583
  0
LINE
  8
_0-7_細線
  6
CONTINUOUS
 62
    4
 10
170.46694703889068
 20
-108.30453293415331
 11
170.46694703889068
 21
-95.675225301927583
  0
LINE
  8
_0-7_細線
  6
CONTINUOUS
 62
    4
 10
170.16694703889141
 20
-108.30453293415331
 11
170.16694703889141
 21
-95.675225301927583
  0
LINE
  8
_0-7_細線
  6
CONTINUOUS
 62
    4
 10
169.86694703889077
 20
-108.30453293415331
 11
169.86694703889077
 21
-95.675225301927583
  0
LINE
  8
_0-7_細線
  6
CONTINUOUS
 62
    4
 10
169.56694703889013
 20
-108.30453293415331
 11
169.56694703889013
 21
-95.675225301927583
  0
LINE
  8
_0-7_細線
  6
CONTINUOUS
 62
    4
 10
169.26694703889086
 20
-108.30453293415331
 11
169.26694703889086
 21
-95.675225301927583
  0
LINE
  8
_0-7_細線
  6
CONTINUOUS
 62
    4
 10
168.96694703889068
 20
-108.30453293415331
 11
168.96694703889068
 21
-95.675225301927583
  0
LINE
  8
_0-7_細線
  6
CONTINUOUS
 62
    4
 10
168.6669470388905
 20
-108.30453293415331
 11
168.6669470388905
 21
-95.675225301927583
  0
LINE
  8
_0-7_細線
  6
CONTINUOUS
 62
    4
 10
168.36694703889077
 20
-108.30453293415331
 11
168.36694703889077
 21
-95.675225301927583
  0
LINE
  8
_0-7_細線
  6
CONTINUOUS
 62
    4
 10
168.06694703889104
 20
-108.30453293415331
 11
168.06694703889104
 21
-95.675225301927583
  0
LINE
  8
_0-7_細線
  6
CONTINUOUS
 62
    4
 10
167.76694703889086
 20
-108.30453293415331
 11
167.76694703889086
 21
-95.675225301927583
  0
LINE
  8
_0-7_細線
  6
CONTINUOUS
 62
    4
 10
167.46694703889068
 20
-108.30453293415331
 11
167.46694703889068
 21
-95.675225301927583
  0
LINE
  8
_0-7_細線
  6
CONTINUOUS
 62
    4
 10
167.16694703889141
 20
-108.30453293415331
 11
167.16694703889141
 21
-95.675225301927583
  0
LINE
  8
_0-7_細線
  6
CONTINUOUS
 62
    4
 10
166.86694703889077
 20
-108.30453293415331
 11
166.86694703889077
 21
-95.675225301927583
  0
LINE
  8
_0-7_細線
  6
CONTINUOUS
 62
    4
 10
166.56694703889013
 20
-108.30453293415331
 11
166.56694703889013
 21
-95.675225301927583
  0
LINE
  8
_0-7_細線
  6
CONTINUOUS
 62
    4
 10
166.26694703889086
 20
-108.30453293415331
 11
166.26694703889086
 21
-95.675225301927583
  0
LINE
  8
_0-7_細線
  6
CONTINUOUS
 62
    4
 10
173.16618968134378
 20
-86.443825153104683
 11
156.09571451091858
 21
-108.67028057908664
  0
LINE
  8
_0-7_細線
  6
CONTINUOUS
 62
    4
 10
156.09571451091858
 20
-108.67028057908664
 11
154.42350469830569
 21
-109.3670346676758
  0
LINE
  8
_0-7_細線
  6
CONTINUOUS
 62
    4
 10
154.42350469830569
 20
-109.3670346676758
 11
152.89064570341031
 21
-109.92443793854653
  0
LINE
  8
_0-7_細線
  6
CONTINUOUS
 62
    4
 10
152.89064570341031
 20
-109.92443793854653
 11
152.05454079710387
 21
-109.15800844109918
  0
LINE
  8
_0-7_細線
  6
CONTINUOUS
 62
    4
 10
152.05454079710387
 20
-109.15800844109918
 11
151.35778670851539
 21
-108.18255271707477
  0
LINE
  8
_0-7_細線
  6
CONTINUOUS
 62
    4
 10
151.35778670851539
 20
-108.18255271707477
 11
150.80038343764397
 21
-106.30131667788515
  0
LINE
  8
_0-7_細線
  6
CONTINUOUS
 62
    4
 10
150.80038343764397
 20
-106.30131667788515
 11
151.35778670851539
 21
-104.55943145641294
  0
LINE
  8
_0-7_細線
  6
CONTINUOUS
 62
    4
 10
151.35778670851539
 20
-104.55943145641294
 11
153.44804897428173
 21
-101.56338887548117
  0
LINE
  8
_0-7_細線
  6
CONTINUOUS
 62
    4
 10
153.44804897428173
 20
-101.56338887548117
 11
169.19469137638805
 21
-80.242713764664302
  0
LINE
  8
_0-7_細線
  6
CONTINUOUS
 62
    4
 10
169.19469137638805
 20
-80.242713764664302
 11
169.19469137638805
 21
-78.709854769769379
  0
LINE
  8
_0-7_細線
  6
CONTINUOUS
 62
    4
 10
169.19469137638805
 20
-78.709854769769379
 11
169.6127438295415
 21
-77.734399045744965
  0
LINE
  8
_0-7_細線
  6
CONTINUOUS
 62
    4
 10
169.6127438295415
 20
-77.734399045744965
 11
170.72755037128343
 21
-76.480241686284955
  0
LINE
  8
_0-7_細線
  6
CONTINUOUS
 62
    4
 10
170.72755037128343
 20
-76.480241686284955
 11
171.07592741557789
 21
-76.131864641991058
  0
LINE
  8
_0-7_細線
  6
CONTINUOUS
 62
    4
 10
171.07592741557789
 20
-76.131864641991058
 11
171.7030060953083
 21
-75.226084326825287
  0
LINE
  8
_0-7_細線
  6
CONTINUOUS
 62
    4
 10
171.7030060953083
 20
-75.226084326825287
 11
172.74813722819079
 21
-75.08673350910766
  0
LINE
  8
_0-7_細線
  6
CONTINUOUS
 62
    4
 10
172.74813722819079
 20
-75.08673350910766
 11
174.55969785852164
 21
-74.73835646481308
  0
LINE
  8
_0-7_細線
  6
CONTINUOUS
 62
    4
 10
174.55969785852164
 20
-74.73835646481308
 11
175.25645194711058
 21
-74.808031873672064
  0
LINE
  8
_0-7_細線
  6
CONTINUOUS
 62
    4
 10
175.25645194711058
 20
-74.808031873672064
 11
176.71963553314697
 21
-75.295759735684271
  0
LINE
  8
_0-7_細線
  6
CONTINUOUS
 62
    4
 10
176.71963553314697
 20
-75.295759735684271
 11
177.27703880401793
 21
-75.992513824272748
  0
LINE
  8
_0-7_細線
  6
CONTINUOUS
 62
    4
 10
177.27703880401793
 20
-75.992513824272748
 11
178.80989779891377
 21
-78.013100681180561
  0
LINE
  8
_0-7_細線
  6
CONTINUOUS
 62
    4
 10
178.80989779891377
 20
-78.013100681180561
 11
183.54782560131696
 21
-85.886421882233833
  0
LINE
  8
_0-7_細線
  6
CONTINUOUS
 62
    4
 10
186.90441400367388
 20
-91.556850012555799
 11
193.64802904676151
 21
-103.19791310861075
  0
LINE
  8
_0-7_細線
  6
CONTINUOUS
 62
    4
 10
193.64802904676151
 20
-103.19791310861075
 11
194.29469174398662
 21
-104.86076004433363
  0
LINE
  8
_0-7_細線
  6
CONTINUOUS
 62
    4
 10
194.29469174398662
 20
-104.86076004433363
 11
194.01755058803326
 21
-105.69218351219473
  0
LINE
  8
_0-7_細線
  6
CONTINUOUS
 62
    4
 10
194.01755058803326
 20
-105.69218351219473
 11
193.18612712017136
 21
-106.84693832866895
  0
LINE
  8
_0-7_細線
  6
CONTINUOUS
 62
    4
 10
193.18612712017136
 20
-106.84693832866895
 11
189.95281363404445
 21
-107.8169323745073
  0
LINE
  8
_0-7_細線
  6
CONTINUOUS
 62
    4
 10
189.95281363404445
 20
-107.8169323745073
 11
188.01282554236775
 21
-108.50978526439184
  0
LINE
  8
_0-7_細線
  6
CONTINUOUS
 62
    4
 10
188.01282554236775
 20
-108.50978526439184
 11
186.30378841398567
 21
-107.8169323745073
  0
LINE
  8
_0-7_細線
  6
CONTINUOUS
 62
    4
 10
186.30378841398567
 20
-107.8169323745073
 11
183.67094743242512
 21
-104.99933062231042
  0
LINE
  8
_0-7_細線
  6
CONTINUOUS
 62
    4
 10
183.67094743242512
 20
-104.99933062231042
 11
183.57856704710673
 21
-103.47505426456456
  0
LINE
  8
_0-7_細線
  6
CONTINUOUS
 62
    4
 10
183.57856704710673
 20
-103.47505426456456
 11
173.16618968134378
 21
-86.443825153104683
  0
LINE
  8
_0-7_細線
  6
CONTINUOUS
 62
    4
 10
192.86196822755289
 20
-106.9441859964532
 11
193.76961312689025
 21
-106.0365410971155
  0
LINE
  8
_0-7_細線
  6
CONTINUOUS
 62
    4
 10
191.64978517409361
 20
-107.30784091249228
 11
194.23930054750087
 21
-104.71832553908467
  0
LINE
  8
_0-7_細線
  6
CONTINUOUS
 62
    4
 10
190.43760212062887
 20
-107.6714958285317
 11
194.00171266902169
 21
-104.107385280139
  0
LINE
  8
_0-7_細線
  6
CONTINUOUS
 62
    4
 10
189.16076177233197
 20
-108.09980803940397
 11
193.7641247905425
 21
-103.4964450211931
  0
LINE
  8
_0-7_細線
  6
CONTINUOUS
 62
    4
 10
187.93415135197154
 20
-108.47789032233931
 11
193.48887163377083
 21
-102.92317004054036
  0
LINE
  8
_0-7_細線
  6
CONTINUOUS
 62
    4
 10
187.33039094649928
 20
-108.23312259039113
 11
193.17762620055271
 21
-102.38588733633816
  0
LINE
  8
_0-7_細線
  6
CONTINUOUS
 62
    4
 10
186.72663054102475
 20
-107.98835485844137
 11
192.86638076733323
 21
-101.84860463213266
  0
LINE
  8
_0-7_細線
  6
CONTINUOUS
 62
    4
 10
186.1809662020554
 20
-107.68549105998505
 11
192.55513533411329
 21
-101.31132192792728
  0
LINE
  8
_0-7_細線
  6
CONTINUOUS
 62
    4
 10
185.77108396618075
 20
-107.24684515843495
 11
192.24388990089381
 21
-100.77403922372213
  0
LINE
  8
_0-7_細線
  6
CONTINUOUS
 62
    4
 10
185.36120173030611
 20
-106.80819925688508
 11
191.93264446767432
 21
-100.23675651951652
  0
LINE
  8
_0-7_細線
  6
CONTINUOUS
 62
    4
 10
184.95131949443419
 20
-106.36955335533713
 11
191.62139903445575
 21
-99.699473815314889
  0
LINE
  8
_0-7_細線
  6
CONTINUOUS
 62
    4
 10
184.54143725855909
 20
-105.93090745378703
 11
191.31015360123627
 21
-99.162191111109394
  0
LINE
  8
_0-7_細線
  6
CONTINUOUS
 62
    4
 10
184.13155502268444
 20
-105.49226155223658
 11
190.99890816801678
 21
-98.624908406904126
  0
LINE
  8
_0-7_細線
  6
CONTINUOUS
 62
    4
 10
183.72167278680979
 20
-105.05361565068682
 11
190.68766273479685
 21
-98.087625702698745
  0
LINE
  8
_0-7_細線
  6
CONTINUOUS
 62
    4
 10
183.62846070358808
 20
-104.29829959648833
 11
190.37641730157964
 21
-97.55034299849666
  0
LINE
  8
_0-7_細線
  6
CONTINUOUS
 62
    4
 10
183.57997338144958
 20
-103.49825878120197
 11
190.06517186836015
 21
-97.013060294291392
  0
LINE
  8
_0-7_細線
  6
CONTINUOUS
 62
    4
 10
183.26596463051999
 20
-102.96373939470612
 11
189.75392643513976
 21
-96.475777590086125
  0
LINE
  8
_0-7_細線
  6
CONTINUOUS
 62
    4
 10
182.94402461218885
 20
-102.43715127561182
 11
189.44268100191937
 21
-95.938494885880857
  0
LINE
  8
_0-7_細線
  6
CONTINUOUS
 62
    4
 10
182.62208459385863
 20
-101.91056315651707
 11
189.13143556869989
 21
-95.401212181675589
  0
LINE
  8
_0-7_細線
  6
CONTINUOUS
 62
    4
 10
182.30014457552977
 20
-101.3839750374263
 11
188.82019013548268
 21
-94.863929477473391
  0
LINE
  8
_0-7_細線
  6
CONTINUOUS
 62
    4
 10
181.97820455719955
 20
-100.85738691833177
 11
188.50894470226319
 21
-94.326646773268124
  0
LINE
  8
_0-7_細線
  6
CONTINUOUS
 62
    4
 10
181.65626453886841
 20
-100.33079879923758
 11
188.19769926904326
 21
-93.789364069062742
  0
LINE
  8
_0-7_細線
  6
CONTINUOUS
 62
    4
 10
181.33432452053682
 20
-99.804210680143285
 11
187.88645383582377
 21
-93.252081364857588
  0
LINE
  8
_0-7_細線
  6
CONTINUOUS
 62
    4
 10
181.01238450220887
 20
-99.277622561052169
 11
187.5752084026052
 21
-92.714798660655617
  0
LINE
  8
_0-7_細線
  6
CONTINUOUS
 62
    4
 10
180.69044448387865
 20
-98.751034441957302
 11
187.26396296938572
 21
-92.177515956449668
  0
LINE
  8
_0-7_細線
  6
CONTINUOUS
 62
    4
 10
180.36850446554752
 20
-98.22444632286323
 11
186.95271753616623
 21
-91.640233252244741
  0
LINE
  8
_0-7_細線
  6
CONTINUOUS
 62
    4
 10
180.04656444721684
 20
-97.697858203769044
 11
186.18757263842951
 21
-91.556850012556026
  0
LINE
  8
_0-7_細線
  6
CONTINUOUS
 62
    4
 10
179.72462442888798
 20
-97.17127008467827
 11
185.3390445010117
 21
-91.556850012555117
  0
LINE
  8
_0-7_細線
  6
CONTINUOUS
 62
    4
 10
179.40268441055775
 20
-96.644681965583402
 11
184.49051636358479
 21
-91.556850012555799
  0
LINE
  8
_0-7_細線
  6
CONTINUOUS
 62
    4
 10
179.08074439222662
 20
-96.118093846489217
 11
183.64198822616152
 21
-91.556850012555117
  0
LINE
  8
_0-7_細線
  6
CONTINUOUS
 62
    4
 10
178.75880437389685
 20
-95.591505727395031
 11
182.79346008873642
 21
-91.556850012554435
  0
LINE
  8
_0-7_細線
  6
CONTINUOUS
 62
    4
 10
178.43686435556572
 20
-95.064917608300391
 11
181.94493195131042
 21
-91.556850012555458
  0
LINE
  8
_0-7_細線
  6
CONTINUOUS
 62
    4
 10
178.11492433723686
 20
-94.538329489209389
 11
181.0964038138917
 21
-91.556850012554435
  0
LINE
  8
_0-7_細線
  6
CONTINUOUS
 62
    4
 10
177.79298431890572
 20
-94.011741370114862
 11
180.30969215352559
 21
-91.495033535495566
  0
LINE
  8
_0-7_細線
  6
CONTINUOUS
 62
    4
 10
177.47104430057595
 20
-93.485153251020677
 11
181.46880314507132
 21
-89.487394406525084
  0
LINE
  8
_0-7_細線
  6
CONTINUOUS
 62
    4
 10
177.14910428224482
 20
-92.958565131926719
 11
182.6279141366216
 21
-87.4797552775496
  0
LINE
  8
_0-7_細線
  6
CONTINUOUS
 62
    4
 10
176.82716426391596
 20
-92.431977012835375
 11
183.48203984406689
 21
-85.777101432684788
  0
LINE
  8
_0-7_細線
  6
CONTINUOUS
 62
    4
 10
176.50522424558574
 20
-91.905388893740735
 11
183.16325579243801
 21
-85.247357346888919
  0
LINE
  8
_0-7_細線
  6
CONTINUOUS
 62
    4
 10
176.18328422725506
 20
-91.378800774646663
 11
182.84447174080822
 21
-84.717613261093163
  0
LINE
  8
_0-7_細線
  6
CONTINUOUS
 62
    4
 10
175.86134420892392
 20
-90.852212655552364
 11
182.52568768917843
 21
-84.187869175297863
  0
LINE
  8
_0-7_細線
  6
CONTINUOUS
 62
    4
 10
175.53940419059279
 20
-90.325624536457838
 11
182.20690363754954
 21
-83.658125089502221
  0
LINE
  8
_0-7_細線
  6
CONTINUOUS
 62
    4
 10
175.21746417226484
 20
-89.799036417366722
 11
181.88811958592203
 21
-83.128381003709649
  0
LINE
  8
_0-7_細線
  6
CONTINUOUS
 62
    4
 10
155.070532846118
 20
-109.09743960608768
 11
158.07565432526269
 21
-106.09231812694333
  0
LINE
  8
_0-7_細線
  6
CONTINUOUS
 62
    4
 10
174.89552415393416
 20
-89.27244829827265
 11
181.56933553429315
 21
-82.598636917913666
  0
LINE
  8
_0-7_細線
  6
CONTINUOUS
 62
    4
 10
153.68321247499114
 20
-109.63623183979036
 11
160.88497045592328
 21
-102.4344738588581
  0
LINE
  8
_0-7_細線
  6
CONTINUOUS
 62
    4
 10
174.57358413560303
 20
-88.745860179178351
 11
181.25055148266335
 21
-82.068892832118024
  0
LINE
  8
_0-7_細線
  6
CONTINUOUS
 62
    4
 10
152.71108006970542
 20
-109.75983610765076
 11
163.69428658659024
 21
-98.77662959076639
  0
LINE
  8
_0-7_細線
  6
CONTINUOUS
 62
    4
 10
174.25164411727189
 20
-88.219272060083824
 11
180.93176743103402
 21
-81.539148746322383
  0
LINE
  8
_0-7_細線
  6
CONTINUOUS
 62
    4
 10
152.26836973713841
 20
-109.35401830279744
 11
166.50360271723355
 21
-95.118785322702649
  0
LINE
  8
_0-7_細線
  6
CONTINUOUS
 62
    4
 10
173.92970409894394
 20
-87.692683940992708
 11
180.61298337940741
 21
-81.00940466052981
  0
LINE
  8
_0-7_細線
  6
CONTINUOUS
 62
    4
 10
151.87175357389867
 20
-108.90210632861243
 11
169.31291884790278
 21
-91.46094105460844
  0
LINE
  8
_0-7_細線
  6
CONTINUOUS
 62
    4
 10
173.60776408061372
 20
-87.166095821898182
 11
180.29419932777716
 21
-80.479660574734169
  0
LINE
  8
_0-7_細線
  6
CONTINUOUS
 62
    4
 10
151.51820018330534
 20
-108.40713158178136
 11
172.12223497856564
 21
-87.803096786520825
  0
LINE
  8
_0-7_細線
  6
CONTINUOUS
 62
    4
 10
173.28582406228259
 20
-86.63950770280411
 11
179.97541527614828
 21
-79.9499164889383
  0
LINE
  8
_0-7_細線
  6
CONTINUOUS
 62
    4
 10
151.25183566898784
 20
-107.82496795867354
 11
179.6566312245194
 21
-79.420172403142544
  0
LINE
  8
_0-7_細線
  6
CONTINUOUS
 62
    4
 10
151.0578863804343
 20
-107.17038910980176
 11
179.33784717288916
 21
-78.890428317347244
  0
LINE
  8
_0-7_細線
  6
CONTINUOUS
 62
    4
 10
150.86393709188076
 20
-106.51581026093544
 11
179.01906312126255
 21
-78.36068423155433
  0
LINE
  8
_0-7_細線
  6
CONTINUOUS
 62
    4
 10
151.06884503770914
 20
-105.46237417768231
 11
178.68403223374787
 21
-77.847186981643688
  0
LINE
  8
_0-7_細線
  6
CONTINUOUS
 62
    4
 10
151.8990030630365
 20
-103.78368801492985
 11
178.31800048819184
 21
-77.364690589774966
  0
LINE
  8
_0-7_細線
  6
CONTINUOUS
 62
    4
 10
153.94885059283968
 20
-100.8853123477017
 11
177.95196874263581
 21
-76.882194197905903
  0
LINE
  8
_0-7_細線
  6
CONTINUOUS
 62
    4
 10
156.34594258104141
 20
-97.639692222079987
 11
177.58593699708206
 21
-76.399697806039569
  0
LINE
  8
_0-7_細線
  6
CONTINUOUS
 62
    4
 10
158.74303456926907
 20
-94.394072096427919
 11
177.21817393175377
 21
-75.918932733942768
  0
LINE
  8
_0-7_細線
  6
CONTINUOUS
 62
    4
 10
161.14012655749264
 20
-91.148451970779263
 11
176.8410503151207
 21
-75.447528213151429
  0
LINE
  8
_0-7_細線
  6
CONTINUOUS
 62
    4
 10
163.53721854572302
 20
-87.902831845123217
 11
176.28812687465859
 21
-75.151923516188219
  0
LINE
  8
_0-7_細線
  6
CONTINUOUS
 62
    4
 10
165.93431053394386
 20
-84.657211719477857
 11
175.65173077159022
 21
-74.939791481831264
  0
LINE
  8
_0-7_細線
  6
CONTINUOUS
 62
    4
 10
168.33140252215605
 20
-81.411591593846595
 11
174.96418857912875
 21
-74.778805536873563
  0
LINE
  8
_0-7_細線
  6
CONTINUOUS
 62
    4
 10
169.1946913763885
 20
-79.699774602187574
 11
174.06001705072492
 21
-74.834448927851724
  0
LINE
  8
_0-7_細線
  6
CONTINUOUS
 62
    4
 10
169.1946913763885
 20
-78.851246464763165
 11
173.00945840439033
 21
-75.036479436761226
  0
LINE
  8
_0-7_細線
  6
CONTINUOUS
 62
    4
 10
171.0992877117186
 20
-76.09812199200843
 11
172.01260526637805
 21
-75.184804437348191
  0
LINE
  8
_0-7_細線
  6
CONTINUOUS
 62
    4
 10
151.33376505258627
 20
-108.10147962831894
 11
153.08576932030644
 21
-109.85348389603934
  0
LINE
  8
_0-7_細線
  6
CONTINUOUS
 62
    4
 10
150.97649004735638
 20
-106.89567648566384
 11
153.70802328775051
 21
-109.62720972605922
  0
LINE
  8
_0-7_細線
  6
CONTINUOUS
 62
    4
 10
150.90469251385264
 20
-105.97535081473512
 11
154.33027725519594
 21
-109.40093555607876
  0
LINE
  8
_0-7_細線
  6
CONTINUOUS
 62
    4
 10
151.1103963047434
 20
-105.33252646820114
 11
154.93272809071357
 21
-109.15485825417187
  0
LINE
  8
_0-7_細線
  6
CONTINUOUS
 62
    4
 10
151.31610009563235
 20
-104.68970212167056
 11
155.53168912889203
 21
-108.90529115493092
  0
LINE
  8
_0-7_細線
  6
CONTINUOUS
 62
    4
 10
151.63582952739887
 20
-104.1609034160121
 11
156.11721377331367
 21
-108.64228766192724
  0
LINE
  8
_0-7_細線
  6
CONTINUOUS
 62
    4
 10
151.98453972086179
 20
-103.66108547204936
 11
156.48581198903946
 21
-108.16235774022749
  0
LINE
  8
_0-7_細線
  6
CONTINUOUS
 62
    4
 10
152.33324991432335
 20
-103.16126752808685
 11
156.85441020476526
 21
-107.68242781852774
  0
LINE
  8
_0-7_細線
  6
CONTINUOUS
 62
    4
 10
152.68196010778399
 20
-102.6614495841273
 11
157.22300842048833
 21
-107.20249789683163
  0
LINE
  8
_0-7_細線
  6
CONTINUOUS
 62
    4
 10
153.03067030124646
 20
-102.16163164016456
 11
157.59160663621321
 21
-106.72256797513165
  0
LINE
  8
_0-7_細線
  6
CONTINUOUS
 62
    4
 10
153.37938049470802
 20
-101.66181369620148
 11
157.96020485193901
 21
-106.2426380534319
  0
LINE
  8
_0-7_細線
  6
CONTINUOUS
 62
    4
 10
153.73753069080692
 20
-101.17143575487484
 11
158.32880306766435
 21
-105.76270813173204
  0
LINE
  8
_0-7_細線
  6
CONTINUOUS
 62
    4
 10
154.0979956514401
 20
-100.68337257808884
 11
158.69740128338788
 21
-105.28277821003581
  0
LINE
  8
_0-7_細線
  6
CONTINUOUS
 62
    4
 10
154.45846061207601
 20
-100.19530940129931
 11
159.06599949911276
 21
-104.80284828833607
  0
LINE
  8
_0-7_細線
  6
CONTINUOUS
 62
    4
 10
154.81892557271192
 20
-99.707246224509333
 11
159.43459771483856
 21
-104.32291836663666
  0
LINE
  8
_0-7_細線
  6
CONTINUOUS
 62
    4
 10
155.17939053334692
 20
-99.219183047719923
 11
159.80319593056345
 21
-103.84298844493691
  0
LINE
  8
_0-7_細線
  6
CONTINUOUS
 62
    4
 10
155.53985549398237
 20
-98.731119870930172
 11
160.17179414628924
 21
-103.36305852323716
  0
LINE
  8
_0-7_細線
  6
CONTINUOUS
 62
    4
 10
155.9003204546151
 20
-98.243056694143831
 11
160.54039236201231
 21
-102.88312860154036
  0
LINE
  8
_0-7_細線
  6
CONTINUOUS
 62
    4
 10
156.26078541525101
 20
-97.75499351735408
 11
160.90899057773765
 21
-102.40319867984061
  0
LINE
  8
_0-7_細線
  6
CONTINUOUS
 62
    4
 10
156.62125037588601
 20
-97.266930340564329
 11
161.277588793463
 21
-101.92326875814132
  0
LINE
  8
_0-7_細線
  6
CONTINUOUS
 62
    4
 10
156.98171533652192
 20
-96.778867163774919
 11
161.64618700918834
 21
-101.44333883644157
  0
LINE
  8
_0-7_細線
  6
CONTINUOUS
 62
    4
 10
157.3421802971551
 20
-96.290803986988578
 11
162.01478522491186
 21
-100.96340891474523
  0
LINE
  8
_0-7_細線
  6
CONTINUOUS
 62
    4
 10
157.7026452577901
 20
-95.802740810198827
 11
162.38338344063675
 21
-100.48347899304548
  0
LINE
  8
_0-7_細線
  6
CONTINUOUS
 62
    4
 10
158.063110218426
 20
-95.314677633409076
 11
162.75198165636255
 21
-100.00354907134573
  0
LINE
  8
_0-7_細線
  6
CONTINUOUS
 62
    4
 10
158.42357517906191
 20
-94.826614456619325
 11
163.12057987208743
 21
-99.523619149645981
  0
LINE
  8
_0-7_細線
  6
CONTINUOUS
 62
    4
 10
158.78404013969691
 20
-94.338551279829915
 11
163.48917808781323
 21
-99.043689227946231
  0
LINE
  8
_0-7_細線
  6
CONTINUOUS
 62
    4
 10
159.14450510033009
 20
-93.850488103043574
 11
163.8577763035363
 21
-98.563759306249892
  0
LINE
  8
_0-7_細線
  6
CONTINUOUS
 62
    4
 10
159.50497006096509
 20
-93.362424926253823
 11
164.22637451926164
 21
-98.083829384550143
  0
LINE
  8
_0-7_細線
  6
CONTINUOUS
 62
    4
 10
159.865435021601
 20
-92.874361749464072
 11
164.59497273498789
 21
-97.603899462850393
  0
LINE
  8
_0-7_細線
  6
CONTINUOUS
 62
    4
 10
160.22589998223691
 20
-92.386298572675003
 11
164.96357095071278
 21
-97.123969541150984
  0
LINE
  8
_0-7_細線
  6
CONTINUOUS
 62
    4
 10
160.58636494286964
 20
-91.898235395887866
 11
165.33216916643585
 21
-96.644039619454304
  0
LINE
  8
_0-7_細線
  6
CONTINUOUS
 62
    4
 10
160.94682990350509
 20
-91.410172219098911
 11
165.70076738216073
 21
-96.164109697754554
  0
LINE
  8
_0-7_細線
  6
CONTINUOUS
 62
    4
 10
161.30729486414009
 20
-90.922109042308819
 11
166.06936559788653
 21
-95.684179776054805
  0
LINE
  8
_0-7_細線
  6
CONTINUOUS
 62
    4
 10
161.667759824776
 20
-90.434045865519067
 11
166.43796381361233
 21
-95.204249854355396
  0
LINE
  8
_0-7_細線
  6
CONTINUOUS
 62
    4
 10
162.02822478541191
 20
-89.945982688730226
 11
166.80656202933767
 21
-94.724319932655874
  0
LINE
  8
_0-7_細線
  6
CONTINUOUS
 62
    4
 10
162.38868974604463
 20
-89.457919511943544
 11
167.17516024506119
 21
-94.244390010958966
  0
LINE
  8
_0-7_細線
  6
CONTINUOUS
 62
    4
 10
162.74915470668009
 20
-88.969856335153906
 11
167.54375846078608
 21
-93.764460089259558
  0
LINE
  8
_0-7_細線
  6
CONTINUOUS
 62
    4
 10
163.10961966731509
 20
-88.481793158364383
 11
167.91235667651188
 21
-93.284530167559808
  0
LINE
  8
_0-7_細線
  6
CONTINUOUS
 62
    4
 10
163.470084627951
 20
-87.993729981574631
 11
168.28095489223676
 21
-92.804600245860399
  0
LINE
  8
_0-7_細線
  6
CONTINUOUS
 62
    4
 10
163.83054958858463
 20
-87.505666804788063
 11
168.64955310795983
 21
-92.324670324163378
  0
LINE
  8
_0-7_細線
  6
CONTINUOUS
 62
    4
 10
164.19101454921963
 20
-87.01760362799854
 11
169.01815132368472
 21
-91.844740402463628
  0
LINE
  8
_0-7_細線
  6
CONTINUOUS
 62
    4
 10
164.55147950985508
 20
-86.529540451208788
 11
169.38674953941097
 21
-91.364810480764447
  0
LINE
  8
_0-7_細線
  6
CONTINUOUS
 62
    4
 10
164.91194447049008
 20
-86.041477274419378
 11
169.75534775513631
 21
-90.884880559065152
  0
LINE
  8
_0-7_細線
  6
CONTINUOUS
 62
    4
 10
183.65811837526769
 20
-104.78765117919619
 11
186.94895263189107
 21
-108.07848543581969
  0
LINE
  8
_0-7_細線
  6
CONTINUOUS
 62
    4
 10
165.2724094311269
 20
-85.553414097629627
 11
170.12394597086166
 21
-90.40495063736563
  0
LINE
  8
_0-7_細線
  6
CONTINUOUS
 62
    4
 10
183.60337462446375
 20
-103.88437929096739
 11
188.17195032011921
 21
-108.45295498662307
  0
LINE
  8
_0-7_細線
  6
CONTINUOUS
 62
    4
 10
165.63287439175963
 20
-85.065350920842945
 11
170.49254418658518
 21
-89.925020715668609
  0
LINE
  8
_0-7_細線
  6
CONTINUOUS
 62
    4
 10
182.8486134879812
 20
-102.28109001706486
 11
188.79718157927107
 21
-108.2296581083545
  0
LINE
  8
_0-7_細線
  6
CONTINUOUS
 62
    4
 10
165.99333935239508
 20
-84.577287744053876
 11
170.86114240231007
 21
-89.445090793968973
  0
LINE
  8
_0-7_細線
  6
CONTINUOUS
 62
    4
 10
181.51376032737505
 20
-100.09770871903396
 11
189.42241283842657
 21
-108.00636123008479
  0
LINE
  8
_0-7_細線
  6
CONTINUOUS
 62
    4
 10
166.35380431303008
 20
-84.089224567264125
 11
171.22974061803586
 21
-88.96516087226945
  0
LINE
  8
_0-7_細線
  6
CONTINUOUS
 62
    4
 10
180.17890716676982
 20
-97.914327421003293
 11
190.05181246960535
 21
-107.78723272383871
  0
LINE
  8
_0-7_細線
  6
CONTINUOUS
 62
    4
 10
166.71426927366599
 20
-83.601161390474488
 11
171.59833883376075
 21
-88.485230950569701
  0
LINE
  8
_0-7_細線
  6
CONTINUOUS
 62
    4
 10
178.84405400615367
 20
-95.730946122962393
 11
190.70452642147018
 21
-107.5914185382789
  0
LINE
  8
_0-7_細線
  6
CONTINUOUS
 62
    4
 10
167.07473423429917
 20
-83.113098213688033
 11
171.96693704948427
 21
-88.005301028873021
  0
LINE
  8
_0-7_細線
  6
CONTINUOUS
 62
    4
 10
177.50920084555571
 20
-93.547564824944345
 11
191.35724037333227
 21
-107.39560435272136
  0
LINE
  8
_0-7_細線
  6
CONTINUOUS
 62
    4
 10
167.43519919493463
 20
-82.625035036898282
 11
172.33553526520961
 21
-87.525371107173271
  0
LINE
  8
_0-7_細線
  6
CONTINUOUS
 62
    4
 10
176.17434768495048
 20
-91.364183526914019
 11
192.0099543251971
 21
-107.19979016716144
  0
LINE
  8
_0-7_細線
  6
CONTINUOUS
 62
    4
 10
167.79566415557008
 20
-82.136971860108872
 11
172.70413348093496
 21
-87.045441185473862
  0
LINE
  8
_0-7_細線
  6
CONTINUOUS
 62
    4
 10
174.83949452434433
 20
-89.180802228882897
 11
192.66266827706283
 21
-107.0039759816014
  0
LINE
  8
_0-7_細線
  6
CONTINUOUS
 62
    4
 10
168.15612911620508
 20
-81.648908683319121
 11
173.0727316966603
 21
-86.565511263774113
  0
LINE
  8
_0-7_細線
  6
CONTINUOUS
 62
    4
 10
173.50464136373819
 20
-86.997420930852229
 11
193.2564659467979
 21
-106.74924551391126
  0
LINE
  8
_0-7_細線
  6
CONTINUOUS
 62
    4
 10
168.51659407684099
 20
-81.160845506529711
 11
193.6116637717663
 21
-106.25591520145468
  0
LINE
  8
_0-7_細線
  6
CONTINUOUS
 62
    4
 10
168.87705903747417
 20
-80.672782329743029
 11
193.96686159673197
 21
-105.76258488900106
  0
LINE
  8
_0-7_細線
  6
CONTINUOUS
 62
    4
 10
169.19469137638941
 20
-80.141886531233752
 11
180.39685972246923
 21
-91.344054877312772
  0
LINE
  8
_0-7_細線
  6
CONTINUOUS
 62
    4
 10
180.60965485771328
 20
-91.556850012556822
 11
194.19941003036217
 21
-105.14660518520594
  0
LINE
  8
_0-7_細線
  6
CONTINUOUS
 62
    4
 10
169.1946913763885
 20
-79.293358393807637
 11
180.7074425765926
 21
-90.806109594011275
  0
LINE
  8
_0-7_細線
  6
CONTINUOUS
 62
    4
 10
181.45818299513837
 20
-91.556850012556481
 11
193.99725456394196
 21
-104.09592158136064
  0
LINE
  8
_0-7_細線
  6
CONTINUOUS
 62
    4
 10
169.27419873040424
 20
-78.524337610398391
 11
181.01802543071597
 21
-90.268164310710006
  0
LINE
  8
_0-7_細線
  6
CONTINUOUS
 62
    4
 10
182.30671113256165
 20
-91.556850012555799
 11
193.23529039274933
 21
-102.48542927274315
  0
LINE
  8
_0-7_細線
  6
CONTINUOUS
 62
    4
 10
169.52875717162976
 20
-77.930367914203487
 11
181.32860828483797
 21
-89.73021902741192
  0
LINE
  8
_0-7_細線
  6
CONTINUOUS
 62
    4
 10
183.15523926998219
 20
-91.556850012556481
 11
192.06689676200801
 21
-100.46850750458196
  0
LINE
  8
_0-7_細線
  6
CONTINUOUS
 62
    4
 10
169.88030741121372
 20
-77.433390016363035
 11
181.63919113896134
 21
-89.192273744110082
  0
LINE
  8
_0-7_細線
  6
CONTINUOUS
 62
    4
 10
184.00376740740865
 20
-91.556850012557163
 11
190.89850313125851
 21
-98.451585736406457
  0
LINE
  8
_0-7_細線
  6
CONTINUOUS
 62
    4
 10
170.27961477000269
 20
-76.984169237726121
 11
181.9497739930847
 21
-88.654328460808586
  0
LINE
  8
_0-7_細線
  6
CONTINUOUS
 62
    4
 10
184.85229554483328
 20
-91.556850012556708
 11
189.73010950050764
 21
-96.434663968231632
  0
LINE
  8
_0-7_細線
  6
CONTINUOUS
 62
    4
 10
170.6789221287903
 20
-76.534948459089208
 11
182.26035684720762
 21
-88.116383177507089
  0
LINE
  8
_0-7_細線
  6
CONTINUOUS
 62
    4
 10
185.70082368225746
 20
-91.556850012556026
 11
188.56171586975586
 21
-94.417742200054761
  0
LINE
  8
_0-7_細線
  6
CONTINUOUS
 62
    4
 10
171.09574338384107
 20
-76.103241576720905
 11
182.57093970133008
 21
-87.578437894209003
  0
LINE
  8
_0-7_細線
  6
CONTINUOUS
 62
    4
 10
186.54935181967801
 20
-91.556850012556481
 11
187.39332223900499
 21
-92.400820431883915
  0
LINE
  8
_0-7_細線
  6
CONTINUOUS
 62
    4
 10
171.4428685309698
 20
-75.601838586424321
 11
182.88152255545299
 21
-87.040492610907165
  0
LINE
  8
_0-7_細線
  6
CONTINUOUS
 62
    4
 10
171.89062637191535
 20
-75.201068289944089
 11
183.19210540957636
 21
-86.502547327605669
  0
LINE
  8
_0-7_細線
  6
CONTINUOUS
 62
    4
 10
172.63932766964251
 20
-75.101241450246619
 11
183.50268826370018
 21
-85.964602044304513
  0
LINE
  8
_0-7_細線
  6
CONTINUOUS
 62
    4
 10
173.35637840822926
 20
-74.969764051407822
 11
182.45195174873959
 21
-84.065337391918717
  0
LINE
  8
_0-7_細線
  6
CONTINUOUS
 62
    4
 10
174.06804716864542
 20
-74.832904674404688
 11
181.16973145218515
 21
-81.934588957943959
  0
LINE
  8
_0-7_細線
  6
CONTINUOUS
 62
    4
 10
174.85117478958534
 20
-74.767504157919404
 11
179.88751115563252
 21
-79.803840523966244
  0
LINE
  8
_0-7_細線
  6
CONTINUOUS
 62
    4
 10
175.98211999058901
 20
-75.049921221497982
 11
178.3843497517845
 21
-77.452150982693922
  0
LINE
  8
_0-7_細線
  6
CONTINUOUS
 62
    4
 10
196.26694703889086
 20
-82.383847837776045
 11
196.26694703889086
 21
-73.611776901666815
  0
LINE
  8
_0-7_細線
  6
CONTINUOUS
 62
    4
 10
195.6669470388905
 20
-82.258196230884494
 11
195.6669470388905
 21
-73.737428508558367
  0
LINE
  8
_0-7_細線
  6
CONTINUOUS
 62
    4
 10
195.06694703889013
 20
-82.040637392144561
 11
195.06694703889013
 21
-73.954987347298299
  0
LINE
  8
_0-7_細線
  6
CONTINUOUS
 62
    4
 10
194.46694703889068
 20
-81.715069110835827
 11
194.46694703889068
 21
-74.280555628607033
  0
LINE
  8
_0-7_細線
  6
CONTINUOUS
 62
    4
 10
193.86694703889077
 20
-81.249206101150264
 11
193.86694703889077
 21
-74.746418638292596
  0
LINE
  8
_0-7_細線
  6
CONTINUOUS
 62
    4
 10
193.26694703889086
 20
-80.567856088068936
 11
193.26694703889086
 21
-75.427768651373697
  0
LINE
  8
_0-7_細線
  6
CONTINUOUS
 62
    4
 10
192.66694703889141
 20
-79.382979591263449
 11
192.66694703889141
 21
-76.61264514817907
  0
LINE
  8
_0-7_細線
  6
CONTINUOUS
 62
    4
 10
180.33982370831461
 20
-91.442844151691759
 11
193.1081810793961
 21
-91.442844151691759
  0
LINE
  8
_0-7_細線
  6
CONTINUOUS
 62
    4
 10
180.68623386982733
 20
-90.84284415169185
 11
192.76177091788202
 21
-90.84284415169185
  0
LINE
  8
_0-7_細線
  6
CONTINUOUS
 62
    4
 10
181.03264403134142
 20
-90.242844151691827
 11
192.41536075636839
 21
-90.242844151691827
  0
LINE
  8
_0-7_細線
  6
CONTINUOUS
 62
    4
 10
181.37905419285551
 20
-89.642844151691691
 11
192.06895059485475
 21
-89.642844151691691
  0
LINE
  8
_0-7_細線
  6
CONTINUOUS
 62
    4
 10
181.72546435436914
 20
-89.042844151691781
 11
191.72254043334067
 21
-89.042844151691781
  0
LINE
  8
_0-7_細線
  6
CONTINUOUS
 62
    4
 10
182.07187451588277
 20
-88.442844151691759
 11
191.37613027182658
 21
-88.442844151691759
  0
LINE
  8
_0-7_細線
  6
CONTINUOUS
 62
    4
 10
182.41828467739685
 20
-87.84284415169185
 11
191.02972011031295
 21
-87.84284415169185
  0
LINE
  8
_0-7_細線
  6
CONTINUOUS
 62
    4
 10
182.76469483891094
 20
-87.242844151691713
 11
190.68330994879932
 21
-87.242844151691713
  0
LINE
  8
_0-7_細線
  6
CONTINUOUS
 62
    4
 10
183.11110500042457
 20
-86.642844151691691
 11
190.33689978728569
 21
-86.642844151691691
  0
LINE
  8
_0-7_細線
  6
CONTINUOUS
 62
    4
 10
183.4575151619382
 20
-86.042844151691781
 11
189.99048962577206
 21
-86.042844151691781
  0
LINE
  8
_0-7_細線
  6
CONTINUOUS
 62
    4
 10
183.80392532345184
 20
-85.442844151691759
 11
189.64407946425843
 21
-85.442844151691759
  0
LINE
  8
_0-7_細線
  6
CONTINUOUS
 62
    4
 10
184.15033548496547
 20
-84.84284415169185
 11
189.29766930274434
 21
-84.84284415169185
  0
LINE
  8
_0-7_細線
  6
CONTINUOUS
 62
    4
 10
184.4967456464791
 20
-84.242844151691713
 11
188.95125914123025
 21
-84.242844151691713
  0
LINE
  8
_0-7_細線
  6
CONTINUOUS
 62
    4
 10
184.84315580799318
 20
-83.642844151691691
 11
188.60484897971662
 21
-83.642844151691691
  0
LINE
  8
_0-7_細線
  6
CONTINUOUS
 62
    4
 10
185.18956596950727
 20
-83.042844151691781
 11
188.25843881820299
 21
-83.042844151691781
  0
LINE
  8
_0-7_細線
  6
CONTINUOUS
 62
    4
 10
185.5359761310209
 20
-82.442844151691759
 11
187.91202865668936
 21
-82.442844151691759
  0
LINE
  8
_0-7_細線
  6
CONTINUOUS
 62
    4
 10
185.88238629253453
 20
-81.84284415169185
 11
187.56561849517482
 21
-81.84284415169185
  0
LINE
  8
_0-7_細線
  6
CONTINUOUS
 62
    4
 10
186.22879645404862
 20
-81.242844151691713
 11
187.21920833366119
 21
-81.242844151691713
  0
LINE
  8
_0-7_細線
  6
CONTINUOUS
 62
    4
 10
186.57520661556271
 20
-80.642844151691691
 11
186.87279817214801
 21
-80.642844151691691
  0
LINE
  8
_0-7_細線
  6
CONTINUOUS
 62
    4
 10
192.6669470388905
 20
-91.556850012555799
 11
192.6669470388905
 21
-90.678604375507746
  0
LINE
  8
_0-7_細線
  6
CONTINUOUS
 62
    4
 10
192.06694703889013
 20
-91.556850012555799
 11
192.06694703889013
 21
-89.63937389096651
  0
LINE
  8
_0-7_細線
  6
CONTINUOUS
 62
    4
 10
191.46694703889068
 20
-91.556850012555799
 11
191.46694703889068
 21
-88.600143406425161
  0
LINE
  8
_0-7_細線
  6
CONTINUOUS
 62
    4
 10
190.86694703889077
 20
-91.556850012555799
 11
190.86694703889077
 21
-87.560912921884039
  0
LINE
  8
_0-7_細線
  6
CONTINUOUS
 62
    4
 10
190.26694703889086
 20
-91.556850012555799
 11
190.26694703889086
 21
-86.52168243734269
  0
LINE
  8
_0-7_細線
  6
CONTINUOUS
 62
    4
 10
189.6669470388905
 20
-91.556850012555799
 11
189.6669470388905
 21
-85.482451952801455
  0
LINE
  8
_0-7_細線
  6
CONTINUOUS
 62
    4
 10
189.06694703889013
 20
-91.556850012555799
 11
189.06694703889013
 21
-84.443221468260219
  0
LINE
  8
_0-7_細線
  6
CONTINUOUS
 62
    4
 10
188.46694703889068
 20
-91.556850012555799
 11
188.46694703889068
 21
-83.403990983718757
  0
LINE
  8
_0-7_細線
  6
CONTINUOUS
 62
    4
 10
187.86694703889077
 20
-91.556850012555799
 11
187.86694703889077
 21
-82.364760499177521
  0
LINE
  8
_0-7_細線
  6
CONTINUOUS
 62
    4
 10
187.26694703889086
 20
-91.556850012555799
 11
187.26694703889086
 21
-81.325530014636286
  0
LINE
  8
_0-7_細線
  6
CONTINUOUS
 62
    4
 10
186.6669470388905
 20
-91.556850012555799
 11
186.6669470388905
 21
-80.483945077378792
  0
LINE
  8
_0-7_細線
  6
CONTINUOUS
 62
    4
 10
186.06694703889013
 20
-91.556850012555799
 11
186.06694703889013
 21
-81.523175561920027
  0
LINE
  8
_0-7_細線
  6
CONTINUOUS
 62
    4
 10
185.46694703889068
 20
-91.556850012555799
 11
185.46694703889068
 21
-82.56240604646149
  0
LINE
  8
_0-7_細線
  6
CONTINUOUS
 62
    4
 10
184.86694703889077
 20
-91.556850012555799
 11
184.86694703889077
 21
-83.601636531002725
  0
LINE
  8
_0-7_細線
  6
CONTINUOUS
 62
    4
 10
184.26694703889086
 20
-91.556850012555799
 11
184.26694703889086
 21
-84.640867015544075
  0
LINE
  8
_0-7_細線
  6
CONTINUOUS
 62
    4
 10
183.6669470388905
 20
-91.556850012555799
 11
183.6669470388905
 21
-85.68009750008531
  0
LINE
  8
_0-7_細線
  6
CONTINUOUS
 62
    4
 10
183.06694703889013
 20
-91.556850012555799
 11
183.06694703889013
 21
-86.719327984626773
  0
LINE
  8
_0-7_細線
  6
CONTINUOUS
 62
    4
 10
182.46694703889068
 20
-91.556850012555799
 11
182.46694703889068
 21
-87.758558469168008
  0
LINE
  8
_0-7_細線
  6
CONTINUOUS
 62
    4
 10
181.86694703889077
 20
-91.556850012555799
 11
181.86694703889077
 21
-88.797788953709244
  0
LINE
  8
_0-7_細線
  6
CONTINUOUS
 62
    4
 10
181.26694703889086
 20
-91.556850012555799
 11
181.26694703889086
 21
-89.837019438250593
  0
LINE
  8
_0-7_細線
  6
CONTINUOUS
 62
    4
 10
180.6669470388905
 20
-91.556850012555799
 11
180.6669470388905
 21
-90.876249922791828
  0
LINE
  8
_0-6_図面枠
  6
CONTINUOUS
 62
    7
 10
573.66983395957948
 20
-84.997319403978906
 11
573.66983395957948
 21
-118.74731940060377
  0
LINE
  8
_0-6_図面枠
  6
CONTINUOUS
 62
    7
 10
618.66983395957948
 20
-84.997319403978906
 11
618.66983395957948
 21
-118.74731940060377
  0
LINE
  8
_0-6_図面枠
  6
CONTINUOUS
 62
    7
 10
708.66983395957857
 20
-93.997319403978906
 11
513.66983395957936
 21
-93.997319403978906
  0
LINE
  8
_0-6_図面枠
  6
CONTINUOUS
 62
    7
 10
648.66983395957857
 20
-64.747319406004124
 11
648.66983395957857
 21
-118.74731940060377
  0
LINE
  8
_0-6_図面枠
  6
CONTINUOUS
 62
    7
 10
678.66983395957857
 20
-64.747319406004124
 11
678.66983395957857
 21
-118.74731940060377
  0
LINE
  8
_0-6_図面枠
  6
CONTINUOUS
 62
    7
 10
708.66983395957857
 20
-74.872319404991515
 11
678.66983395957857
 21
-74.872319404991515
  0
LINE
  8
_0-6_図面枠
  6
CONTINUOUS
 62
    7
 10
708.66983395957857
 20
-84.997319403978906
 11
513.66983395957936
 21
-84.997319403978906
  0
CIRCLE
  8
_0-8__0-0_
  6
CONTINUOUS
 62
    2
 10
656.16983395957845
 20
-74.872319404991515
 40
6
  0
CIRCLE
  8
_0-8__0-0_
  6
CONTINUOUS
 62
    2
 10
656.16983395957845
 20
-74.872319404991515
 40
3
  0
LINE
  8
_0-4_中心線
  6
CONTINUOUS
 62
    4
 10
656.16983395957845
 20
-67.372319404991515
 11
656.16983395957845
 21
-82.372319404991515
  0
LINE
  8
_0-8__0-0_
  6
CONTINUOUS
 62
    2
 10
665.16983395957845
 20
-71.872319404991515
 11
675.66983395957857
 21
-68.872319404991515
  0
LINE
  8
_0-8__0-0_
  6
CONTINUOUS
 62
    2
 10
675.66983395957857
 20
-68.872319404991515
 11
675.66983395957857
 21
-80.872319404991515
  0
LINE
  8
_0-8__0-0_
  6
CONTINUOUS
 62
    2
 10
665.16983395957845
 20
-77.872319404991515
 11
675.66983395957857
 21
-80.872319404991515
  0
LINE
  8
_0-8__0-0_
  6
CONTINUOUS
 62
    2
 10
665.16983395957845
 20
-71.872319404991515
 11
665.16983395957845
 21
-77.872319404991515
  0
LINE
  8
_0-4_中心線
  6
CONTINUOUS
 62
    4
 10
648.66983395957857
 20
-74.872319404991515
 11
677.16983395957845
 21
-74.872319404991515
  0
LINE
  8
_0-6_図面枠
  6
CONTINUOUS
 62
    7
 10
513.66983395957936
 20
-91.74731940330372
 11
311.33016310675509
 21
-91.74731940330372
  0
LINE
  8
_0-6_図面枠
  6
CONTINUOUS
 62
    7
 10
311.33016310675509
 20
-118.74731940060377
 11
311.33016310675509
 21
-64.747319406004124
  0
TEXT
  8
_0-9_文字
 62
    7
 10
314.33016310675509
 20
-71.988880290115219
 40
6
 41
1
 50
0
  1
品番
  0
TEXT
  8
_0-9_文字
 62
    7
 10
314.33016310675509
 20
-98.977303193185037
 40
6
 41
1
 50
0
  1
名称
  0
TEXT
  8
_0-9_文字
 62
    7
 10
657.19204615805745
 20
-92.654090428592838
 40
6
 41
1
 50
0
  1
検図
  0
LINE
  8
_0-6_図面枠
  6
CONTINUOUS
 62
    7
 10
131.33016310675509
 20
-64.747319406004124
 11
131.33016310675509
 21
-118.74731940060377
  0
TEXT
  8
_0-9_文字
 62
    7
 10
687.26983395957859
 20
-72.809819405497649
 40
6
 41
1
 50
0
  1
単位
  0
TEXT
  8
_0-9_文字
 62
    7
 10
685.09840538815001
 20
-81.934819404485154
 40
6
 41
1
 50
0
  1
mm
  0
TEXT
  8
_0-9_文字
 62
    7
 10
580.28411967386501
 20
-109.37231940229134
 40
6
 41
1
 50
0
  1
S=1：3
  0
TEXT
  8
_0-9_文字
 62
    7
 10
523.66983395957948
 20
-109.37231940229134
 40
6
 41
1
 50
0
  1
09.03.23
  0
TEXT
  8
_0-9_文字
 62
    7
 10
627.46983395957841
 20
-109.37231940229134
 40
6
 41
1
 50
0
  1
竹内
  0
TEXT
  8
_0-9_文字
 62
    7
 10
536.86983395957941
 20
-92.497319403978906
 40
6
 41
1
 50
0
  1
日付
  0
TEXT
  8
_0-9_文字
 62
    7
 10
582.45554824529381
 20
-92.497319403978906
 40
6
 41
1
 50
0
  1
SCALE
  0
TEXT
  8
_0-9_文字
 62
    7
 10
627.46983395957841
 20
-92.497319403978906
 40
6
 41
1
 50
0
  1
製図
  0
TEXT
  8
_0-9_文字
 62
    7
 10
352.21428424745255
 20
-84.247319404653865
 40
12
 41
1
 50
0
  1
GS-1350.031
  0
TEXT
  8
_0-9_文字
 62
    7
 10
312.89999853316687
 20
-113.93268810818978
 40
12
 41
1
 50
0
  1
オーバーフロードレインパイプ
  0
LINE
  8
_0-6_図面枠
  6
CONTINUOUS
 62
    7
 10
131.33016310675509
 20
712.7473152515613
 11
131.33016310675509
 21
-118.74731940060377
  0
LINE
  8
_0-1_1
  6
CONTINUOUS
 62
    7
 10
384.82949669629886
 20
514.67390270429587
 11
384.82949669629886
 21
474.52110920256189
  0
LINE
  8
_0-1_1
  6
CONTINUOUS
 62
    7
 10
387.05164741500369
 20
514.86831570082791
 11
396.82949669629886
 21
514.86831570082791
  0
LINE
  8
_0-1_1
  6
CONTINUOUS
 62
    7
 10
384.82949669629886
 20
514.67390270429587
 11
387.05164741500369
 21
514.86831570082791
  0
LINE
  8
_0-1_1
  6
CONTINUOUS
 62
    7
 10
384.82949669629886
 20
512.66626302920872
 11
396.82949669629886
 21
513.7161269915199
  0
LINE
  8
_0-1_1
  6
CONTINUOUS
 62
    7
 10
384.82949669629886
 20
510.6586233541218
 11
396.82949669629886
 21
511.70848731643389
  0
LINE
  8
_0-1_1
  6
CONTINUOUS
 62
    7
 10
384.82949669629886
 20
508.6509836790359
 11
396.82949669629886
 21
509.70084764134697
  0
LINE
  8
_0-1_1
  6
CONTINUOUS
 62
    7
 10
384.82949669629886
 20
506.64334400394898
 11
396.82949669629886
 21
507.69320796625982
  0
LINE
  8
_0-1_1
  6
CONTINUOUS
 62
    7
 10
384.82949669629886
 20
504.63570432886172
 11
396.82949669629886
 21
505.6855682911729
  0
LINE
  8
_0-1_1
  6
CONTINUOUS
 62
    7
 10
384.82949669629886
 20
502.6280646537748
 11
396.82949669629886
 21
503.67792861608598
  0
LINE
  8
_0-1_1
  6
CONTINUOUS
 62
    7
 10
384.82949669629886
 20
500.6204249786889
 11
396.82949669629886
 21
501.67028894099974
  0
LINE
  8
_0-1_1
  6
CONTINUOUS
 62
    7
 10
384.82949669629886
 20
498.61278530360187
 11
396.82949669629886
 21
499.66264926591282
  0
LINE
  8
_0-1_1
  6
CONTINUOUS
 62
    7
 10
384.82949669629886
 20
496.60514562851495
 11
396.82949669629886
 21
497.6550095908259
  0
LINE
  8
_0-1_1
  6
CONTINUOUS
 62
    7
 10
384.82949669629886
 20
494.59750595342894
 11
396.82949669629886
 21
495.64736991573989
  0
LINE
  8
_0-1_1
  6
CONTINUOUS
 62
    7
 10
384.82949669629886
 20
492.5898662783419
 11
396.82949669629886
 21
493.63973024065274
  0
LINE
  8
_0-1_1
  6
CONTINUOUS
 62
    7
 10
384.82949669629886
 20
490.58222660325589
 11
396.82949669629886
 21
491.63209056556695
  0
LINE
  8
_0-1_1
  6
CONTINUOUS
 62
    7
 10
384.82949669629886
 20
488.57458692816886
 11
396.82949669629886
 21
489.62445089047981
  0
LINE
  8
_0-1_1
  6
CONTINUOUS
 62
    7
 10
384.82949669629886
 20
486.56694725308182
 11
396.82949669629886
 21
487.61681121539289
  0
LINE
  8
_0-1_1
  6
CONTINUOUS
 62
    7
 10
384.82949669629886
 20
484.5593075779949
 11
396.82949669629886
 21
485.60917154030574
  0
LINE
  8
_0-1_1
  6
CONTINUOUS
 62
    7
 10
384.82949669629886
 20
482.55166790290889
 11
396.82949669629886
 21
483.60153186521995
  0
LINE
  8
_0-1_1
  6
CONTINUOUS
 62
    7
 10
384.82949669629886
 20
480.54402822782197
 11
396.82949669629886
 21
481.59389219013281
  0
LINE
  8
_0-1_1
  6
CONTINUOUS
 62
    7
 10
384.82949669629886
 20
478.53638855273471
 11
396.82949669629886
 21
479.58625251504589
  0
LINE
  8
_0-1_1
  6
CONTINUOUS
 62
    7
 10
384.82949669629886
 20
476.5287488776479
 11
396.82949669629886
 21
477.57861283995987
  0
LINE
  8
_0-1_1
  6
CONTINUOUS
 62
    7
 10
384.82949669629886
 20
474.52110920256189
 11
384.82949669629886
 21
473.46831570082782
  0
LINE
  8
_0-1_1
  6
CONTINUOUS
 62
    7
 10
396.82949669629886
 20
475.57097316487284
 11
396.82949669629886
 21
473.5633334897858
  0
LINE
  8
_0-1_1
  6
CONTINUOUS
 62
    7
 10
384.82949669629886
 20
474.52110920256189
 11
396.82949669629886
 21
475.57097316487284
  0
LINE
  8
_0-1_1
  6
CONTINUOUS
 62
    7
 10
384.82949669629886
 20
514.86831570082791
 11
384.82949669629886
 21
514.67390270429587
  0
LINE
  8
_0-1_1
  6
CONTINUOUS
 62
    7
 10
396.82949669629886
 20
473.5633334897858
 11
396.82949669629886
 21
473.46831570082782
  0
LINE
  8
_0-1_1
  6
CONTINUOUS
 62
    7
 10
395.74343839881789
 20
473.46831570082782
 11
396.82949669629886
 21
473.46831570082782
  0
LINE
  8
_0-1_1
  6
CONTINUOUS
 62
    7
 10
396.82949669629886
 20
473.5633334897858
 11
395.74343839881789
 21
473.46831570082782
  0
LINE
  8
_0-1_1
  6
CONTINUOUS
 62
    7
 10
384.82949669629886
 20
460.46763147695481
 11
396.82949669629886
 21
461.51749543926599
  0
LINE
  8
_0-1_1
  6
CONTINUOUS
 62
    7
 10
384.82949669629886
 20
458.45999180186789
 11
396.82949669629886
 21
459.50985576417975
  0
LINE
  8
_0-1_1
  6
CONTINUOUS
 62
    7
 10
384.82949669629886
 20
456.45235212678188
 11
396.82949669629886
 21
457.50221608909283
  0
LINE
  8
_0-1_1
  6
CONTINUOUS
 62
    7
 10
384.82949669629886
 20
454.44471245169484
 11
396.82949669629886
 21
455.49457641400591
  0
LINE
  8
_0-1_1
  6
CONTINUOUS
 62
    7
 10
384.82949669629886
 20
452.43707277660781
 11
396.82949669629886
 21
453.48693673891887
  0
LINE
  8
_0-1_1
  6
CONTINUOUS
 62
    7
 10
384.82949669629886
 20
450.42943310152179
 11
396.82949669629886
 21
451.47929706383275
  0
LINE
  8
_0-1_1
  6
CONTINUOUS
 62
    7
 10
384.82949669629886
 20
448.42179342643487
 11
396.82949669629886
 21
449.47165738874583
  0
LINE
  8
_0-1_1
  6
CONTINUOUS
 62
    7
 10
384.82949669629886
 20
446.41415375134773
 11
396.82949669629886
 21
447.46401771365981
  0
LINE
  8
_0-1_1
  6
CONTINUOUS
 62
    7
 10
384.82949669629886
 20
444.40651407626183
 11
396.82949669629886
 21
445.45637803857289
  0
LINE
  8
_0-1_1
  6
CONTINUOUS
 62
    7
 10
384.82949669629886
 20
442.39887440117491
 11
384.82949669629886
 21
440.39123472608776
  0
LINE
  8
_0-1_1
  6
CONTINUOUS
 62
    7
 10
396.82949669629886
 20
443.44873836348586
 11
396.82949669629886
 21
441.44109868839894
  0
LINE
  8
_0-1_1
  6
CONTINUOUS
 62
    7
 10
384.82949669629886
 20
442.39887440117491
 11
396.82949669629886
 21
443.44873836348586
  0
LINE
  8
_0-1_1
  6
CONTINUOUS
 62
    7
 10
384.82949669629886
 20
440.39123472608776
 11
384.82949669629886
 21
438.38359505100175
  0
LINE
  8
_0-1_1
  6
CONTINUOUS
 62
    7
 10
396.82949669629886
 20
441.44109868839894
 11
396.82949669629886
 21
439.43345901331281
  0
LINE
  8
_0-1_1
  6
CONTINUOUS
 62
    7
 10
384.82949669629886
 20
440.39123472608776
 11
396.82949669629886
 21
441.44109868839894
  0
LINE
  8
_0-1_1
  6
CONTINUOUS
 62
    7
 10
384.82949669629886
 20
438.38359505100175
 11
384.82949669629886
 21
436.37595537591483
  0
LINE
  8
_0-1_1
  6
CONTINUOUS
 62
    7
 10
396.82949669629886
 20
439.43345901331281
 11
396.82949669629886
 21
437.42581933822589
  0
LINE
  8
_0-1_1
  6
CONTINUOUS
 62
    7
 10
384.82949669629886
 20
438.38359505100175
 11
396.82949669629886
 21
439.43345901331281
  0
LINE
  8
_0-1_1
  6
CONTINUOUS
 62
    7
 10
384.82949669629886
 20
436.37595537591483
 11
384.82949669629886
 21
434.36831570082791
  0
LINE
  8
_0-1_1
  6
CONTINUOUS
 62
    7
 10
396.82949669629886
 20
437.42581933822589
 11
396.82949669629886
 21
435.41817966313999
  0
LINE
  8
_0-1_1
  6
CONTINUOUS
 62
    7
 10
384.82949669629886
 20
436.37595537591483
 11
396.82949669629886
 21
437.42581933822589
  0
LINE
  8
_0-1_1
  6
CONTINUOUS
 62
    7
 10
396.82949669629886
 20
435.41817966313999
 11
396.82949669629886
 21
434.36831570082791
  0
LINE
  8
_0-1_1
  6
CONTINUOUS
 62
    7
 10
384.82949669629886
 20
434.36831570082791
 11
397.82949669629886
 21
434.36831570082791
  0
LINE
  8
_0-1_1
  6
CONTINUOUS
 62
    7
 10
384.82949669629886
 20
434.36831570082791
 11
396.82949669629886
 21
435.41817966313999
  0
LINE
  8
_0-1_1
  6
CONTINUOUS
 62
    7
 10
380.52949669629868
 20
467.86831570066988
 11
381.52949669629868
 21
468.86831570066988
  0
LINE
  8
_0-1_1
  6
CONTINUOUS
 62
    7
 10
381.52949669629868
 20
461.86831570066988
 11
380.52949669629868
 21
462.86831570066988
  0
LINE
  8
_0-1_1
  6
CONTINUOUS
 62
    7
 10
401.12949669629887
 20
462.86831570066988
 11
400.12949669629876
 21
461.86831570066988
  0
LINE
  8
_0-1_1
  6
CONTINUOUS
 62
    7
 10
401.12949669629887
 20
467.86831570066988
 11
400.12949669629876
 21
468.86831570066988
  0
LINE
  8
_0-1_1
  6
CONTINUOUS
 62
    7
 10
380.52949669629868
 20
462.86831570066988
 11
380.52949669629868
 21
467.86831570066988
  0
LINE
  8
_0-1_1
  6
CONTINUOUS
 62
    7
 10
385.67949669629877
 20
462.86831570066988
 11
385.67949669629877
 21
467.86831570066988
  0
LINE
  8
_0-1_1
  6
CONTINUOUS
 62
    7
 10
395.97949669629878
 20
462.86831570066988
 11
395.97949669629878
 21
467.86831570066988
  0
LINE
  8
_0-1_1
  6
CONTINUOUS
 62
    7
 10
401.12949669629887
 20
462.86831570066988
 11
401.12949669629887
 21
467.86831570066988
  0
LINE
  8
_0-1_1
  6
CONTINUOUS
 62
    7
 10
384.82949669629886
 20
461.86831570066988
 11
384.82949669629886
 21
442.39887440117491
  0
LINE
  8
_0-1_1
  6
CONTINUOUS
 62
    7
 10
396.82949669629886
 20
461.86831570066988
 11
396.82949669629886
 21
443.44873836348586
  0
LINE
  8
_0-1_1
  6
CONTINUOUS
 62
    7
 10
381.52949669629868
 20
461.86831570066988
 11
400.12949669629876
 21
461.86831570066988
  0
LINE
  8
_0-1_1
  6
CONTINUOUS
 62
    7
 10
381.82270471223075
 20
468.86831570066988
 11
400.12949669629876
 21
468.86831570066988
  0
LINE
  8
_0-1_1
  6
CONTINUOUS
 62
    7
 10
381.52949669629868
 20
468.86831570066988
 11
381.82270471223075
 21
468.86831570066988
  0
LINE
  8
_0-1_1
  6
CONTINUOUS
 62
    7
 10
400.12949669629876
 20
468.86831570066988
 11
411.69770471223086
 21
468.86831570066988
  0
LINE
  8
_0-1_1
  6
CONTINUOUS
 62
    7
 10
397.82949669629886
 20
425.86831570082791
 11
398.82949669629886
 21
426.86831570082791
  0
LINE
  8
_0-1_1
  6
CONTINUOUS
 62
    7
 10
382.82949669629886
 20
426.86831570082791
 11
383.82949669629886
 21
425.86831570082791
  0
LINE
  8
_0-1_1
  6
CONTINUOUS
 62
    7
 10
382.82949669629886
 20
433.36831570082791
 11
383.82949669629886
 21
434.36831570082791
  0
LINE
  8
_0-1_1
  6
CONTINUOUS
 62
    7
 10
397.82949669629886
 20
434.36831570082791
 11
398.82949669629886
 21
433.36831570082791
  0
LINE
  8
_0-1_1
  6
CONTINUOUS
 62
    7
 10
398.82949669629886
 20
433.36831570082791
 11
398.82949669629886
 21
426.86831570082791
  0
LINE
  8
_0-1_1
  6
CONTINUOUS
 62
    7
 10
394.82949669629886
 20
433.36831570082791
 11
394.82949669629886
 21
426.86831570082791
  0
LINE
  8
_0-1_1
  6
CONTINUOUS
 62
    7
 10
386.82949669629886
 20
433.36831570082791
 11
386.82949669629886
 21
426.86831570082791
  0
LINE
  8
_0-1_1
  6
CONTINUOUS
 62
    7
 10
382.82949669629886
 20
433.36831570082791
 11
382.82949669629886
 21
426.86831570082791
  0
LINE
  8
_0-1_1
  6
CONTINUOUS
 62
    7
 10
386.82949669629886
 20
425.86831570082791
 11
394.82949669629886
 21
425.86831570082791
  0
LINE
  8
_0-1_1
  6
CONTINUOUS
 62
    7
 10
383.82949669629886
 20
434.36831570082791
 11
384.82949669629886
 21
434.36831570082791
  0
LINE
  8
_0-1_1
  6
CONTINUOUS
 62
    7
 10
386.82949669629886
 20
425.86831570082791
 11
394.82949669629886
 21
425.86831570082791
  0
LINE
  8
_0-1_1
  6
CONTINUOUS
 62
    7
 10
394.82949669629886
 20
425.86831570082791
 11
397.82949669629886
 21
425.86831570082791
  0
LINE
  8
_0-1_1
  6
CONTINUOUS
 62
    7
 10
394.82949669629886
 20
425.86831570082791
 11
396.82949669629886
 21
425.86831570082791
  0
LINE
  8
_0-1_1
  6
CONTINUOUS
 62
    7
 10
383.82949669629886
 20
425.86831570082791
 11
386.82949669629886
 21
425.86831570082791
  0
LINE
  8
_0-1_1
  6
CONTINUOUS
 62
    7
 10
388.32949669629886
 20
425.86831570082791
 11
388.32949669629886
 21
169.67861402401786
  0
LINE
  8
_0-1_1
  6
CONTINUOUS
 62
    7
 10
393.32949669629886
 20
425.86831570082791
 11
393.32949669629886
 21
169.67861402401786
  0
LINE
  8
_0-1_1
  6
CONTINUOUS
 62
    7
 10
393.32949669629886
 20
169.67861402401786
 11
388.32949669629886
 21
169.67861402401786
  0
LINE
  8
_0-1_1
  6
CONTINUOUS
 62
    7
 10
384.82949669629886
 20
425.86831570082791
 11
386.82949669629886
 21
425.86831570082791
  0
LINE
  8
_0-1_1
  6
CONTINUOUS
 62
    7
 10
396.82949669629886
 20
514.86831570082791
 11
407.82270471223086
 21
514.86831570082791
  0
LINE
  8
_0-1_1
  6
CONTINUOUS
 62
    7
 10
396.82949669629886
 20
473.46831570082782
 11
416.07270471223075
 21
473.46831570082782
  0
LINE
  8
_0-1_1
  6
CONTINUOUS
 62
    7
 10
396.82949669629886
 20
514.86831570082791
 11
396.82949669629886
 21
475.57097316487284
  0
LINE
  8
_0-1_1
  6
CONTINUOUS
 62
    7
 10
384.82949669629886
 20
514.86831570082791
 11
387.05164741500369
 21
514.86831570082791
  0
LINE
  8
_0-1_1
  6
CONTINUOUS
 62
    7
 10
384.82949669629886
 20
473.46831570082782
 11
395.74343839881789
 21
473.46831570082782
  0
LINE
  8
_0-1_1
  6
CONTINUOUS
 62
    7
 10
363.42270471223168
 20
524.86831570082791
 11
388.32270471223075
 21
524.86831570082791
  0
LINE
  8
_0-1_1
  6
CONTINUOUS
 62
    7
 10
363.42270471223168
 20
514.86831570082791
 11
363.42270471223168
 21
524.86831570082791
  0
LINE
  8
_0-1_1
  6
CONTINUOUS
 62
    7
 10
394.82270471223075
 20
524.86831570082791
 11
418.22270471223186
 21
524.86831570082791
  0
LINE
  8
_0-1_1
  6
CONTINUOUS
 62
    7
 10
418.22270471223186
 20
514.86831570082791
 11
418.22270471223186
 21
524.86831570082791
  0
LINE
  8
_0-1_1
  6
CONTINUOUS
 62
    7
 10
363.42270471223168
 20
514.86831570082791
 11
370.82270471223086
 21
514.86831570082791
  0
LINE
  8
_0-1_1
  6
CONTINUOUS
 62
    7
 10
418.22270471223186
 20
514.86831570082791
 11
410.82270471223075
 21
514.86831570082791
  0
LINE
  8
_0-1_1
  6
CONTINUOUS
 62
    7
 10
389.32270471223086
 20
524.86831570082791
 11
394.82270471223075
 21
524.86831570082791
  0
LINE
  8
_0-1_1
  6
CONTINUOUS
 62
    7
 10
394.82270471223075
 20
544.86831570082791
 11
394.82270471223075
 21
524.86831570082791
  0
LINE
  8
_0-1_1
  6
CONTINUOUS
 62
    7
 10
386.82270471223075
 20
544.86831570082791
 11
394.82270471223075
 21
544.86831570082791
  0
LINE
  8
_0-1_1
  6
CONTINUOUS
 62
    7
 10
386.82270471223075
 20
524.86831570082791
 11
389.32270471223086
 21
524.86831570082791
  0
LINE
  8
_0-1_1
  6
CONTINUOUS
 62
    7
 10
386.82270471223075
 20
524.86831570082791
 11
386.82270471223075
 21
544.86831570082791
  0
LINE
  8
_0-1_1
  6
CONTINUOUS
 62
    7
 10
403.32270471223075
 20
514.86831570082791
 11
418.22270471223186
 21
514.86831570082791
  0
LINE
  8
_0-1_1
  6
CONTINUOUS
 62
    7
 10
388.32949669629886
 20
150.17861402401797
 11
390.82949669629886
 21
150.17861402401797
  0
LINE
  8
_0-1_1
  6
CONTINUOUS
 62
    7
 10
393.32949669629886
 20
160.67861402401797
 11
403.82949669629886
 21
160.67861402401797
  0
LINE
  8
_0-1_1
  6
CONTINUOUS
 62
    7
 10
393.32949669629886
 20
160.67861402401797
 11
393.32949669629886
 21
150.17861402401797
  0
LINE
  8
_0-1_1
  6
CONTINUOUS
 62
    7
 10
388.32949669629886
 20
160.67861402401797
 11
393.32949669629886
 21
160.67861402401797
  0
LINE
  8
_0-1_1
  6
CONTINUOUS
 62
    7
 10
388.32949669629886
 20
160.67861402401797
 11
388.32949669629886
 21
150.17861402401797
  0
LINE
  8
_0-1_1
  6
CONTINUOUS
 62
    7
 10
403.82949669629886
 20
169.67861402401786
 11
393.32949669629886
 21
169.67861402401786
  0
LINE
  8
_0-1_1
  6
CONTINUOUS
 62
    7
 10
388.32949669629886
 20
169.67861402401786
 11
386.82949669629886
 21
169.67861402401786
  0
LINE
  8
_0-1_1
  6
CONTINUOUS
 62
    7
 10
402.07115408307288
 20
162.67861402401797
 11
403.82949669629886
 21
162.67861402401797
  0
LINE
  8
_0-1_1
  6
CONTINUOUS
 62
    7
 10
394.58783930952484
 20
167.67861402401786
 11
388.32949669629886
 21
167.67861402401786
  0
LINE
  8
_0-1_1
  6
CONTINUOUS
 62
    7
 10
403.82949669629886
 20
167.67861402401786
 11
402.07115408307288
 21
167.67861402401786
  0
LINE
  8
_0-1_1
  6
CONTINUOUS
 62
    7
 10
388.32949669629886
 20
162.67861402401797
 11
394.58783930952484
 21
162.67861402401797
  0
LINE
  8
_0-1_1
  6
CONTINUOUS
 62
    7
 10
403.82949669629886
 20
162.67861402401797
 11
533.32949669629886
 21
162.67861402401797
  0
LINE
  8
_0-1_1
  6
CONTINUOUS
 62
    7
 10
403.82949669629886
 20
167.67861402401786
 11
403.82949669629886
 21
169.67861402401786
  0
LINE
  8
_0-1_1
  6
CONTINUOUS
 62
    7
 10
386.82949669629886
 20
160.67861402401797
 11
388.32949669629886
 21
160.67861402401797
  0
LINE
  8
_0-1_1
  6
CONTINUOUS
 62
    7
 10
403.82949669629886
 20
160.67861402401797
 11
403.82949669629886
 21
162.67861402401797
  0
LINE
  8
_0-1_1
  6
CONTINUOUS
 62
    7
 10
386.82949669629886
 20
169.67861402401786
 11
386.82949669629886
 21
168.67861402401786
  0
LINE
  8
_0-1_1
  6
CONTINUOUS
 62
    7
 10
386.82949669629886
 20
168.67861402401786
 11
384.82949669629886
 21
168.67861402401786
  0
LINE
  8
_0-1_1
  6
CONTINUOUS
 62
    7
 10
386.82949669629886
 20
168.67861402401786
 11
386.82949669629886
 21
161.67861402401797
  0
LINE
  8
_0-1_1
  6
CONTINUOUS
 62
    7
 10
386.82949669629886
 20
161.67861402401797
 11
384.82949669629886
 21
161.67861402401797
  0
LINE
  8
_0-1_1
  6
CONTINUOUS
 62
    7
 10
386.82949669629886
 20
161.67861402401797
 11
386.82949669629886
 21
160.67861402401797
  0
LINE
  8
_0-1_1
  6
CONTINUOUS
 62
    7
 10
384.82949669629886
 20
165.67861402401786
 11
385.82949669629886
 21
165.67861402401786
  0
LINE
  8
_0-1_1
  6
CONTINUOUS
 62
    7
 10
384.82949669629886
 20
164.67861402401786
 11
385.82949669629886
 21
164.67861402401786
  0
LINE
  8
_0-1_1
  6
CONTINUOUS
 62
    7
 10
384.82949669629886
 20
168.67861402401786
 11
384.82949669629886
 21
165.67861402401786
  0
LINE
  8
_0-1_1
  6
CONTINUOUS
 62
    7
 10
384.82949669629886
 20
164.67861402401786
 11
384.82949669629886
 21
161.67861402401797
  0
LINE
  8
_0-1_1
  6
CONTINUOUS
 62
    7
 10
385.82949669629886
 20
165.67861402401786
 11
385.82949669629886
 21
164.67861402401786
  0
LINE
  8
_0-1_1
  6
CONTINUOUS
 62
    7
 10
376.82270471223086
 20
468.86831570066988
 11
381.52949669629868
 21
468.86831570066988
  0
LINE
  8
_0-1_1
  6
CONTINUOUS
 62
    7
 10
376.82270471223086
 20
514.86831570082791
 11
384.82949669629886
 21
514.86831570082791
  0
LINE
  8
_0-1_1
  6
CONTINUOUS
 62
    7
 10
376.82270471223086
 20
514.86831570082791
 11
381.82270471223075
 21
514.86831570082791
  0
LINE
  8
_0-1_1
  6
CONTINUOUS
 62
    7
 10
414.07270471223086
 20
470.56831570082784
 11
416.07270471223075
 21
470.86831570082791
  0
LINE
  8
_0-1_1
  6
CONTINUOUS
 62
    7
 10
416.07270471223075
 20
470.86831570082791
 11
416.07270471223075
 21
473.46831570082782
  0
LINE
  8
_0-1_1
  6
CONTINUOUS
 62
    7
 10
365.57270471223075
 20
473.46831570082782
 11
365.57270471223075
 21
470.86831570082791
  0
LINE
  8
_0-1_1
  6
CONTINUOUS
 62
    7
 10
365.57270471223075
 20
470.86831570082791
 11
367.57270471223075
 21
470.56831570082784
  0
LINE
  8
_0-1_1
  6
CONTINUOUS
 62
    7
 10
365.57270471223075
 20
473.46831570082782
 11
384.82949669629886
 21
473.46831570082782
  0
LINE
  8
_0-1_1
  6
CONTINUOUS
 62
    7
 10
369.94770471223086
 20
468.86831570066988
 11
376.82270471223086
 21
468.86831570066988
  0
LINE
  8
_0-1_1
  6
CONTINUOUS
 62
    7
 10
414.07270471223086
 20
470.56831570082784
 11
367.57270471223075
 21
470.56831570082784
  0
LINE
  8
_0-1_1
  6
CONTINUOUS
 62
    5
 10
416.07270471223075
 20
470.86831570082791
 11
365.57270471223075
 21
470.86831570082791
  0
LINE
  8
_0-1_1
  6
CONTINUOUS
 62
    7
 10
363.42270471223168
 20
514.86831570082791
 11
378.32270471223075
 21
514.86831570082791
  0
LINE
  8
_0-1_1
  6
CONTINUOUS
 62
    7
 10
602.82949669629761
 20
151.62198969699296
 11
601.32949669629761
 21
149.17861402401786
  0
LINE
  8
_0-1_1
  6
CONTINUOUS
 62
    7
 10
557.82949669629761
 20
151.62198969699188
 11
559.32949669629761
 21
149.17861402401786
  0
LINE
  8
_0-1_1
  6
CONTINUOUS
 62
    7
 10
559.32949669629761
 20
149.17861402401786
 11
601.32949669629761
 21
149.17861402401786
  0
LINE
  8
_0-1_1
  6
CONTINUOUS
 62
    7
 10
556.48246317075859
 20
219.20516408777684
 11
548.82949669629761
 21
225.17861402401786
  0
LINE
  8
_0-1_1
  6
CONTINUOUS
 62
    7
 10
604.17653022183765
 20
219.20516408777684
 11
611.82949669629761
 21
225.17861402401786
  0
LINE
  8
_0-1_1
  6
CONTINUOUS
 62
    7
 10
587.82949669629761
 20
201.17861402401786
 11
587.82949669629761
 21
208.17861402401786
  0
LINE
  8
_0-1_1
  6
CONTINUOUS
 62
    7
 10
576.82949669629784
 20
197.17861402401786
 11
583.82949669629761
 21
197.17861402401786
  0
LINE
  8
_0-1_1
  6
CONTINUOUS
 62
    7
 10
572.82949669629784
 20
208.17861402401786
 11
572.82949669629784
 21
201.17861402401786
  0
LINE
  8
_0-1_1
  6
CONTINUOUS
 62
    7
 10
583.82949669629761
 20
212.17861402401786
 11
576.82949669629784
 21
212.17861402401786
  0
LINE
  8
_0-1_1
  6
CONTINUOUS
 62
    2
 10
600.32949669629761
 20
217.09571025536394
 11
567.32949669629761
 21
217.09571025536394
  0
LINE
  8
_0-1_1
  6
CONTINUOUS
 62
    7
 10
611.82949669629761
 20
225.17861402401786
 11
611.82949669629761
 21
226.17861402401786
  0
LINE
  8
_0-1_1
  6
CONTINUOUS
 62
    7
 10
548.82949669629761
 20
225.17861402401786
 11
611.82949669629761
 21
225.17861402401786
  0
LINE
  8
_0-1_1
  6
CONTINUOUS
 62
    7
 10
548.82949669629761
 20
226.17861402401786
 11
548.82949669629761
 21
225.17861402401786
  0
LINE
  8
_0-1_1
  6
CONTINUOUS
 62
    7
 10
611.82949669629761
 20
226.17861402401786
 11
548.82949669629761
 21
226.17861402401786
  0
LINE
  8
_0-1_1
  6
CONTINUOUS
 62
    7
 10
560.32949669629784
 20
190.17861402401786
 11
552.82949669629761
 21
190.17861402401786
  0
LINE
  8
_0-1_1
  6
CONTINUOUS
 62
    7
 10
560.32949669629784
 20
211.32220756346783
 11
560.32949669629784
 21
190.17861402401786
  0
LINE
  8
_0-1_1
  6
CONTINUOUS
 62
    7
 10
600.32949669629761
 20
190.17861402401786
 11
560.32949669629784
 21
190.17861402401786
  0
LINE
  8
_0-1_1
  6
CONTINUOUS
 62
    7
 10
600.32949669629761
 20
211.32220756346783
 11
600.32949669629761
 21
190.17861402401786
  0
LINE
  8
_0-1_1
  6
CONTINUOUS
 62
    2
 10
601.38370245999567
 20
184.11002911375795
 11
567.38370245999567
 21
184.11002911375795
  0
LINE
  8
_0-1_1
  6
CONTINUOUS
 62
    7
 10
557.82949669629761
 20
156.17861402401797
 11
557.82949669629761
 21
151.62198969699188
  0
LINE
  8
_0-1_1
  6
CONTINUOUS
 62
    7
 10
546.32949669629761
 20
156.17861402401797
 11
546.32949669629761
 21
153.91991003873284
  0
LINE
  8
_0-1_1
  6
CONTINUOUS
 62
    7
 10
546.32949669629761
 20
156.17861402401797
 11
557.82949669629761
 21
156.17861402401797
  0
LINE
  8
_0-1_1
  6
CONTINUOUS
 62
    7
 10
546.32949669629886
 20
174.17861402401786
 11
546.32949669629761
 21
156.17861402401797
  0
LINE
  8
_0-1_1
  6
CONTINUOUS
 62
    7
 10
557.82949669629761
 20
174.17861402401786
 11
546.32949669629886
 21
174.17861402401786
  0
LINE
  8
_0-1_1
  6
CONTINUOUS
 62
    7
 10
557.82949669629761
 20
151.62198969699188
 11
602.82949669629761
 21
151.62198969699296
  0
LINE
  8
_0-1_1
  6
CONTINUOUS
 62
    7
 10
557.82949669629761
 20
183.93897011023995
 11
557.82949669629761
 21
174.17861402401786
  0
LINE
  8
_0-1_1
  6
CONTINUOUS
 62
    7
 10
551.82949669629784
 20
187.67861402401786
 11
555.10110393442585
 21
186.92664972964297
  0
LINE
  8
_0-1_1
  6
CONTINUOUS
 62
    7
 10
602.82949669629761
 20
183.93897011023995
 11
602.82949669629761
 21
151.62198969699296
  0
LINE
  8
_0-1_1
  6
CONTINUOUS
 62
    7
 10
608.82949669629761
 20
187.67861402401786
 11
605.55788945817062
 21
186.92664972964297
  0
LINE
  8
_0-1_1
  6
CONTINUOUS
 62
    7
 10
608.82949669629761
 20
187.67861402401786
 11
608.82949669629761
 21
189.17861402401786
  0
LINE
  8
_0-1_1
  6
CONTINUOUS
 62
    7
 10
551.82949669629784
 20
187.67861402401786
 11
608.82949669629761
 21
187.67861402401786
  0
LINE
  8
_0-1_1
  6
CONTINUOUS
 62
    7
 10
551.82949669629784
 20
189.17861402401786
 11
551.82949669629784
 21
187.67861402401786
  0
LINE
  8
_0-1_1
  6
CONTINUOUS
 62
    7
 10
607.82949669629761
 20
190.17861402401786
 11
600.32949669629761
 21
190.17861402401786
  0
LINE
  8
_0-1_1
  6
CONTINUOUS
 62
    7
 10
601.32949669629761
 20
141.17861402401797
 11
559.32949669629761
 21
141.17861402401797
  0
LINE
  8
_0-1_1
  6
CONTINUOUS
 62
    7
 10
559.32949669629761
 20
141.17861402401797
 11
560.32949669629784
 21
140.17861402401797
  0
LINE
  8
_0-1_1
  6
CONTINUOUS
 62
    7
 10
601.32949669629761
 20
141.17861402401797
 11
600.32949669629761
 21
140.17861402401797
  0
LINE
  8
_0-1_1
  6
CONTINUOUS
 62
    7
 10
601.32949669629761
 20
141.17861402401797
 11
601.32949669629761
 21
149.17861402401786
  0
LINE
  8
_0-1_1
  6
CONTINUOUS
 62
    7
 10
560.32949669629784
 20
140.17861402401797
 11
580.32949669629761
 21
140.17861402401797
  0
LINE
  8
_0-1_1
  6
CONTINUOUS
 62
    7
 10
559.32949669629761
 20
149.17861402401786
 11
559.32949669629761
 21
141.17861402401797
  0
LINE
  8
_0-1_1
  6
CONTINUOUS
 62
    7
 10
388.32949669629886
 20
167.67861402401786
 11
388.32949669629886
 21
162.67861402401797
  0
LINE
  8
_0-1_1
  6
CONTINUOUS
 62
    7
 10
533.32949669629886
 20
162.67861402401797
 11
533.32949669629886
 21
153.67861402401797
  0
LINE
  8
_0-1_1
  6
CONTINUOUS
 62
    7
 10
533.32949669629886
 20
167.67861402401786
 11
533.32949669629886
 21
162.67861402401797
  0
LINE
  8
_0-1_1
  6
CONTINUOUS
 62
    7
 10
533.32949669629886
 20
167.67861402401786
 11
403.82949669629886
 21
167.67861402401786
  0
LINE
  8
_0-1_1
  6
CONTINUOUS
 62
    7
 10
546.32949669629886
 20
176.43731800930397
 11
546.32949669629886
 21
174.17861402401786
  0
LINE
  8
_0-1_1
  6
CONTINUOUS
 62
    7
 10
546.32949669629886
 20
176.67861402401786
 11
533.32949669629886
 21
176.67861402401786
  0
LINE
  8
_0-1_1
  6
CONTINUOUS
 62
    7
 10
533.32949669629886
 20
176.67861402401786
 11
533.32949669629886
 21
167.67861402401786
  0
LINE
  8
_0-1_1
  6
CONTINUOUS
 62
    7
 10
546.32949669629761
 20
153.67861402401797
 11
533.32949669629886
 21
153.67861402401797
  0
LINE
  8
_0-1_1
  6
CONTINUOUS
 62
    7
 10
228.50357096062987
 20
514.86831570082791
 11
363.42270471223168
 21
514.86831570082791
  0
LINE
  8
_0-1_1
  6
CONTINUOUS
 62
    7
 10
228.50357096062987
 20
474.86831570082791
 11
228.50357096062987
 21
514.86831570082791
  0
LINE
  8
_0-1_1
  6
CONTINUOUS
 62
    7
 10
378.32270471223075
 20
474.86831570082791
 11
228.50357096062987
 21
474.86831570082791
  0
LINE
  8
_0-1_1
  6
CONTINUOUS
 62
    7
 10
479.95844605044579
 20
514.86831570082791
 11
527.8388852927576
 21
514.86831570082791
  0
LINE
  8
_0-1_1
  6
CONTINUOUS
 62
    7
 10
527.8388852927576
 20
514.86831570082791
 11
527.8388852927576
 21
474.86831570082791
  0
LINE
  8
_0-1_1
  6
CONTINUOUS
 62
    7
 10
378.32270471223075
 20
474.86831570082791
 11
378.32270471223075
 21
514.86831570082791
  0
LINE
  8
_0-1_1
  6
CONTINUOUS
 62
    7
 10
403.32270471223075
 20
474.86831570082791
 11
403.32270471223075
 21
514.86831570082791
  0
LINE
  8
_0-1_1
  6
CONTINUOUS
 62
    7
 10
479.95844605044579
 20
514.86831570082791
 11
418.22270471223186
 21
514.86831570082791
  0
LINE
  8
_0-1_1
  6
CONTINUOUS
 62
    7
 10
527.8388852927576
 20
474.86831570082791
 11
403.32270471223075
 21
474.86831570082791
  0
LINE
  8
_0-1_1
  6
CONTINUOUS
 62
    7
 10
390.82949669629886
 20
150.17861402401797
 11
393.32949669629886
 21
150.17861402401797
  0
LINE
  8
_0-1_1
  6
CONTINUOUS
 62
    7
 10
580.32949669629761
 20
140.17861402401797
 11
600.32949669629761
 21
140.17861402401797
  0
ARC
  8
_0-1_1
  6
CONTINUOUS
 62
    7
 10
384.82949669629886
 20
431.86831570082893
 40
2.5
 50
36.869897645837511
 51
89.999999999993506
  0
ARC
  8
_0-1_1
  6
CONTINUOUS
 62
    7
 10
383.10449669629878
 20
465.68362820066989
 40
3.8153125000000001
 50
227.55268699446773
 51
312.44731300553229
  0
ARC
  8
_0-1_1
  6
CONTINUOUS
 62
    7
 10
390.82949669629886
 20
475.6295657006699
 40
13.76125
 50
248.02269780701033
 51
291.97730219298978
  0
ARC
  8
_0-1_1
  6
CONTINUOUS
 62
    7
 10
398.55449669629877
 20
465.68362820066989
 40
3.8153125000000001
 50
227.55268699446773
 51
312.44731300553229
  0
ARC
  8
_0-1_1
  6
CONTINUOUS
 62
    7
 10
398.55449669629877
 20
465.05300320066988
 40
3.8153125000000001
 50
47.552686994466647
 51
132.4473130055334
  0
ARC
  8
_0-1_1
  6
CONTINUOUS
 62
    7
 10
390.82949669629886
 20
455.10706570066998
 40
13.76125
 50
68.02269780701036
 51
111.97730219298971
  0
ARC
  8
_0-1_1
  6
CONTINUOUS
 62
    7
 10
383.10449669629878
 20
465.05300320067488
 40
3.8153124999969998
 50
47.552686994421776
 51
132.4473130055782
  0
ARC
  8
_0-1_1
  6
CONTINUOUS
 62
    7
 10
384.82949669629886
 20
428.36831570082791
 40
2.5
 50
216.8698976458472
 51
323.13010235415283
  0
ARC
  8
_0-1_1
  6
CONTINUOUS
 62
    7
 10
390.82949669629886
 20
434.36831570082791
 40
8.5
 50
241.9275130641453
 51
298.07248693585473
  0
ARC
  8
_0-1_1
  6
CONTINUOUS
 62
    7
 10
396.82949669629886
 20
428.36831570082893
 40
2.5
 50
216.8698976458507
 51
323.13010235414919
  0
ARC
  8
_0-1_1
  6
CONTINUOUS
 62
    7
 10
396.82949669629886
 20
431.86831570082791
 40
2.5
 50
36.869897645847225
 51
143.1301023541528
  0
ARC
  8
_0-1_1
  6
CONTINUOUS
 62
    7
 10
390.82949669629886
 20
425.86831570082791
 40
8.5
 50
61.927513064145366
 51
118.0724869358546
  0
ARC
  8
_0-1_1
  6
CONTINUOUS
 62
    7
 10
384.82949669629886
 20
431.86831570082893
 40
2.5
 50
89.999999999993491
 51
143.13010235416249
  0
ARC
  8
_0-1_1
  6
CONTINUOUS
 62
    7
 10
398.32949669629886
 20
165.17861402401786
 40
4.5
 50
146.25101140411422
 51
213.74898859588583
  0
ARC
  8
_0-1_1
  6
CONTINUOUS
 62
    7
 10
398.32949669629886
 20
165.17861402401786
 40
4.5
 50
33.748988595894019
 51
146.25101140411419
  0
ARC
  8
_0-1_1
  6
CONTINUOUS
 62
    7
 10
398.32949669629886
 20
165.17861402401786
 40
4.5
 50
213.74898859588581
 51
326.2510114041059
  0
ARC
  8
_0-1_1
  6
CONTINUOUS
 62
    7
 10
398.32949669629886
 20
165.17861402401786
 40
4.5
 50
326.25101140410595
 51
0.0000000000000318
  0
ARC
  8
_0-1_1
  6
CONTINUOUS
 62
    7
 10
398.32949669629886
 20
165.17861402401786
 40
4.5
 50
0
 51
33.748988595894019
  0
ARC
  8
_0-1_1
  6
CONTINUOUS
 62
    7
 10
411.69770471223086
 20
471.37732305376983
 40
2.509007353099999
 50
270
 51
341.18937699806992
  0
ARC
  8
_0-1_1
  6
CONTINUOUS
 62
    7
 10
411.69770471239974
 20
471.37732305330087
 40
2.5090073526309991
 50
269.99999999615034
 51
341.18937700697222
  0
ARC
  8
_0-1_1
  6
CONTINUOUS
 62
    7
 10
369.94770471206164
 20
471.37732305330087
 40
2.509007352629999
 50
198.81062299303042
 51
270.00000000385609
  0
ARC
  8
_0-1_1
  6
CONTINUOUS
 62
    7
 10
369.94770471223086
 20
471.37732305376983
 40
2.5090073529409991
 50
198.81062300193312
 51
270
  0
ARC
  8
_0-1_1
  6
CONTINUOUS
 62
    7
 10
411.72270471223084
 20
473.11831570082791
 40
1.75
 50
11.53695903282437
 51
168.4630409671727
  0
ARC
  8
_0-1_1
  6
CONTINUOUS
 62
    7
 10
369.92270471223065
 20
473.11831570082791
 40
1.75
 50
11.536959032827291
 51
168.46304096717273
  0
ARC
  8
_0-1_1
  6
CONTINUOUS
 62
    7
 10
545.52411251208855
 20
165.17861402401786
 40
15.245408486523999
 50
323.81874167164011
 51
36.181258328359846
  0
ARC
  8
_0-1_1
  6
CONTINUOUS
 62
    7
 10
510.52495368492475
 20
153.79926203138598
 40
35.804746280277001
 50
359.80693524104078
 51
0.1930647589266603
  0
ARC
  8
_0-1_1
  6
CONTINUOUS
 62
    7
 10
510.52495368492475
 20
176.55796601666293
 40
35.804746280277001
 50
359.80693524105379
 51
0.1930647589396879
  0
ARC
  8
_0-1_1
  6
CONTINUOUS
 62
    7
 10
550.32949669629761
 20
211.32220756346783
 40
10
 50
0
 51
52.026521616979899
  0
ARC
  8
_0-1_1
  6
CONTINUOUS
 62
    7
 10
583.82949669629761
 20
201.17861402401786
 40
4
 50
270
 51
0
  0
ARC
  8
_0-1_1
  6
CONTINUOUS
 62
    7
 10
576.82949669629784
 20
201.17861402401786
 40
4
 50
180
 51
270
  0
ARC
  8
_0-1_1
  6
CONTINUOUS
 62
    7
 10
576.82949669629784
 20
208.17861402401786
 40
4
 50
90
 51
180
  0
ARC
  8
_0-1_1
  6
CONTINUOUS
 62
    7
 10
583.82949669629761
 20
208.17861402401786
 40
4
 50
0
 51
90
  0
ARC
  8
_0-1_1
  6
CONTINUOUS
 62
    7
 10
610.32949669629784
 20
211.32220756346783
 40
10
 50
127.97347838302009
 51
180
  0
ARC
  8
_0-1_1
  6
CONTINUOUS
 62
    7
 10
554.82949669629761
 20
183.93897011023995
 40
3
 50
0
 51
84.805571092258617
  0
ARC
  8
_0-1_1
  6
CONTINUOUS
 62
    7
 10
605.82949669629784
 20
183.93897011023995
 40
3
 50
95.194428907734846
 51
180
  0
ARC
  8
_0-1_1
  6
CONTINUOUS
 62
    7
 10
552.82949669629761
 20
189.17861402401786
 40
1
 50
90
 51
180
  0
ARC
  8
_0-1_1
  6
CONTINUOUS
 62
    7
 10
607.82949669629761
 20
189.17861402401786
 40
1
 50
0
 51
90
  0
LINE
  8
_0-2_0
  6
CONTINUOUS
 62
    2
 10
403.32270471223075
 20
506.89086020597176
 11
411.30016020708706
 21
514.86831570082791
  0
LINE
  8
_0-2_0
  6
CONTINUOUS
 62
    2
 10
403.32270471223075
 20
492.7487245822407
 11
425.44229583081818
 21
514.86831570082791
  0
LINE
  8
_0-2_0
  6
CONTINUOUS
 62
    2
 10
403.32270471223075
 20
478.60658895850975
 11
439.58443145454896
 21
514.86831570082791
  0
LINE
  8
_0-2_0
  6
CONTINUOUS
 62
    2
 10
413.72656707828025
 20
474.86831570082813
 11
453.72656707827986
 21
514.86831570082791
  0
LINE
  8
_0-2_0
  6
CONTINUOUS
 62
    2
 10
427.86870270201138
 20
474.86831570082813
 11
467.86870270201086
 21
514.86831570082791
  0
LINE
  8
_0-2_0
  6
CONTINUOUS
 62
    2
 10
442.01083832574199
 20
474.86831570082802
 11
482.01083832574199
 21
514.86831570082791
  0
LINE
  8
_0-2_0
  6
CONTINUOUS
 62
    2
 10
456.15297394947294
 20
474.86831570082802
 11
496.15297394947277
 21
514.86831570082791
  0
LINE
  8
_0-2_0
  6
CONTINUOUS
 62
    2
 10
470.29510957320383
 20
474.86831570082802
 11
510.29510957320355
 21
514.86831570082791
  0
LINE
  8
_0-2_0
  6
CONTINUOUS
 62
    2
 10
484.43724519693467
 20
474.86831570082802
 11
524.43724519693467
 21
514.86831570082791
  0
LINE
  8
_0-2_0
  6
CONTINUOUS
 62
    2
 10
498.57938082066573
 20
474.86831570082802
 11
527.8388852927576
 21
504.12782017291988
  0
LINE
  8
_0-2_0
  6
CONTINUOUS
 62
    2
 10
512.72151644439657
 20
474.86831570082802
 11
527.8388852927576
 21
489.98568454918882
  0
LINE
  8
_0-2_0
  6
CONTINUOUS
 62
    2
 10
526.86365206812729
 20
474.86831570082802
 11
527.8388852927576
 21
475.84354892545798
  0
LINE
  8
_0-2_0
  6
CONTINUOUS
 62
    2
 10
228.50357096062936
 20
501.77735393914168
 11
241.59453272231565
 21
514.86831570082791
  0
LINE
  8
_0-2_0
  6
CONTINUOUS
 62
    2
 10
228.50357096062936
 20
487.63521831541061
 11
255.73666834604666
 21
514.86831570082791
  0
LINE
  8
_0-2_0
  6
CONTINUOUS
 62
    2
 10
229.87880396977755
 20
474.86831570082802
 11
269.87880396977755
 21
514.86831570082791
  0
LINE
  8
_0-2_0
  6
CONTINUOUS
 62
    2
 10
244.02093959350856
 20
474.86831570082802
 11
284.02093959350839
 21
514.86831570082791
  0
LINE
  8
_0-2_0
  6
CONTINUOUS
 62
    2
 10
258.16307521723945
 20
474.86831570082802
 11
298.16307521723945
 21
514.86831570082791
  0
LINE
  8
_0-2_0
  6
CONTINUOUS
 62
    2
 10
272.30521084097046
 20
474.86831570082802
 11
312.30521084097046
 21
514.86831570082791
  0
LINE
  8
_0-2_0
  6
CONTINUOUS
 62
    2
 10
286.44734646470135
 20
474.86831570082802
 11
326.44734646470135
 21
514.86831570082791
  0
LINE
  8
_0-2_0
  6
CONTINUOUS
 62
    2
 10
300.58948208843219
 20
474.86831570082802
 11
340.58948208843219
 21
514.86831570082791
  0
LINE
  8
_0-2_0
  6
CONTINUOUS
 62
    2
 10
314.73161771216326
 20
474.86831570082802
 11
354.73161771216326
 21
514.86831570082791
  0
LINE
  8
_0-2_0
  6
CONTINUOUS
 62
    2
 10
328.87375333589432
 20
474.86831570082802
 11
368.87375333589438
 21
514.86831570082791
  0
LINE
  8
_0-2_0
  6
CONTINUOUS
 62
    2
 10
343.01588895962516
 20
474.86831570082802
 11
378.32270471223075
 21
510.17513145343366
  0
LINE
  8
_0-2_0
  6
CONTINUOUS
 62
    2
 10
357.158024583356
 20
474.86831570082802
 11
378.32270471223075
 21
496.0329958297026
  0
LINE
  8
_0-2_0
  6
CONTINUOUS
 62
    2
 10
371.30016020708706
 20
474.86831570082802
 11
378.32270471223075
 21
481.89086020597188
  0
INSERT
  2
-000-_X37
  8
_0-2_0
 10
104.99999853316706
 20
-148.50000207452115
 41
1
 42
1
 50
0
  0
LINE
  8
_0-3_寸法線
  6
CONTINUOUS
 62
    3
 10
378.32270471223075
 20
468.86831570082791
 11
378.32270471223075
 21
442.91697573657643
  0
LINE
  8
_0-3_寸法線
  6
CONTINUOUS
 62
    3
 10
403.32270471223075
 20
468.86831570082791
 11
403.32270471223075
 21
442.91697573657643
  0
LINE
  8
_0-3_寸法線
  6
CONTINUOUS
 62
    3
 10
370.82270471223086
 20
442.91697573657643
 11
363.32270471223075
 21
442.91697573657643
  0
LINE
  8
_0-3_寸法線
  6
CONTINUOUS
 62
    3
 10
410.82270471223075
 20
442.91697573657643
 11
443.25127614080225
 21
442.91697573657643
  0
LINE
  8
_0-3_寸法線
  6
CONTINUOUS
 62
    3
 10
378.32270471223075
 20
442.91697573657643
 11
403.32270471223075
 21
442.91697573657643
  0
LINE
  8
_0-3_寸法線
  6
CONTINUOUS
 62
    3
 10
390.82949669629886
 20
144.17861402401797
 11
390.82949669629886
 21
71.278237174146255
  0
LINE
  8
_0-3_寸法線
  6
CONTINUOUS
 62
    3
 10
580.32949669629761
 20
129.17861402401797
 11
580.32949669629761
 21
71.278237174146255
  0
LINE
  8
_0-3_寸法線
  6
CONTINUOUS
 62
    3
 10
398.32949669629886
 20
71.278237174146255
 11
572.82949669629784
 21
71.278237174146255
  0
LINE
  8
_0-3_寸法線
  6
CONTINUOUS
 62
    3
 10
222.50357096062987
 20
474.86831570082791
 11
193.96009943555913
 21
474.86831570082791
  0
LINE
  8
_0-3_寸法線
  6
CONTINUOUS
 62
    3
 10
387.32949669629886
 20
165.17861402401786
 11
193.96009943555907
 21
165.17861402401797
  0
LINE
  8
_0-3_寸法線
  6
CONTINUOUS
 62
    3
 10
193.96009943555913
 20
467.36831570082791
 11
193.96009943555907
 21
172.67861402401797
  0
LINE
  8
_0-3_寸法線
  6
CONTINUOUS
 62
    3
 10
424.22270471223186
 20
524.86831570082791
 11
446.80642895670667
 21
524.86831570082791
  0
LINE
  8
_0-3_寸法線
  6
CONTINUOUS
 62
    3
 10
424.22270471223186
 20
514.86831570082791
 11
446.80642895670667
 21
514.86831570082791
  0
LINE
  8
_0-3_寸法線
  6
CONTINUOUS
 62
    3
 10
446.80642895670667
 20
532.36831570082791
 11
446.80642895670667
 21
539.86831570082791
  0
LINE
  8
_0-3_寸法線
  6
CONTINUOUS
 62
    3
 10
446.80642895670667
 20
507.36831570082791
 11
446.80642895670667
 21
499.86831570082791
  0
LINE
  8
_0-3_寸法線
  6
CONTINUOUS
 62
    3
 10
446.80642895670667
 20
524.86831570082791
 11
446.80642895670667
 21
514.86831570082791
  0
LINE
  8
_0-3_寸法線
  6
CONTINUOUS
 62
    3
 10
424.22270471223186
 20
524.86831570082791
 11
446.80642895670667
 21
524.86831570082791
  0
LINE
  8
_0-3_寸法線
  6
CONTINUOUS
 62
    3
 10
424.22270471223186
 20
544.86831570082791
 11
446.80642895670667
 21
544.86831570082791
  0
LINE
  8
_0-3_寸法線
  6
CONTINUOUS
 62
    3
 10
446.80642895670667
 20
517.36831570082791
 11
446.80642895670667
 21
509.86831570082791
  0
LINE
  8
_0-3_寸法線
  6
CONTINUOUS
 62
    3
 10
446.80642895670667
 20
552.36831570082791
 11
446.80642895670667
 21
559.86831570082791
  0
LINE
  8
_0-3_寸法線
  6
CONTINUOUS
 62
    3
 10
446.80642895670667
 20
524.86831570082791
 11
446.80642895670667
 21
544.86831570082791
  0
LINE
  8
_0-3_寸法線
  6
CONTINUOUS
 62
    3
 10
533.8388852927576
 20
514.86831570082791
 11
556.59154090713344
 21
514.86831570082791
  0
LINE
  8
_0-3_寸法線
  6
CONTINUOUS
 62
    3
 10
533.8388852927576
 20
474.86831570082791
 11
556.59154090713332
 21
474.86831570082791
  0
LINE
  8
_0-3_寸法線
  6
CONTINUOUS
 62
    3
 10
556.59154090713344
 20
507.36831570082791
 11
556.59154090713332
 21
482.36831570082791
  0
LINE
  8
_0-3_寸法線
  6
CONTINUOUS
 62
    3
 10
400.82270471223075
 20
544.86831570082791
 11
556.59154090713332
 21
544.86831570082791
  0
LINE
  8
_0-3_寸法線
  6
CONTINUOUS
 62
    3
 10
533.8388852927576
 20
514.86831570082791
 11
556.59154090713332
 21
514.86831570082791
  0
LINE
  8
_0-3_寸法線
  6
CONTINUOUS
 62
    3
 10
556.59154090713332
 20
537.36831570082791
 11
556.59154090713332
 21
522.36831570082791
  0
LINE
  8
_0-3_寸法線
  6
CONTINUOUS
 62
    3
 10
363.42270471223168
 20
530.86831570082791
 11
363.42270471223168
 21
568.25578201304813
  0
LINE
  8
_0-3_寸法線
  6
CONTINUOUS
 62
    3
 10
418.22270471223186
 20
530.86831570082791
 11
418.22270471223186
 21
568.25578201304813
  0
LINE
  8
_0-3_寸法線
  6
CONTINUOUS
 62
    3
 10
370.92270471223156
 20
568.25578201304813
 11
410.72270471223175
 21
568.25578201304813
  0
LINE
  8
_0-3_寸法線
  6
CONTINUOUS
 62
    3
 10
559.32949669629761
 20
135.17861402401797
 11
559.32949669629761
 21
109.15089018879496
  0
LINE
  8
_0-3_寸法線
  6
CONTINUOUS
 62
    3
 10
601.32949669629761
 20
135.17861402401797
 11
601.32949669629761
 21
109.15089018879496
  0
LINE
  8
_0-3_寸法線
  6
CONTINUOUS
 62
    3
 10
551.82949669629784
 20
109.15089018879496
 11
544.32949669629761
 21
109.15089018879496
  0
LINE
  8
_0-3_寸法線
  6
CONTINUOUS
 62
    3
 10
608.82949669629761
 20
109.15089018879496
 11
671.32949669629761
 21
109.15089018879496
  0
LINE
  8
_0-3_寸法線
  6
CONTINUOUS
 62
    3
 10
559.32949669629761
 20
109.15089018879496
 11
601.32949669629761
 21
109.15089018879496
  0
LINE
  8
_0-3_寸法線
  6
CONTINUOUS
 62
    3
 10
548.82949669629761
 20
232.17861402401786
 11
548.82949669629761
 21
248.80756228465577
  0
LINE
  8
_0-3_寸法線
  6
CONTINUOUS
 62
    3
 10
611.82949669629761
 20
232.17861402401786
 11
611.82949669629761
 21
248.80756228465577
  0
LINE
  8
_0-3_寸法線
  6
CONTINUOUS
 62
    3
 10
556.32949669629784
 20
248.80756228465577
 11
604.32949669629761
 21
248.80756228465577
  0
LINE
  8
_0-3_寸法線
  6
CONTINUOUS
 62
    3
 10
622.82949669629897
 20
225.17861402401786
 11
645.32937753851218
 21
225.17861402401786
  0
LINE
  8
_0-3_寸法線
  6
CONTINUOUS
 62
    3
 10
618.82949669629897
 20
190.17861402401786
 11
645.32937753851218
 21
190.17861402401786
  0
LINE
  8
_0-3_寸法線
  6
CONTINUOUS
 62
    3
 10
645.32937753851218
 20
232.67861402401786
 11
645.32937753851218
 21
240.17861402401786
  0
LINE
  8
_0-3_寸法線
  6
CONTINUOUS
 62
    3
 10
645.32937753851218
 20
182.67861402401786
 11
645.32937753851218
 21
133.46432830973202
  0
LINE
  8
_0-3_寸法線
  6
CONTINUOUS
 62
    3
 10
645.32937753851218
 20
225.17861402401786
 11
645.32937753851218
 21
190.17861402401786
  0
LINE
  8
_0-2_0
  6
CONTINUOUS
 62
    7
 10
410.82270471223075
 20
440.90735681157651
 11
403.32270471223075
 21
442.91697573657643
  0
LINE
  8
_0-2_0
  6
CONTINUOUS
 62
    7
 10
403.32270471223075
 20
442.91697573657643
 11
410.82270471223075
 21
444.92659466157659
  0
LINE
  8
_0-2_0
  6
CONTINUOUS
 62
    7
 10
403.32270471223075
 20
442.91697573657643
 11
410.82270471223075
 21
442.91697573657643
  0
LINE
  8
_0-2_0
  6
CONTINUOUS
 62
    7
 10
370.82270471223086
 20
444.92659466157659
 11
378.32270471223075
 21
442.91697573657643
  0
LINE
  8
_0-2_0
  6
CONTINUOUS
 62
    7
 10
378.32270471223075
 20
442.91697573657643
 11
370.82270471223086
 21
440.90735681157651
  0
LINE
  8
_0-2_0
  6
CONTINUOUS
 62
    7
 10
378.32270471223075
 20
442.91697573657643
 11
370.82270471223086
 21
442.91697573657643
  0
TEXT
  8
_0-3_寸法線
 62
    7
 10
466.40092526772685
 20
74.278237174146255
 40
7.5
 41
1
 50
0
  1
最大300
  0
LINE
  8
_0-2_0
  6
CONTINUOUS
 62
    7
 10
572.82949669629784
 20
73.287856099146353
 11
580.32949669629761
 21
71.278237174146255
  0
LINE
  8
_0-2_0
  6
CONTINUOUS
 62
    7
 10
580.32949669629761
 20
71.278237174146255
 11
572.82949669629784
 21
69.268618249146243
  0
LINE
  8
_0-2_0
  6
CONTINUOUS
 62
    7
 10
580.32949669629761
 20
71.278237174146255
 11
572.82949669629784
 21
71.278237174146255
  0
LINE
  8
_0-2_0
  6
CONTINUOUS
 62
    7
 10
398.32949669629886
 20
69.268618249146243
 11
390.82949669629886
 21
71.278237174146255
  0
LINE
  8
_0-2_0
  6
CONTINUOUS
 62
    7
 10
390.82949669629886
 20
71.278237174146255
 11
398.32949669629886
 21
73.287856099146353
  0
LINE
  8
_0-2_0
  6
CONTINUOUS
 62
    7
 10
390.82949669629886
 20
71.278237174146255
 11
398.32949669629886
 21
71.278237174146255
  0
TEXT
  8
_0-3_寸法線
 62
    7
 10
190.96009943555902
 20
300.84489343385133
 40
7.5
 41
1
 50
90
  1
最大400
  0
LINE
  8
_0-2_0
  6
CONTINUOUS
 62
    7
 10
195.96971836055906
 20
172.67861402401797
 11
193.96009943555907
 21
165.17861402401797
  0
LINE
  8
_0-2_0
  6
CONTINUOUS
 62
    7
 10
193.96009943555907
 20
165.17861402401797
 11
191.95048051055909
 21
172.67861402401797
  0
LINE
  8
_0-2_0
  6
CONTINUOUS
 62
    7
 10
193.96009943555907
 20
165.17861402401797
 11
193.96009943555907
 21
172.67861402401797
  0
LINE
  8
_0-2_0
  6
CONTINUOUS
 62
    7
 10
191.95048051055915
 20
467.36831570082791
 11
193.96009943555913
 21
474.86831570082791
  0
LINE
  8
_0-2_0
  6
CONTINUOUS
 62
    7
 10
193.96009943555913
 20
474.86831570082791
 11
195.96971836055914
 21
467.36831570082791
  0
LINE
  8
_0-2_0
  6
CONTINUOUS
 62
    7
 10
193.96009943555913
 20
474.86831570082791
 11
193.96009943555913
 21
467.36831570082791
  0
TEXT
  8
_0-3_寸法線
 62
    7
 10
443.80642895670655
 20
512.18974427225658
 40
7.5
 41
1
 50
90
  1
10
  0
LINE
  8
_0-2_0
  6
CONTINUOUS
 62
    7
 10
444.79681003170668
 20
507.36831570082791
 11
446.80642895670667
 21
514.86831570082791
  0
LINE
  8
_0-2_0
  6
CONTINUOUS
 62
    7
 10
446.80642895670667
 20
514.86831570082791
 11
448.81604788170665
 21
507.36831570082791
  0
LINE
  8
_0-2_0
  6
CONTINUOUS
 62
    7
 10
446.80642895670667
 20
514.86831570082791
 11
446.80642895670667
 21
507.36831570082791
  0
LINE
  8
_0-2_0
  6
CONTINUOUS
 62
    7
 10
448.81604788170665
 20
532.36831570082791
 11
446.80642895670667
 21
524.86831570082791
  0
LINE
  8
_0-2_0
  6
CONTINUOUS
 62
    7
 10
446.80642895670667
 20
524.86831570082791
 11
444.79681003170668
 21
532.36831570082791
  0
LINE
  8
_0-2_0
  6
CONTINUOUS
 62
    7
 10
446.80642895670667
 20
524.86831570082791
 11
446.80642895670667
 21
532.36831570082791
  0
TEXT
  8
_0-3_寸法線
 62
    7
 10
443.80642895670655
 20
527.7254585579708
 40
7.5
 41
1
 50
90
  1
20
  0
LINE
  8
_0-2_0
  6
CONTINUOUS
 62
    7
 10
448.81604788170665
 20
552.36831570082791
 11
446.80642895670667
 21
544.86831570082791
  0
LINE
  8
_0-2_0
  6
CONTINUOUS
 62
    7
 10
446.80642895670667
 20
544.86831570082791
 11
444.79681003170668
 21
552.36831570082791
  0
LINE
  8
_0-2_0
  6
CONTINUOUS
 62
    7
 10
446.80642895670667
 20
544.86831570082791
 11
446.80642895670667
 21
552.36831570082791
  0
LINE
  8
_0-2_0
  6
CONTINUOUS
 62
    7
 10
444.79681003170668
 20
517.36831570082791
 11
446.80642895670667
 21
524.86831570082791
  0
LINE
  8
_0-2_0
  6
CONTINUOUS
 62
    7
 10
446.80642895670667
 20
524.86831570082791
 11
448.81604788170665
 21
517.36831570082791
  0
LINE
  8
_0-2_0
  6
CONTINUOUS
 62
    7
 10
446.80642895670667
 20
524.86831570082791
 11
446.80642895670667
 21
517.36831570082791
  0
TEXT
  8
_0-3_寸法線
 62
    7
 10
553.59154090713332
 20
479.26117284368513
 40
7.5
 41
1
 50
90
  1
最大40
  0
LINE
  8
_0-2_0
  6
CONTINUOUS
 62
    7
 10
558.60115983213336
 20
482.36831570082791
 11
556.59154090713332
 21
474.86831570082791
  0
LINE
  8
_0-2_0
  6
CONTINUOUS
 62
    7
 10
556.59154090713332
 20
474.86831570082791
 11
554.58192198213351
 21
482.36831570082791
  0
LINE
  8
_0-2_0
  6
CONTINUOUS
 62
    7
 10
556.59154090713332
 20
474.86831570082791
 11
556.59154090713332
 21
482.36831570082791
  0
LINE
  8
_0-2_0
  6
CONTINUOUS
 62
    7
 10
554.58192198213351
 20
507.36831570082791
 11
556.59154090713344
 21
514.86831570082791
  0
LINE
  8
_0-2_0
  6
CONTINUOUS
 62
    7
 10
556.59154090713344
 20
514.86831570082791
 11
558.60115983213348
 21
507.36831570082791
  0
LINE
  8
_0-2_0
  6
CONTINUOUS
 62
    7
 10
556.59154090713344
 20
514.86831570082791
 11
556.59154090713344
 21
507.36831570082791
  0
TEXT
  8
_0-3_寸法線
 62
    7
 10
553.59154090713332
 20
522.7254585579708
 40
7.5
 41
1
 50
90
  1
30
  0
LINE
  8
_0-2_0
  6
CONTINUOUS
 62
    7
 10
558.60115983213336
 20
522.36831570082791
 11
556.59154090713332
 21
514.86831570082791
  0
LINE
  8
_0-2_0
  6
CONTINUOUS
 62
    7
 10
556.59154090713332
 20
514.86831570082791
 11
554.58192198213351
 21
522.36831570082791
  0
LINE
  8
_0-2_0
  6
CONTINUOUS
 62
    7
 10
556.59154090713332
 20
514.86831570082791
 11
556.59154090713332
 21
522.36831570082791
  0
LINE
  8
_0-2_0
  6
CONTINUOUS
 62
    7
 10
554.58192198213351
 20
537.36831570082791
 11
556.59154090713332
 21
544.86831570082791
  0
LINE
  8
_0-2_0
  6
CONTINUOUS
 62
    7
 10
556.59154090713332
 20
544.86831570082791
 11
558.60115983213336
 21
537.36831570082791
  0
LINE
  8
_0-2_0
  6
CONTINUOUS
 62
    7
 10
556.59154090713332
 20
544.86831570082791
 11
556.59154090713332
 21
537.36831570082791
  0
LINE
  8
_0-2_0
  6
CONTINUOUS
 62
    7
 10
410.72270471223175
 20
570.26540093804817
 11
418.22270471223186
 21
568.25578201304813
  0
LINE
  8
_0-2_0
  6
CONTINUOUS
 62
    7
 10
418.22270471223186
 20
568.25578201304813
 11
410.72270471223175
 21
566.24616308804809
  0
LINE
  8
_0-2_0
  6
CONTINUOUS
 62
    7
 10
418.22270471223186
 20
568.25578201304813
 11
410.72270471223175
 21
568.25578201304813
  0
LINE
  8
_0-2_0
  6
CONTINUOUS
 62
    7
 10
370.92270471223156
 20
566.24616308804809
 11
363.42270471223168
 21
568.25578201304813
  0
LINE
  8
_0-2_0
  6
CONTINUOUS
 62
    7
 10
363.42270471223168
 20
568.25578201304813
 11
370.92270471223156
 21
570.26540093804817
  0
LINE
  8
_0-2_0
  6
CONTINUOUS
 62
    7
 10
363.42270471223168
 20
568.25578201304813
 11
370.92270471223156
 21
568.25578201304813
  0
TEXT
  8
_0-3_寸法線
 62
    7
 10
618.25806812486906
 20
114.65089018879496
 40
7.5
 41
1
 50
0
  1
G 1 1/4"
  0
LINE
  8
_0-2_0
  6
CONTINUOUS
 62
    7
 10
608.82949669629761
 20
107.14127126379495
 11
601.32949669629761
 21
109.15089018879496
  0
LINE
  8
_0-2_0
  6
CONTINUOUS
 62
    7
 10
601.32949669629761
 20
109.15089018879496
 11
608.82949669629761
 21
111.16050911379494
  0
LINE
  8
_0-2_0
  6
CONTINUOUS
 62
    7
 10
601.32949669629761
 20
109.15089018879496
 11
608.82949669629761
 21
109.15089018879496
  0
LINE
  8
_0-2_0
  6
CONTINUOUS
 62
    7
 10
551.82949669629784
 20
111.16050911379494
 11
559.32949669629761
 21
109.15089018879496
  0
LINE
  8
_0-2_0
  6
CONTINUOUS
 62
    7
 10
559.32949669629761
 20
109.15089018879496
 11
551.82949669629784
 21
107.14127126379495
  0
LINE
  8
_0-2_0
  6
CONTINUOUS
 62
    7
 10
559.32949669629761
 20
109.15089018879496
 11
551.82949669629784
 21
109.15089018879496
  0
TEXT
  8
_0-3_寸法線
 62
    7
 10
569.79378241058339
 20
251.80756228465577
 40
7.5
 41
1
 50
0
  1
C63
  0
LINE
  8
_0-2_0
  6
CONTINUOUS
 62
    7
 10
604.32949669629761
 20
250.81718120965576
 11
611.82949669629761
 21
248.80756228465577
  0
LINE
  8
_0-2_0
  6
CONTINUOUS
 62
    7
 10
611.82949669629761
 20
248.80756228465577
 11
604.32949669629761
 21
246.79794335965585
  0
LINE
  8
_0-2_0
  6
CONTINUOUS
 62
    7
 10
611.82949669629761
 20
248.80756228465577
 11
604.32949669629761
 21
248.80756228465577
  0
LINE
  8
_0-2_0
  6
CONTINUOUS
 62
    7
 10
556.32949669629784
 20
246.79794335965585
 11
548.82949669629761
 21
248.80756228465577
  0
LINE
  8
_0-2_0
  6
CONTINUOUS
 62
    7
 10
548.82949669629761
 20
248.80756228465577
 11
556.32949669629784
 21
250.81718120965576
  0
LINE
  8
_0-2_0
  6
CONTINUOUS
 62
    7
 10
548.82949669629761
 20
248.80756228465577
 11
556.32949669629784
 21
248.80756228465577
  0
TEXT
  8
_0-3_寸法線
 62
    7
 10
642.32937753851206
 20
135.39289973830364
 40
7.5
 41
1
 50
90
  1
35-50
  0
LINE
  8
_0-2_0
  6
CONTINUOUS
 62
    7
 10
643.31975861351202
 20
182.67861402401786
 11
645.32937753851218
 21
190.17861402401786
  0
LINE
  8
_0-2_0
  6
CONTINUOUS
 62
    7
 10
645.32937753851218
 20
190.17861402401786
 11
647.3389964635121
 21
182.67861402401786
  0
LINE
  8
_0-2_0
  6
CONTINUOUS
 62
    7
 10
645.32937753851218
 20
190.17861402401786
 11
645.32937753851218
 21
182.67861402401786
  0
LINE
  8
_0-2_0
  6
CONTINUOUS
 62
    7
 10
647.3389964635121
 20
232.67861402401786
 11
645.32937753851218
 21
225.17861402401786
  0
LINE
  8
_0-2_0
  6
CONTINUOUS
 62
    7
 10
645.32937753851218
 20
225.17861402401786
 11
643.31975861351202
 21
232.67861402401786
  0
LINE
  8
_0-2_0
  6
CONTINUOUS
 62
    7
 10
645.32937753851218
 20
225.17861402401786
 11
645.32937753851218
 21
232.67861402401786
  0
TEXT
  8
_0-3_寸法線
 62
    7
 10
380.28699042651743
 20
571.25578201304813
 40
7.5
 41
1
 50
0
  1
φ55
  0
TEXT
  8
_0-3_寸法線
 62
    7
 10
420.25127614080225
 20
445.91697573657655
 40
7.5
 41
1
 50
0
  1
φ25
  0
ENDSEC
  0
EOF
