  0
SECTION
  2
HEADER
  9
$ACADVER
  1
AC1009
  9
$INSBASE
 10
0
 20
0
 30
0
  9
$EXTMIN
 10
0
 20
0
  9
$EXTMAX
 10
1188
 20
840
  9
$LIMMIN
 10
0
 20
0
  9
$LIMMAX
 10
1188
 20
840
  9
$LTSCALE
 40
4
  0
ENDSEC
  0
SECTION
  2
TABLES
  0
TABLE
  2
LTYPE
 70
     9
  0
LTYPE
  2
CONTINUOUS
 70
    64
  3
実線
 72
    65
 73
     0
 40
0.0
  0
LTYPE
  2
DASHED1
 70
    64
  3
--  --  --  --  --  --  --  --  
 72
    65
 73
     2
 40
2.5
 49
1.25
 49
-1.25
  0
LTYPE
  2
DASHED2
 70
    64
  3
----    ----    ----    ----    
 72
    65
 73
     2
 40
5.0
 49
2.5
 49
-2.5
  0
LTYPE
  2
DASHED3
 70
    64
  3
------  ------  ------  ------  
 72
    65
 73
     2
 40
5.0
 49
3.75
 49
-1.25
  0
LTYPE
  2
CENTER1
 70
    64
  3
----- - ----- - ----- - ----- - 
 72
    65
 73
     4
 40
10.0
 49
6.25
 49
-1.25
 49
1.25
 49
-1.25
  0
LTYPE
  2
CENTER2
 70
    64
  3
----------  --  ----------  --  
 72
    65
 73
     4
 40
20.0
 49
12.5
 49
-2.5
 49
2.5
 49
-2.5
  0
LTYPE
  2
PHANTOM1
 70
    64
  3
--- - - --- - - --- - - --- - - 
 72
    65
 73
     6
 40
10.0
 49
3.25
 49
-1.25
 49
1.25
 49
-1.25
 49
1.25
 49
-1.25
  0
LTYPE
  2
PHANTOM2
 70
    64
  3
--------  -  -  --------  -  -  
 72
    65
 73
     6
 40
20.0
 49
10.0
 49
-2.5
 49
1.25
 49
-2.5
 49
1.25
 49
-2.5
  0
LTYPE
  2
DOT
 70
    64
  3
-   -   -   -   -   -   -   -   
 72
    65
 73
     2
 40
2.5
 49
0.625
 49
-1.875
  0
LTYPE
  2
DUMMY
 70
    64
  3
ダミー
 72
    65
 73
     0
 40
0.0
  0
LTYPE
  2
RAND1
 70
    64
  3
ランダム線1
 72
    65
 73
     4
 40
10.0
 49
1.0
 49
-2.0
 49
3.0
 49
-4.0
  0
LTYPE
  2
RAND2
 70
    64
  3
ランダム線2
 72
    65
 73
     4
 40
14.0
 49
2.0
 49
-3.0
 49
4.0
 49
-5.0
  0
LTYPE
  2
RAND3
 70
    64
  3
ランダム線3
 72
    65
 73
     4
 40
18.0
 49
3.0
 49
-4.0
 49
5.0
 49
-6.0
  0
LTYPE
  2
RAND4
 70
    64
  3
ランダム線4
 72
    65
 73
     4
 40
22.0
 49
4.0
 49
-5.0
 49
6.0
 49
-7.0
  0
LTYPE
  2
RAND5
 70
    64
  3
ランダム線5
 72
    65
 73
     4
 40
26.0
 49
5.0
 49
-6.0
 49
7.0
 49
-8.0
  0
LTYPE
  2
LONG1
 70
    64
  3
----------  --  ----------  --  
 72
    65
 73
     4
 40
40.0
 49
32.5
 49
-2.5
 49
2.5
 49
-2.5
  0
LTYPE
  2
LONG2
 70
    64
  3
--------  -  -  --------  -  -  
 72
    65
 73
     6
 40
40.0
 49
30.0
 49
-2.5
 49
1.25
 49
-2.5
 49
1.25
 49
-2.5
  0
LTYPE
  2
LONG3
 70
    64
  3
+++++++++++++++..+++++++++++++++
 72
    65
 73
     2
 40
40.0
 49
37.5
 49
-2.5
  0
LTYPE
  2
LONG4
 70
    64
  3
+++++++++++++++..+++++++++++++++
 72
    65
 73
     2
 40
80.0
 49
75.0
 49
-5.0
  0
LTYPE
  2
LONG5
 70
    64
  3
----------  --  ----------  --  
 72
    65
 73
     4
 40
60.0
 49
37.5
 49
-7.5
 49
7.5
 49
-7.5
  0
LTYPE
  2
dashed
 70
   64
  3
-------   -------------   ------
 72
   65
 73
    2
 40
7.5
 49
6
 49
-1.5
  0
LTYPE
  2
dashed_spaced
 70
   64
  3
----        --------        ----
 72
   65
 73
    2
 40
12
 49
6
 49
-6
  0
LTYPE
  2
long_dashed_dotted
 70
   64
  3
------------- --- --------------
 72
   65
 73
    4
 40
15.25
 49
12
 49
-1.5
 49
0.25
 49
-1.5
  0
LTYPE
  2
long_dashed_double-dotted
 70
   64
  3
----------- --- --- ------------
 72
   65
 73
    6
 40
17
 49
12
 49
-1.5
 49
0.25
 49
-1.5
 49
0.25
 49
-1.5
  0
LTYPE
  2
long_dashed_triplicate-dotted
 70
   64
  3
--------- --- --- --- ----------
 72
   65
 73
    8
 40
18.75
 49
12
 49
-1.5
 49
0.25
 49
-1.5
 49
0.25
 49
-1.5
 49
0.25
 49
-1.5
  0
LTYPE
  2
dotted
 70
   64
  3
   -       -       -       -    
 72
   65
 73
    2
 40
1.75
 49
0.25
 49
-1.5
  0
LTYPE
  2
chain
 70
   64
  3
-------------- -- --------------
 72
   65
 73
    4
 40
18.5
 49
12
 49
-1.5
 49
3.5
 49
-1.5
  0
LTYPE
  2
chain_double_dash
 70
   64
  3
------------ -- -- -------------
 72
   65
 73
    6
 40
23.5
 49
12
 49
-1.5
 49
3.5
 49
-1.5
 49
3.5
 49
-1.5
  0
LTYPE
  2
dashed_dotted
 70
   64
  3
-----------     -     ----------
 72
   65
 73
    4
 40
9.25
 49
6
 49
-1.5
 49
0.25
 49
-1.5
  0
LTYPE
  2
double-dashed_dotted
 70
   64
  3
------   -----------   -   -----
 72
   65
 73
    6
 40
16.75
 49
6
 49
-1.5
 49
6
 49
-1.5
 49
0.25
 49
-1.5
  0
LTYPE
  2
dashed_double-dotted
 70
   64
  3
---------    -    -    ---------
 72
   65
 73
    6
 40
11
 49
6
 49
-1.5
 49
0.25
 49
-1.5
 49
0.25
 49
-1.5
  0
LTYPE
  2
double-dashed_double-dotted
 70
   64
  3
-----   ---------   -   -   ----
 72
   65
 73
    8
 40
18.5
 49
6
 49
-1.5
 49
6
 49
-1.5
 49
0.25
 49
-1.5
 49
0.25
 49
-1.5
  0
LTYPE
  2
dashed_triplicate-dotted
 70
   64
  3
-------    -    -    -    ------
 72
   65
 73
    8
 40
12.75
 49
6
 49
-1.5
 49
0.25
 49
-1.5
 49
0.25
 49
-1.5
 49
0.25
 49
-1.5
  0
LTYPE
  2
double-dashed_triplicate-dotted
 70
   64
  3
-----  ---------  -  -  -  -----
 72
   65
 73
   10
 40
20.25
 49
6
 49
-1.5
 49
6
 49
-1.5
 49
0.25
 49
-1.5
 49
0.25
 49
-1.5
 49
0.25
 49
-1.5
  0
LTYPE
  2
undefined
 70
   64
  3
--------------------------------
 72
   65
 73
    0
 40
0
  0
ENDTAB
  0
TABLE
  2
STYLE
  5
3
100
AcDbSymbolTable
 70
     1
  0
STYLE
  5
10
100
AcDbSymbolTableRecord
100
AcDbTextStyleTableRecord
  2
STANDARD
 70
     0
 40
0.0
 41
1.0
 50
0.0
 71
     0
 42
0.2
  3
txt
  4
bigfont.shx
  0
STYLE
  5
26
100
AcDbSymbolTableRecord
100
AcDbTextStyleTableRecord
  2
TATEGAKI
 70
    68
 40
0.0
 41
1.0
 50
0.0
 71
     0
 42
1.0
  3
txt
  4
bigfont.shx
  0
ENDTAB
  0
TABLE
  2
LAYER
 70
    2
  0
LAYER
  2
_0-0_
 70
   64
 62
    7
  6
CONTINUOUS
  0
LAYER
  2
ADD_LINE
 70
   64
 62
    7
  6
CONTINUOUS
  0
ENDTAB
  0
ENDSEC
  0
SECTION
  2
BLOCKS
  0
BLOCK
  2
-000-_D0
 70
   64
 10
0
 20
0
 30
0
  0
TEXT
  8
_0-0_
 62
    7
 10
1207.7966264352001
 20
2197.2912984288
 40
32
 41
1
 50
0
  1
φ
  0
TEXT
  8
_0-0_
 62
    7
 10
1250.4632931008
 20
2197.2912984288
 40
32
 41
1
 50
0
  1
33.5
  0
LINE
  8
_0-0_
  6
CONTINUOUS
 62
    2
 10
1164.2750528639999
 20
2307.2551814031985
 11
1164.2750528639999
 21
2173.2912984287982
  0
LINE
  8
_0-0_
  6
CONTINUOUS
 62
    2
 10
1031.8857507247999
 20
2307.2551814031985
 11
1031.8857507247999
 21
2173.2912984287982
  0
LINE
  8
_0-0_
  6
CONTINUOUS
 62
    2
 10
1164.2750528639999
 20
2189.2912984287982
 11
1337.4224009088002
 21
2189.2912984287982
  0
LINE
  8
_0-0_
  6
CONTINUOUS
 62
    2
 10
1337.4224009088002
 20
2189.2912984287982
 11
1098.0804017952
 21
2189.2912984287982
  0
LINE
  8
_0-0_
  6
CONTINUOUS
 62
    2
 10
1031.8857507247999
 20
2189.2912984287982
 11
1027.8857507247999
 21
2189.2912984287982
  0
LINE
  8
_0-0_
  6
CONTINUOUS
 62
    2
 10
1027.8857507247999
 20
2189.2912984287982
 11
1098.0804017952
 21
2189.2912984287982
  0
SOLID
  8
_0-0_
  6
CONTINUOUS
 62
    2
 10
1196.2750528639999
 20
2194.8912984287999
 11
1164.2750528639999
 21
2189.2912984287982
 12
1196.2750528639999
 22
2183.6912984288001
 13
1196.2750528639999
 23
2183.6912984288001
  0
SOLID
  8
_0-0_
  6
CONTINUOUS
 62
    2
 10
999.8857507248
 20
2183.6912984288001
 11
1031.8857507247999
 21
2189.2912984287982
 12
999.8857507248
 22
2194.8912984287999
 13
999.8857507248
 23
2194.8912984287999
  0
ENDBLK
  0
BLOCK
  2
-001-_D1
 70
   64
 10
0
 20
0
 30
0
  0
TEXT
  8
_0-0_
 62
    7
 10
3703.5805979856
 20
2710.1808416240001
 40
32
 41
1
 50
45.405180932800057
  1
22°
  0
LINE
  8
_0-0_
  6
CONTINUOUS
 62
    2
 10
3584.8919013407999
 20
2869.0968023887999
 11
3584.8919013407999
 21
2723.3900194416001
  0
LINE
  8
_0-0_
  6
CONTINUOUS
 62
    2
 10
3587.888754088
 20
2869.6793315519999
 11
3642.4714756863982
 21
2734.5823549040001
  0
ARC
  8
_0-0_
  6
CONTINUOUS
 62
    2
 10
3584.8919013407999
 20
2877.0968023887986
 40
137.7067829472
 50
268.33571656280049
 51
270.00000000000063
  0
ARC
  8
_0-0_
  6
CONTINUOUS
 62
    2
 10
3584.8919013407999
 20
2877.0968023887986
 40
137.7067829472
 50
292.00000000000068
 51
315.4051809328007
  0
SOLID
  8
_0-0_
  6
CONTINUOUS
 62
    2
 10
3584.8919013407999
 20
2739.3900194416001
 11
3552.4584613552001
 21
2737.5374615631999
 12
3553.7568511103982
 22
2748.661947352
 13
3553.7568511103982
 23
2748.661947352
  0
SOLID
  8
_0-0_
  6
CONTINUOUS
 62
    2
 10
3636.4777701920002
 20
2749.4172965759999
 11
3661.8723607472002
 21
2769.6774735375984
 12
3667.2435124896001
 22
2759.8494152879985
 13
3667.2435124896001
 23
2759.8494152879985
  0
ENDBLK
  0
BLOCK
  2
-002-_D2
 70
   64
 10
0
 20
0
 30
0
  0
TEXT
  8
_0-0_
 62
    7
 10
4113.6443346688002
 20
1836.4066508880001
 40
32
 41
1
 50
0
  1
φ
  0
TEXT
  8
_0-0_
 62
    7
 10
4156.3110013344003
 20
1836.4066508880001
 40
32
 41
1
 50
0
  1
63
  0
LINE
  8
_0-0_
  6
CONTINUOUS
 62
    2
 10
4035.9436235408002
 20
1678.5802233839984
 11
4035.9436235408002
 21
1844.4066508880001
  0
LINE
  8
_0-0_
  6
CONTINUOUS
 62
    2
 10
4287.5436235407988
 20
1678.5802233839984
 11
4287.5436235407988
 21
1844.4066508880001
  0
LINE
  8
_0-0_
  6
CONTINUOUS
 62
    2
 10
4035.9436235408002
 20
1828.4066508880001
 11
4161.7436235408004
 21
1828.4066508880001
  0
LINE
  8
_0-0_
  6
CONTINUOUS
 62
    2
 10
4287.5436235407988
 20
1828.4066508880001
 11
4161.7436235408004
 21
1828.4066508880001
  0
SOLID
  8
_0-0_
  6
CONTINUOUS
 62
    2
 10
4067.9436235408002
 20
1834.0066508879984
 11
4035.9436235408002
 21
1828.4066508880001
 12
4067.9436235408002
 22
1822.8066508879999
 13
4067.9436235408002
 23
1822.8066508879999
  0
SOLID
  8
_0-0_
  6
CONTINUOUS
 62
    2
 10
4255.5436235407988
 20
1822.8066508879999
 11
4287.5436235407988
 21
1828.4066508880001
 12
4255.5436235407988
 22
1834.0066508879984
 13
4255.5436235407988
 23
1834.0066508879984
  0
ENDBLK
  0
BLOCK
  2
-003-_D3
 70
   64
 10
0
 20
0
 30
0
  0
TEXT
  8
_0-0_
 62
    7
 10
4407.4373748527987
 20
1591.6292564335999
 40
32
 41
1
 50
90
  1
-50
  0
TEXT
  8
_0-0_
 62
    7
 10
4407.4373748527987
 20
1541.9043493695999
 40
32
 41
1
 50
90
  1
35
  0
LINE
  8
_0-0_
  6
CONTINUOUS
 62
    2
 10
4295.5436235407988
 20
1670.580223384
 11
4431.4373748527987
 21
1670.580223384
  0
LINE
  8
_0-0_
  6
CONTINUOUS
 62
    2
 10
4293.3436235407999
 20
1531.4868714224001
 11
4431.4373748527987
 21
1531.4868714224001
  0
LINE
  8
_0-0_
  6
CONTINUOUS
 62
    2
 10
4415.4373748527987
 20
1670.580223384
 11
4415.4373748527987
 21
1674.5802233839984
  0
LINE
  8
_0-0_
  6
CONTINUOUS
 62
    2
 10
4415.4373748527987
 20
1674.5802233839984
 11
4415.4373748527987
 21
1601.0335474031999
  0
LINE
  8
_0-0_
  6
CONTINUOUS
 62
    2
 10
4415.4373748527987
 20
1531.4868714224001
 11
4415.4373748527987
 21
1527.4868714224001
  0
LINE
  8
_0-0_
  6
CONTINUOUS
 62
    2
 10
4415.4373748527987
 20
1527.4868714224001
 11
4415.4373748527987
 21
1601.0335474031999
  0
SOLID
  8
_0-0_
  6
CONTINUOUS
 62
    2
 10
4409.8373748528002
 20
1702.580223384
 11
4415.4373748527987
 21
1670.580223384
 12
4421.0373748527982
 22
1702.580223384
 13
4421.0373748527982
 23
1702.580223384
  0
SOLID
  8
_0-0_
  6
CONTINUOUS
 62
    2
 10
4421.0373748527982
 20
1499.4868714224001
 11
4415.4373748527987
 21
1531.4868714224001
 12
4409.8373748528002
 22
1499.4868714224001
 13
4409.8373748528002
 23
1499.4868714224001
  0
ENDBLK
  0
BLOCK
  2
-004-_D4
 70
   64
 10
0
 20
0
 30
0
  0
TEXT
  8
_0-0_
 62
    7
 10
3864.1633989823999
 20
1180.5391076064
 40
32
 41
1
 50
0
  1
G 1-1/4" 
  0
LINE
  8
_0-0_
  6
CONTINUOUS
 62
    2
 10
4248.5496427567987
 20
1286.3665861888001
 11
4248.5496427567987
 21
1156.5391076064
  0
LINE
  8
_0-0_
  6
CONTINUOUS
 62
    2
 10
4073.3489342063986
 20
1289.0350196576001
 11
4073.3489342063986
 21
1156.5391076064
  0
LINE
  8
_0-0_
  6
CONTINUOUS
 62
    2
 10
4248.5496427567987
 20
1172.5391076063997
 11
4160.9492884815982
 21
1172.5391076063997
  0
LINE
  8
_0-0_
  6
CONTINUOUS
 62
    2
 10
4073.3489342063986
 20
1172.5391076063997
 11
4160.9492884815982
 21
1172.5391076063997
  0
LINE
  8
_0-0_
  6
CONTINUOUS
 62
    2
 10
4160.9492884815982
 20
1172.5391076063997
 11
3864.1633989823999
 21
1172.5391076063997
  0
SOLID
  8
_0-0_
  6
CONTINUOUS
 62
    2
 10
4216.5496427567987
 20
1166.9391076064001
 11
4248.5496427567987
 21
1172.5391076063997
 12
4216.5496427567987
 22
1178.1391076064001
 13
4216.5496427567987
 23
1178.1391076064001
  0
SOLID
  8
_0-0_
  6
CONTINUOUS
 62
    2
 10
4105.3489342064004
 20
1178.1391076064001
 11
4073.3489342063986
 21
1172.5391076063997
 12
4105.3489342064004
 22
1166.9391076064001
 13
4105.3489342064004
 23
1166.9391076064001
  0
ENDBLK
  0
BLOCK
  2
-005-_D5
 70
   64
 10
0
 20
0
 30
0
  0
TEXT
  8
_0-0_
 62
    7
 10
3490.9422883759999
 20
2041.9305486431983
 40
32
 41
1
 50
0
  1
300 MAX
  0
LINE
  8
_0-0_
  6
CONTINUOUS
 62
    2
 10
4161.7436235408004
 20
1633.3802233839999
 11
4161.7436235408004
 21
1785.3093528960001
  0
LINE
  8
_0-0_
  6
CONTINUOUS
 62
    2
 10
4161.7436235408004
 20
1903.7643377823999
 11
4161.7436235408004
 21
2049.9305486431999
  0
LINE
  8
_0-0_
  6
CONTINUOUS
 62
    2
 10
3081.7436235407986
 20
2172.7153442432
 11
3081.7436235407986
 21
2017.9305486431983
  0
LINE
  8
_0-0_
  6
CONTINUOUS
 62
    2
 10
4161.7436235408004
 20
2033.9305486431983
 11
3621.7436235407999
 21
2033.9305486431983
  0
LINE
  8
_0-0_
  6
CONTINUOUS
 62
    2
 10
3081.7436235407986
 20
2033.9305486431983
 11
3621.7436235407999
 21
2033.9305486431983
  0
SOLID
  8
_0-0_
  6
CONTINUOUS
 62
    2
 10
4129.7436235408004
 20
2028.3305486431984
 11
4161.7436235408004
 21
2033.9305486431983
 12
4129.7436235408004
 22
2039.5305486432001
 13
4129.7436235408004
 23
2039.5305486432001
  0
SOLID
  8
_0-0_
  6
CONTINUOUS
 62
    2
 10
3113.7436235407999
 20
2039.5305486432001
 11
3081.7436235407986
 21
2033.9305486431983
 12
3113.7436235407999
 22
2028.3305486431984
 13
3113.7436235407999
 23
2028.3305486431984
  0
ENDBLK
  0
BLOCK
  2
-006-_D6
 70
   64
 10
0
 20
0
 30
0
  0
TEXT
  8
_0-0_
 62
    7
 10
3359.1272262415982
 20
2623.5140765776
 40
32
 41
1
 50
0
  1
126
  0
LINE
  8
_0-0_
  6
CONTINUOUS
 62
    2
 10
3081.7436235407986
 20
2723.8890139727982
 11
3081.7436235407986
 21
2599.5140765776
  0
LINE
  8
_0-0_
  6
CONTINUOUS
 62
    2
 10
3584.8919013407999
 20
2869.0968023887999
 11
3584.8919013407999
 21
2599.5140765776
  0
LINE
  8
_0-0_
  6
CONTINUOUS
 62
    2
 10
3081.7436235407986
 20
2615.5140765775982
 11
3333.3177624415985
 21
2615.5140765775982
  0
LINE
  8
_0-0_
  6
CONTINUOUS
 62
    2
 10
3584.8919013407999
 20
2615.5140765775982
 11
3333.3177624415985
 21
2615.5140765775982
  0
SOLID
  8
_0-0_
  6
CONTINUOUS
 62
    2
 10
3113.7436235407999
 20
2621.1140765775999
 11
3081.7436235407986
 21
2615.5140765775982
 12
3113.7436235407999
 22
2609.9140765776001
 13
3113.7436235407999
 23
2609.9140765776001
  0
SOLID
  8
_0-0_
  6
CONTINUOUS
 62
    2
 10
3552.8919013407999
 20
2609.9140765776001
 11
3584.8919013407999
 21
2615.5140765775982
 12
3552.8919013407999
 22
2621.1140765775999
 13
3552.8919013407999
 23
2621.1140765775999
  0
ENDBLK
  0
BLOCK
  2
-007-_D7
 70
   64
 10
0
 20
0
 30
0
  0
TEXT
  8
_0-0_
 62
    7
 10
3913.0770226464001
 20
2643.1592923295984
 40
32
 41
1
 50
90
  1
100
  0
LINE
  8
_0-0_
  6
CONTINUOUS
 62
    2
 10
3189.3436235407999
 20
2475.2868714224001
 11
3937.0770226464001
 21
2475.2868714224001
  0
LINE
  8
_0-0_
  6
CONTINUOUS
 62
    2
 10
3592.8919013407985
 20
2877.0968023887986
 11
3937.0770226464001
 21
2877.0968023887986
  0
LINE
  8
_0-0_
  6
CONTINUOUS
 62
    2
 10
3921.0770226463983
 20
2475.2868714224001
 11
3921.0770226463983
 21
2676.1918369056002
  0
LINE
  8
_0-0_
  6
CONTINUOUS
 62
    2
 10
3921.0770226463983
 20
2877.0968023887986
 11
3921.0770226463983
 21
2676.1918369056002
  0
SOLID
  8
_0-0_
  6
CONTINUOUS
 62
    2
 10
3915.4770226464002
 20
2507.2868714224001
 11
3921.0770226463983
 21
2475.2868714224001
 12
3926.6770226464
 22
2507.2868714224001
 13
3926.6770226464
 23
2507.2868714224001
  0
SOLID
  8
_0-0_
  6
CONTINUOUS
 62
    2
 10
3926.6770226464
 20
2845.0968023887986
 11
3921.0770226463983
 21
2877.0968023887986
 12
3915.4770226464002
 22
2845.0968023887986
 13
3915.4770226464002
 23
2845.0968023887986
  0
ENDBLK
  0
BLOCK
  2
-008-_D8
 70
   64
 10
0
 20
0
 30
0
  0
TEXT
  8
_0-0_
 62
    7
 10
3283.1265544192001
 20
3232.8546126048
 40
32
 41
1
 50
0
  1
165
  0
LINE
  8
_0-0_
  6
CONTINUOUS
 62
    2
 10
2973.1964294191985
 20
2682.7706143151986
 11
2973.1964294191985
 21
3240.8546126048
  0
LINE
  8
_0-0_
  6
CONTINUOUS
 62
    2
 10
3634.4431066480001
 20
2925.8246559136001
 11
3634.4431066480001
 21
3240.8546126048
  0
LINE
  8
_0-0_
  6
CONTINUOUS
 62
    2
 10
2973.1964294191985
 20
3224.8546126047986
 11
3303.8197680336002
 21
3224.8546126047986
  0
LINE
  8
_0-0_
  6
CONTINUOUS
 62
    2
 10
3634.4431066480001
 20
3224.8546126047986
 11
3303.8197680336002
 21
3224.8546126047986
  0
SOLID
  8
_0-0_
  6
CONTINUOUS
 62
    2
 10
3005.1964294191998
 20
3230.4546126047999
 11
2973.1964294191985
 21
3224.8546126047986
 12
3005.1964294191998
 22
3219.2546126048001
 13
3005.1964294191998
 23
3219.2546126048001
  0
SOLID
  8
_0-0_
  6
CONTINUOUS
 62
    2
 10
3602.4431066480001
 20
3219.2546126048001
 11
3634.4431066480001
 21
3224.8546126047986
 12
3602.4431066480001
 22
3230.4546126047999
 13
3602.4431066480001
 23
3230.4546126047999
  0
ENDBLK
  0
BLOCK
  2
-009-_D9
 70
   64
 10
0
 20
0
 30
0
  0
TEXT
  8
_0-0_
 62
    7
 10
1768.4495842448
 20
2162.5090087551985
 40
32
 41
1
 50
90.000000000000185
  1
 MAX
  0
TEXT
  8
_0-0_
 62
    7
 10
1768.4495842448
 20
2112.7841016928
 40
32
 41
1
 50
90
  1
40
  0
LINE
  8
_0-0_
  6
CONTINUOUS
 62
    2
 10
1188.9093229600001
 20
2315.2868714224001
 11
1792.4495842447984
 21
2315.2868714224001
  0
LINE
  8
_0-0_
  6
CONTINUOUS
 62
    2
 10
1207.2264661024001
 20
2475.2868714224001
 11
1792.4495842447984
 21
2475.2868714224001
  0
LINE
  8
_0-0_
  6
CONTINUOUS
 62
    2
 10
1776.4495842447984
 20
2315.2868714224001
 11
1776.4495842447984
 21
2395.2868714223982
  0
LINE
  8
_0-0_
  6
CONTINUOUS
 62
    2
 10
1776.4495842447984
 20
2395.2868714223982
 11
1776.4495842447984
 21
2112.7841016928
  0
LINE
  8
_0-0_
  6
CONTINUOUS
 62
    2
 10
1776.4495842447984
 20
2475.2868714224001
 11
1776.4495842447984
 21
2395.2868714223982
  0
SOLID
  8
_0-0_
  6
CONTINUOUS
 62
    2
 10
1770.8495842448001
 20
2347.2868714224001
 11
1776.4495842447984
 21
2315.2868714224001
 12
1782.0495842447999
 22
2347.2868714224001
 13
1782.0495842447999
 23
2347.2868714224001
  0
SOLID
  8
_0-0_
  6
CONTINUOUS
 62
    2
 10
1782.0495842447999
 20
2443.2868714223982
 11
1776.4495842447984
 21
2475.2868714224001
 12
1770.8495842448001
 22
2443.2868714223982
 13
1770.8495842448001
 23
2443.2868714223982
  0
ENDBLK
  0
BLOCK
  2
-010-_D10
 70
   64
 10
0
 20
0
 30
0
  0
TEXT
  8
_0-0_
 62
    7
 10
840.06040963040004
 20
2585.2506831711985
 40
32
 41
1
 50
0
  1
φ
  0
TEXT
  8
_0-0_
 62
    7
 10
882.72707629759998
 20
2585.2506831711985
 40
32
 41
1
 50
0
  1
50
  0
LINE
  8
_0-0_
  6
CONTINUOUS
 62
    2
 10
1199.2264661024001
 20
2495.2868714223982
 11
1199.2264661024001
 21
2593.2506831711999
  0
LINE
  8
_0-0_
  6
CONTINUOUS
 62
    2
 10
1000.0264661024
 20
2495.2868714223982
 11
1000.0264661024
 21
2593.2506831711999
  0
LINE
  8
_0-0_
  6
CONTINUOUS
 62
    2
 10
1199.2264661024001
 20
2577.2506831711999
 11
1203.2264661024001
 21
2577.2506831711999
  0
LINE
  8
_0-0_
  6
CONTINUOUS
 62
    2
 10
1203.2264661024001
 20
2577.2506831711999
 11
1099.6264661023999
 21
2577.2506831711999
  0
LINE
  8
_0-0_
  6
CONTINUOUS
 62
    2
 10
1000.0264661024
 20
2577.2506831711999
 11
840.06040963040004
 21
2577.2506831711999
  0
LINE
  8
_0-0_
  6
CONTINUOUS
 62
    2
 10
840.06040963040004
 20
2577.2506831711999
 11
1099.6264661023999
 21
2577.2506831711999
  0
SOLID
  8
_0-0_
  6
CONTINUOUS
 62
    2
 10
1231.2264661024001
 20
2582.8506831712002
 11
1199.2264661024001
 21
2577.2506831711999
 12
1231.2264661024001
 22
2571.6506831711986
 13
1231.2264661024001
 23
2571.6506831711986
  0
SOLID
  8
_0-0_
  6
CONTINUOUS
 62
    2
 10
968.02646610240004
 20
2571.6506831711986
 11
1000.0264661024
 21
2577.2506831711999
 12
968.02646610240004
 22
2582.8506831712002
 13
968.02646610240004
 23
2582.8506831712002
  0
ENDBLK
  0
BLOCK
  2
-011-_D11
 70
   64
 10
0
 20
0
 30
0
  0
TEXT
  8
_0-0_
 62
    7
 10
385.22811313279999
 20
2819.4489165231985
 40
32
 41
1
 50
90.000000000000185
  1
160
  0
LINE
  8
_0-0_
  6
CONTINUOUS
 62
    2
 10
992.02646610240004
 20
2475.2868714224001
 11
377.22811313279982
 21
2475.2868714224001
  0
LINE
  8
_0-0_
  6
CONTINUOUS
 62
    2
 10
1091.6264661023999
 20
3115.512541912
 11
377.22811313279982
 21
3115.512541912
  0
LINE
  8
_0-0_
  6
CONTINUOUS
 62
    2
 10
393.22811313279982
 20
2475.2868714224001
 11
393.22811313279982
 21
2795.3997066672
  0
LINE
  8
_0-0_
  6
CONTINUOUS
 62
    2
 10
393.22811313279982
 20
3115.512541912
 11
393.22811313279982
 21
2795.3997066672
  0
SOLID
  8
_0-0_
  6
CONTINUOUS
 62
    2
 10
387.62811313280002
 20
2507.2868714224001
 11
393.22811313279982
 21
2475.2868714224001
 12
398.82811313280001
 22
2507.2868714224001
 13
398.82811313280001
 23
2507.2868714224001
  0
SOLID
  8
_0-0_
  6
CONTINUOUS
 62
    2
 10
398.82811313280001
 20
3083.512541912
 11
393.22811313279982
 21
3115.512541912
 12
387.62811313280002
 22
3083.512541912
 13
387.62811313280002
 23
3083.512541912
  0
ENDBLK
  0
BLOCK
  2
-012-_D12
 70
   64
 10
0
 20
0
 30
0
  0
TEXT
  8
_0-0_
 62
    7
 10
385.22811313279999
 20
1615.571581296
 40
32
 41
1
 50
90.000000000000185
  1
409
  0
LINE
  8
_0-0_
  6
CONTINUOUS
 62
    2
 10
1091.6264661023999
 20
2475.2868714224001
 11
377.22811313279982
 21
2475.2868714224001
  0
LINE
  8
_0-0_
  6
CONTINUOUS
 62
    2
 10
1121.6592208208001
 20
841.28687142240005
 11
377.22811313279982
 21
841.28687142240005
  0
LINE
  8
_0-0_
  6
CONTINUOUS
 62
    2
 10
393.22811313279982
 20
2475.2868714224001
 11
393.22811313279982
 21
1658.2868714224001
  0
LINE
  8
_0-0_
  6
CONTINUOUS
 62
    2
 10
393.22811313279982
 20
841.28687142240005
 11
393.22811313279982
 21
1658.2868714224001
  0
SOLID
  8
_0-0_
  6
CONTINUOUS
 62
    2
 10
398.82811313280001
 20
2443.2868714223982
 11
393.22811313279982
 21
2475.2868714224001
 12
387.62811313280002
 22
2443.2868714223982
 13
387.62811313280002
 23
2443.2868714223982
  0
SOLID
  8
_0-0_
  6
CONTINUOUS
 62
    2
 10
387.62811313280002
 20
873.28687142240005
 11
393.22811313279982
 21
841.28687142240005
 12
398.82811313280001
 22
873.28687142240005
 13
398.82811313280001
 23
873.28687142240005
  0
ENDBLK
  0
BLOCK
  2
-013-_D13
 70
   64
 10
0
 20
0
 30
0
  0
TEXT
  8
_0-0_
 62
    7
 10
1053.8568632480001
 20
3210.9211455568002
 40
32
 41
1
 50
0
  1
φ
  0
TEXT
  8
_0-0_
 62
    7
 10
1096.5235299152
 20
3210.9211455568002
 40
32
 41
1
 50
0
  1
42
  0
LINE
  8
_0-0_
  6
CONTINUOUS
 62
    2
 10
1183.6264661023999
 20
2970.1800997455985
 11
1183.6264661023999
 21
3218.9211455567984
  0
LINE
  8
_0-0_
  6
CONTINUOUS
 62
    2
 10
1015.6264661023998
 20
2970.1800997455985
 11
1015.6264661023998
 21
3218.9211455567984
  0
LINE
  8
_0-0_
  6
CONTINUOUS
 62
    2
 10
1183.6264661023999
 20
3202.9211455568002
 11
1099.6264661023999
 21
3202.9211455568002
  0
LINE
  8
_0-0_
  6
CONTINUOUS
 62
    2
 10
1015.6264661023998
 20
3202.9211455568002
 11
1099.6264661023999
 21
3202.9211455568002
  0
SOLID
  8
_0-0_
  6
CONTINUOUS
 62
    2
 10
1151.6264661023999
 20
3197.3211455567985
 11
1183.6264661023999
 21
3202.9211455568002
 12
1151.6264661023999
 22
3208.5211455568001
 13
1151.6264661023999
 23
3208.5211455568001
  0
SOLID
  8
_0-0_
  6
CONTINUOUS
 62
    2
 10
1047.6264661023999
 20
3208.5211455568001
 11
1015.6264661023998
 21
3202.9211455568002
 12
1047.6264661023999
 22
3197.3211455567985
 13
1047.6264661023999
 23
3197.3211455567985
  0
ENDBLK
  0
BLOCK
  2
-014-_D14
 70
   64
 10
0
 20
0
 30
0
  0
TEXT
  8
_0-0_
 62
    7
 10
3181.6736139056002
 20
755.72124892320005
 40
32
 41
1
 50
0
  1
G 1/2"
  0
LINE
  8
_0-0_
  6
CONTINUOUS
 62
    2
 10
3048.8823546991985
 20
837.55926341439999
 11
3048.8823546991985
 21
731.72124892320005
  0
LINE
  8
_0-0_
  6
CONTINUOUS
 62
    2
 10
3134.6048923824001
 20
837.55926341439999
 11
3134.6048923824001
 21
731.72124892320005
  0
LINE
  8
_0-0_
  6
CONTINUOUS
 62
    2
 10
3048.8823546991985
 20
747.72124892320005
 11
3091.7436235407999
 21
747.72124892320005
  0
LINE
  8
_0-0_
  6
CONTINUOUS
 62
    2
 10
3134.6048923824001
 20
747.72124892320005
 11
3091.7436235407999
 21
747.72124892320005
  0
LINE
  8
_0-0_
  6
CONTINUOUS
 62
    2
 10
3091.7436235407999
 20
747.72124892320005
 11
3306.6996362112
 21
747.72124892320005
  0
SOLID
  8
_0-0_
  6
CONTINUOUS
 62
    2
 10
3080.8823546991985
 20
753.32124892319985
 11
3048.8823546991985
 21
747.72124892320005
 12
3080.8823546991985
 22
742.12124892320003
 13
3080.8823546991985
 23
742.12124892320003
  0
SOLID
  8
_0-0_
  6
CONTINUOUS
 62
    2
 10
3102.6048923823982
 20
742.12124892320003
 11
3134.6048923824001
 21
747.72124892320005
 12
3102.6048923823982
 22
753.32124892319985
 13
3102.6048923823982
 23
753.32124892319985
  0
ENDBLK
  0
ENDSEC
  0
SECTION
  2
ENTITIES
  0
LINE
  8
ADD_LINE
  6
DOT
 62
    7
 10
22
 20
20
 11
1166
 21
20
  0
LINE
  8
ADD_LINE
  6
DOT
 62
    7
 10
1166
 20
20
 11
1166
 21
820
  0
LINE
  8
ADD_LINE
  6
DOT
 62
    7
 10
1166
 20
820
 11
22
 21
820
  0
LINE
  8
ADD_LINE
  6
DOT
 62
    7
 10
22
 20
820
 11
22
 21
20
  0
LINE
  8
_0-0_
  6
CONTINUOUS
 62
    1
 10
42
 20
32
 11
1146
 21
32
  0
LINE
  8
_0-0_
  6
CONTINUOUS
 62
    1
 10
1146
 20
32
 11
1146
 21
808
  0
LINE
  8
_0-0_
  6
CONTINUOUS
 62
    1
 10
1146
 20
808
 11
42
 21
808
  0
LINE
  8
_0-0_
  6
CONTINUOUS
 62
    1
 10
42
 20
808
 11
42
 21
32
  0
LINE
  8
_0-0_
  6
CONTINUOUS
 62
    1
 10
886
 20
103.99999999279993
 11
886
 21
32
  0
LINE
  8
_0-0_
  6
CONTINUOUS
 62
    1
 10
1146
 20
103.99999999279964
 11
376.21377219623469
 21
103.99999999279964
  0
LINE
  8
_0-0_
  6
CONTINUOUS
 62
    7
 10
422.75153672040835
 20
45.92371528860042
 11
439.56693592920044
 21
45.92371528860042
  0
LINE
  8
_0-0_
  6
CONTINUOUS
 62
    7
 10
439.56693592920044
 20
45.92371528860042
 11
439.56693592920044
 21
62.762792131568062
  0
LINE
  8
_0-0_
  6
CONTINUOUS
 62
    7
 10
422.75153672040835
 20
62.762792131568062
 11
422.75153672040835
 21
45.92371528860042
  0
LINE
  8
_0-0_
  6
CONTINUOUS
 62
    7
 10
439.56693592920044
 20
62.762792131568062
 11
422.75153672040835
 21
62.762792131568062
  0
LINE
  8
_0-0_
  6
CONTINUOUS
 62
    7
 10
441.4722245790341
 20
68.253959184063774
 11
450.07222457903401
 21
83.149596129155725
  0
LINE
  8
_0-0_
  6
CONTINUOUS
 62
    7
 10
441.4722245790341
 20
68.253959184063774
 11
458.67222457903415
 21
68.253959184063774
  0
LINE
  8
_0-0_
  6
CONTINUOUS
 62
    7
 10
450.07222457903401
 20
83.149596129155725
 11
458.67222457903415
 21
68.253959184063774
  0
CIRCLE
  8
_0-0_
  6
CONTINUOUS
 62
    7
 10
463.60330241971371
 20
86.332676041176342
 40
5.9034863340649535
  0
LINE
  8
_0-0_
  6
CONTINUOUS
 62
    2
 10
475.47048600951609
 20
54.709715937318038
 11
482.71954588489791
 21
54.709715937318038
  0
LINE
  8
_0-0_
  6
CONTINUOUS
 62
    2
 10
484.58477651751798
 20
50.709715937318265
 11
487.00957633992414
 21
45.509715937317992
  0
LINE
  8
_0-0_
  6
CONTINUOUS
 62
    2
 10
473.60525537689603
 20
50.709715937318265
 11
471.18045555449009
 21
45.509715937317992
  0
LINE
  8
_0-0_
  6
CONTINUOUS
 62
    2
 10
479.09501594720712
 20
62.482545472290553
 11
482.71954588489791
 21
54.709715937318038
  0
LINE
  8
_0-0_
  6
CONTINUOUS
 62
    2
 10
479.09501594720712
 20
62.482545472290553
 11
475.47048600951609
 21
54.709715937318038
  0
LINE
  8
_0-0_
  6
CONTINUOUS
 62
    2
 10
476.71509668274678
 20
68.530228126051156
 11
465.98045555449005
 21
45.509715937317992
  0
LINE
  8
_0-0_
  6
CONTINUOUS
 62
    2
 10
508.08658783912745
 20
64.530228126051156
 11
508.38584387214087
 21
64.366001147013208
  0
LINE
  8
_0-0_
  6
CONTINUOUS
 62
    2
 10
508.38584387214087
 20
64.366001147013208
 11
508.89622968333288
 21
64.079083016021173
  0
LINE
  8
_0-0_
  6
CONTINUOUS
 62
    2
 10
508.89622968333288
 20
64.079083016021173
 11
509.3911353100317
 21
63.7816977540989
  0
LINE
  8
_0-0_
  6
CONTINUOUS
 62
    2
 10
509.3911353100317
 20
63.7816977540989
 11
509.86076316711444
 21
63.467220594836931
  0
LINE
  8
_0-0_
  6
CONTINUOUS
 62
    2
 10
509.86076316711444
 20
63.467220594836931
 11
510.29531566945911
 21
63.129026771823305
  0
LINE
  8
_0-0_
  6
CONTINUOUS
 62
    2
 10
510.29531566945911
 20
63.129026771823305
 11
510.68499523194339
 21
62.760491518647655
  0
LINE
  8
_0-0_
  6
CONTINUOUS
 62
    2
 10
510.68499523194339
 20
62.760491518647655
 11
510.88658783912751
 21
62.530228126051156
  0
LINE
  8
_0-0_
  6
CONTINUOUS
 62
    2
 10
510.88658783912751
 20
62.530228126051156
 11
511.17438238805937
 21
62.124090006952997
  0
LINE
  8
_0-0_
  6
CONTINUOUS
 62
    2
 10
511.17438238805937
 20
62.124090006952997
 11
511.5562046710819
 21
61.347378208890518
  0
LINE
  8
_0-0_
  6
CONTINUOUS
 62
    2
 10
511.5562046710819
 20
61.347378208890518
 11
511.81395176461967
 21
60.48916758112739
  0
LINE
  8
_0-0_
  6
CONTINUOUS
 62
    2
 10
511.81395176461967
 20
60.48916758112739
 11
511.9716975801291
 21
59.567252627963967
  0
LINE
  8
_0-0_
  6
CONTINUOUS
 62
    2
 10
511.9716975801291
 20
59.567252627963967
 11
512.05351602906649
 21
58.599427853703105
  0
LINE
  8
_0-0_
  6
CONTINUOUS
 62
    2
 10
512.05351602906649
 20
58.599427853703105
 11
512.08348102288801
 21
57.603487762645386
  0
LINE
  8
_0-0_
  6
CONTINUOUS
 62
    2
 10
512.08348102288801
 20
57.603487762645386
 11
512.08658783912745
 21
57.019972031684688
  0
LINE
  8
_0-0_
  6
CONTINUOUS
 62
    2
 10
512.08658783912745
 20
57.019972031684688
 11
512.08348102288801
 21
56.436456300724217
  0
LINE
  8
_0-0_
  6
CONTINUOUS
 62
    2
 10
512.08348102288801
 20
56.436456300724217
 11
512.05351602906649
 21
55.440516209666498
  0
LINE
  8
_0-0_
  6
CONTINUOUS
 62
    2
 10
512.05351602906649
 20
55.440516209666498
 11
511.9716975801291
 21
54.472691435405864
  0
LINE
  8
_0-0_
  6
CONTINUOUS
 62
    2
 10
511.9716975801291
 20
54.472691435405864
 11
511.81395176461967
 21
53.550776482242441
  0
LINE
  8
_0-0_
  6
CONTINUOUS
 62
    2
 10
511.81395176461967
 20
53.550776482242441
 11
511.5562046710819
 21
52.69256585447863
  0
LINE
  8
_0-0_
  6
CONTINUOUS
 62
    2
 10
511.5562046710819
 20
52.69256585447863
 11
511.17438238805937
 21
51.915854056416379
  0
LINE
  8
_0-0_
  6
CONTINUOUS
 62
    2
 10
511.17438238805937
 20
51.915854056416379
 11
510.88658783912751
 21
51.509715937317992
  0
LINE
  8
_0-0_
  6
CONTINUOUS
 62
    2
 10
510.88658783912751
 20
51.509715937317992
 11
510.68499523194339
 21
51.279452544722176
  0
LINE
  8
_0-0_
  6
CONTINUOUS
 62
    2
 10
510.68499523194339
 20
51.279452544722176
 11
510.29531566945911
 21
50.910917291546525
  0
LINE
  8
_0-0_
  6
CONTINUOUS
 62
    2
 10
510.29531566945911
 20
50.910917291546525
 11
509.86076316711444
 21
50.572723468532445
  0
LINE
  8
_0-0_
  6
CONTINUOUS
 62
    2
 10
509.86076316711444
 20
50.572723468532445
 11
509.3911353100317
 21
50.258246309270476
  0
LINE
  8
_0-0_
  6
CONTINUOUS
 62
    2
 10
509.3911353100317
 20
50.258246309270476
 11
508.89622968333288
 21
49.96086104734843
  0
LINE
  8
_0-0_
  6
CONTINUOUS
 62
    2
 10
508.89622968333288
 20
49.96086104734843
 11
508.38584387214087
 21
49.673942916355713
  0
LINE
  8
_0-0_
  6
CONTINUOUS
 62
    2
 10
508.38584387214087
 20
49.673942916355713
 11
508.08658783912745
 21
49.509715937317992
  0
LINE
  8
_0-0_
  6
CONTINUOUS
 62
    2
 10
508.08658783912745
 20
45.509715937317992
 11
508.3485427452249
 21
45.577531157137059
  0
LINE
  8
_0-0_
  6
CONTINUOUS
 62
    2
 10
508.3485427452249
 20
45.577531157137059
 11
508.80045220706472
 21
45.695628839901133
  0
LINE
  8
_0-0_
  6
CONTINUOUS
 62
    2
 10
508.80045220706472
 20
45.695628839901133
 11
509.25309242450612
 21
45.816990105925129
  0
LINE
  8
_0-0_
  6
CONTINUOUS
 62
    2
 10
509.25309242450612
 20
45.816990105925129
 11
509.70692590109411
 21
45.943680514233051
  0
LINE
  8
_0-0_
  6
CONTINUOUS
 62
    2
 10
509.70692590109411
 20
45.943680514233051
 11
510.16241514037392
 21
46.07776562384845
  0
LINE
  8
_0-0_
  6
CONTINUOUS
 62
    2
 10
510.16241514037392
 20
46.07776562384845
 11
510.6200226458908
 21
46.221310993798056
  0
LINE
  8
_0-0_
  6
CONTINUOUS
 62
    2
 10
510.6200226458908
 20
46.221310993798056
 11
510.88658783912751
 21
46.309715937317947
  0
LINE
  8
_0-0_
  6
CONTINUOUS
 62
    2
 10
510.88658783912751
 20
46.309715937317947
 11
511.4166047963007
 21
46.497646870040512
  0
LINE
  8
_0-0_
  6
CONTINUOUS
 62
    2
 10
511.4166047963007
 20
46.497646870040512
 11
512.32421516068985
 21
46.86620904321228
  0
LINE
  8
_0-0_
  6
CONTINUOUS
 62
    2
 10
512.32421516068985
 20
46.86620904321228
 11
513.20121487423228
 21
47.298857986957614
  0
LINE
  8
_0-0_
  6
CONTINUOUS
 62
    2
 10
513.20121487423228
 20
47.298857986957614
 11
514.02115348269638
 21
47.804550464748786
  0
LINE
  8
_0-0_
  6
CONTINUOUS
 62
    2
 10
514.02115348269638
 20
47.804550464748786
 11
514.75758053185109
 21
48.392243240058519
  0
LINE
  8
_0-0_
  6
CONTINUOUS
 62
    2
 10
514.75758053185109
 20
48.392243240058519
 11
515.38404556746593
 21
49.070893076358402
  0
LINE
  8
_0-0_
  6
CONTINUOUS
 62
    2
 10
515.38404556746593
 20
49.070893076358402
 11
515.68658783912736
 21
49.509715937317992
  0
LINE
  8
_0-0_
  6
CONTINUOUS
 62
    2
 10
515.68658783912736
 20
49.509715937317992
 11
515.78686984211492
 21
49.682454429409631
  0
LINE
  8
_0-0_
  6
CONTINUOUS
 62
    2
 10
515.78686984211492
 20
49.682454429409631
 11
515.94450702801487
 21
49.990582862757151
  0
LINE
  8
_0-0_
  6
CONTINUOUS
 62
    2
 10
515.94450702801487
 20
49.990582862757151
 11
516.08501951605467
 21
50.309827894577552
  0
LINE
  8
_0-0_
  6
CONTINUOUS
 62
    2
 10
516.08501951605467
 20
50.309827894577552
 11
516.210960011476
 21
50.637950292919072
  0
LINE
  8
_0-0_
  6
CONTINUOUS
 62
    2
 10
516.210960011476
 20
50.637950292919072
 11
516.32488121951997
 21
50.972710825830632
  0
LINE
  8
_0-0_
  6
CONTINUOUS
 62
    2
 10
516.32488121951997
 20
50.972710825830632
 11
516.4293358454288
 21
51.311870261360241
  0
LINE
  8
_0-0_
  6
CONTINUOUS
 62
    2
 10
516.4293358454288
 20
51.311870261360241
 11
516.48658783912742
 21
51.509715937317992
  0
LINE
  8
_0-0_
  6
CONTINUOUS
 62
    2
 10
516.48658783912742
 20
51.509715937317992
 11
516.62584849888742
 21
52.022625261978305
  0
LINE
  8
_0-0_
  6
CONTINUOUS
 62
    2
 10
516.62584849888742
 20
52.022625261978305
 11
516.83646135169556
 21
52.910964883552083
  0
LINE
  8
_0-0_
  6
CONTINUOUS
 62
    2
 10
516.83646135169556
 20
52.910964883552083
 11
517.00851528442547
 21
53.803581416619977
  0
LINE
  8
_0-0_
  6
CONTINUOUS
 62
    2
 10
517.00851528442547
 20
53.803581416619977
 11
517.14058284067653
 21
54.699541037711583
  0
LINE
  8
_0-0_
  6
CONTINUOUS
 62
    2
 10
517.14058284067653
 20
54.699541037711583
 11
517.23123656405016
 21
55.597909923356497
  0
LINE
  8
_0-0_
  6
CONTINUOUS
 62
    2
 10
517.23123656405016
 20
55.597909923356497
 11
517.27904899814723
 21
56.49775425008454
  0
LINE
  8
_0-0_
  6
CONTINUOUS
 62
    2
 10
517.27904899814723
 20
56.49775425008454
 11
517.28658783912738
 21
57.019972031684688
  0
LINE
  8
_0-0_
  6
CONTINUOUS
 62
    2
 10
517.28658783912738
 20
57.019972031684688
 11
517.27904899814723
 21
57.542189813285063
  0
LINE
  8
_0-0_
  6
CONTINUOUS
 62
    2
 10
517.27904899814723
 20
57.542189813285063
 11
517.23123656405016
 21
58.442034140012879
  0
LINE
  8
_0-0_
  6
CONTINUOUS
 62
    2
 10
517.23123656405016
 20
58.442034140012879
 11
517.14058284067653
 21
59.340403025657338
  0
LINE
  8
_0-0_
  6
CONTINUOUS
 62
    2
 10
517.14058284067653
 20
59.340403025657338
 11
517.00851528442547
 21
60.236362646748944
  0
LINE
  8
_0-0_
  6
CONTINUOUS
 62
    2
 10
517.00851528442547
 20
60.236362646748944
 11
516.83646135169556
 21
61.128979179817293
  0
LINE
  8
_0-0_
  6
CONTINUOUS
 62
    2
 10
516.83646135169556
 20
61.128979179817293
 11
516.62584849888742
 21
62.017318801390843
  0
LINE
  8
_0-0_
  6
CONTINUOUS
 62
    2
 10
516.62584849888742
 20
62.017318801390843
 11
516.48658783912742
 21
62.530228126051156
  0
LINE
  8
_0-0_
  6
CONTINUOUS
 62
    2
 10
516.48658783912742
 20
62.530228126051156
 11
516.4293358454288
 21
62.728073802009135
  0
LINE
  8
_0-0_
  6
CONTINUOUS
 62
    2
 10
516.4293358454288
 20
62.728073802009135
 11
516.32488121951997
 21
63.067233237538289
  0
LINE
  8
_0-0_
  6
CONTINUOUS
 62
    2
 10
516.32488121951997
 20
63.067233237538289
 11
516.210960011476
 21
63.401993770449849
  0
LINE
  8
_0-0_
  6
CONTINUOUS
 62
    2
 10
516.210960011476
 20
63.401993770449849
 11
516.08501951605467
 21
63.730116168792051
  0
LINE
  8
_0-0_
  6
CONTINUOUS
 62
    2
 10
516.08501951605467
 20
63.730116168792051
 11
515.94450702801487
 21
64.049361200612225
  0
LINE
  8
_0-0_
  6
CONTINUOUS
 62
    2
 10
515.94450702801487
 20
64.049361200612225
 11
515.78686984211492
 21
64.35748963395929
  0
LINE
  8
_0-0_
  6
CONTINUOUS
 62
    2
 10
515.78686984211492
 20
64.35748963395929
 11
515.68658783912736
 21
64.530228126051156
  0
LINE
  8
_0-0_
  6
CONTINUOUS
 62
    2
 10
515.68658783912736
 20
64.530228126051156
 11
515.38404556746593
 21
64.969050987011201
  0
LINE
  8
_0-0_
  6
CONTINUOUS
 62
    2
 10
515.38404556746593
 20
64.969050987011201
 11
514.75758053185109
 21
65.647700823311084
  0
LINE
  8
_0-0_
  6
CONTINUOUS
 62
    2
 10
514.75758053185109
 20
65.647700823311084
 11
514.02115348269638
 21
66.235393598620362
  0
LINE
  8
_0-0_
  6
CONTINUOUS
 62
    2
 10
514.02115348269638
 20
66.235393598620362
 11
513.20121487423228
 21
66.741086076411307
  0
LINE
  8
_0-0_
  6
CONTINUOUS
 62
    2
 10
513.20121487423228
 20
66.741086076411307
 11
512.32421516068985
 21
67.173735020156869
  0
LINE
  8
_0-0_
  6
CONTINUOUS
 62
    2
 10
512.32421516068985
 20
67.173735020156869
 11
511.4166047963007
 21
67.542297193328636
  0
LINE
  8
_0-0_
  6
CONTINUOUS
 62
    2
 10
511.4166047963007
 20
67.542297193328636
 11
510.88658783912751
 21
67.730228126051202
  0
LINE
  8
_0-0_
  6
CONTINUOUS
 62
    2
 10
510.88658783912751
 20
67.730228126051202
 11
510.6200226458908
 21
67.818633069570865
  0
LINE
  8
_0-0_
  6
CONTINUOUS
 62
    2
 10
510.6200226458908
 20
67.818633069570865
 11
510.16241514037392
 21
67.962178439520926
  0
LINE
  8
_0-0_
  6
CONTINUOUS
 62
    2
 10
510.16241514037392
 20
67.962178439520926
 11
509.70692590109411
 21
68.096263549136779
  0
LINE
  8
_0-0_
  6
CONTINUOUS
 62
    2
 10
509.70692590109411
 20
68.096263549136779
 11
509.25309242450612
 21
68.22295395744402
  0
LINE
  8
_0-0_
  6
CONTINUOUS
 62
    2
 10
509.25309242450612
 20
68.22295395744402
 11
508.80045220706472
 21
68.344315223467788
  0
LINE
  8
_0-0_
  6
CONTINUOUS
 62
    2
 10
508.80045220706472
 20
68.344315223467788
 11
508.3485427452249
 21
68.462412906231862
  0
LINE
  8
_0-0_
  6
CONTINUOUS
 62
    2
 10
508.3485427452249
 20
68.462412906231862
 11
508.08658783912745
 21
68.530228126051156
  0
LINE
  8
_0-0_
  6
CONTINUOUS
 62
    2
 10
522.48658783912754
 20
68.530228126051156
 11
530.62122896738413
 21
51.085433930642807
  0
LINE
  8
_0-0_
  6
CONTINUOUS
 62
    2
 10
538.75587009564094
 20
68.530228126051156
 11
530.62122896738413
 21
51.085433930642807
  0
LINE
  8
_0-0_
  6
CONTINUOUS
 62
    2
 10
517.28658783912738
 20
68.530228126051156
 11
528.02122896738422
 21
45.509715937317992
  0
LINE
  8
_0-0_
  6
CONTINUOUS
 62
    2
 10
533.22122896738426
 20
45.509715937317992
 11
543.95587009564088
 21
68.530228126051156
  0
LINE
  8
_0-0_
  6
CONTINUOUS
 62
    2
 10
547.95587009564099
 20
68.530228126051156
 11
537.22122896738415
 21
45.509715937317992
  0
LINE
  8
_0-0_
  6
CONTINUOUS
 62
    2
 10
553.29760593742867
 20
68.530228126051156
 11
564.03224706568528
 21
45.509715937317992
  0
LINE
  8
_0-0_
  6
CONTINUOUS
 62
    2
 10
473.60525537689603
 20
50.709715937318265
 11
484.58477651751798
 21
50.709715937318265
  0
LINE
  8
_0-0_
  6
CONTINUOUS
 62
    2
 10
544.84602878979024
 20
50.709715937318265
 11
556.40744724327953
 21
50.709715937318265
  0
LINE
  8
_0-0_
  6
CONTINUOUS
 62
    2
 10
546.71125942241031
 20
54.709715937318038
 11
554.54221661065935
 21
54.709715937318038
  0
LINE
  8
_0-0_
  6
CONTINUOUS
 62
    2
 10
571.53844091121732
 20
64.530228126051156
 11
583.42377603557463
 21
45.509715937317992
  0
LINE
  8
_0-0_
  6
CONTINUOUS
 62
    2
 10
585.85347842171666
 20
49.924530938601379
 11
585.85347842171666
 21
68.530228126051156
  0
LINE
  8
_0-0_
  6
CONTINUOUS
 62
    2
 10
590.25347842171675
 20
45.509715937317992
 11
590.25347842171675
 21
68.530228126051156
  0
LINE
  8
_0-0_
  6
CONTINUOUS
 62
    2
 10
574.22734847837353
 20
68.530228126051156
 11
585.85347842171666
 21
49.924530938601379
  0
LINE
  8
_0-0_
  6
CONTINUOUS
 62
    2
 10
566.33844091121739
 20
68.530228126051156
 11
566.33844091121739
 21
45.509715937317992
  0
LINE
  8
_0-0_
  6
CONTINUOUS
 62
    2
 10
508.08658783912745
 20
64.530228126051156
 11
500.08658783912745
 21
64.530228126051156
  0
LINE
  8
_0-0_
  6
CONTINUOUS
 62
    2
 10
500.08658783912745
 20
49.509715937317992
 11
508.08658783912745
 21
49.509715937317992
  0
LINE
  8
_0-0_
  6
CONTINUOUS
 62
    2
 10
554.54221661065935
 20
54.709715937318038
 11
550.62673801653477
 21
63.106486879525505
  0
LINE
  8
_0-0_
  6
CONTINUOUS
 62
    2
 10
546.71125942241031
 20
54.709715937318038
 11
550.62673801653477
 21
63.106486879525505
  0
LINE
  8
_0-0_
  6
CONTINUOUS
 62
    2
 10
542.42122896738431
 20
45.509715937317992
 11
544.84602878979024
 21
50.709715937318265
  0
LINE
  8
_0-0_
  6
CONTINUOUS
 62
    2
 10
558.83224706568546
 20
45.509715937317992
 11
556.40744724327953
 21
50.709715937318265
  0
LINE
  8
_0-0_
  6
CONTINUOUS
 62
    2
 10
571.53844091121732
 20
64.530228126051156
 11
571.53844091121732
 21
45.509715937317992
  0
LINE
  8
_0-0_
  6
CONTINUOUS
 62
    2
 10
465.98045555449005
 20
45.509715937317992
 11
471.18045555449009
 21
45.509715937317992
  0
LINE
  8
_0-0_
  6
CONTINUOUS
 62
    2
 10
487.00957633992414
 20
45.509715937317992
 11
492.20957633992396
 21
45.509715937317992
  0
LINE
  8
_0-0_
  6
CONTINUOUS
 62
    2
 10
481.47493521166746
 20
68.530228126051156
 11
492.20957633992396
 21
45.509715937317992
  0
LINE
  8
_0-0_
  6
CONTINUOUS
 62
    2
 10
481.47493521166746
 20
68.530228126051156
 11
476.71509668274678
 21
68.530228126051156
  0
LINE
  8
_0-0_
  6
CONTINUOUS
 62
    2
 10
494.88658783912763
 20
68.530228126051156
 11
494.88658783912763
 21
45.509715937317992
  0
LINE
  8
_0-0_
  6
CONTINUOUS
 62
    2
 10
500.08658783912745
 20
64.530228126051156
 11
500.08658783912745
 21
49.509715937317992
  0
LINE
  8
_0-0_
  6
CONTINUOUS
 62
    2
 10
494.88658783912763
 20
45.509715937317992
 11
508.08658783912745
 21
45.509715937317992
  0
LINE
  8
_0-0_
  6
CONTINUOUS
 62
    2
 10
508.08658783912745
 20
68.530228126051156
 11
494.88658783912763
 21
68.530228126051156
  0
LINE
  8
_0-0_
  6
CONTINUOUS
 62
    2
 10
522.48658783912754
 20
68.530228126051156
 11
517.28658783912738
 21
68.530228126051156
  0
LINE
  8
_0-0_
  6
CONTINUOUS
 62
    2
 10
528.02122896738422
 20
45.509715937317992
 11
533.22122896738426
 21
45.509715937317992
  0
LINE
  8
_0-0_
  6
CONTINUOUS
 62
    2
 10
543.95587009564088
 20
68.530228126051156
 11
538.75587009564094
 21
68.530228126051156
  0
LINE
  8
_0-0_
  6
CONTINUOUS
 62
    2
 10
537.22122896738415
 20
45.509715937317992
 11
542.42122896738431
 21
45.509715937317992
  0
LINE
  8
_0-0_
  6
CONTINUOUS
 62
    2
 10
558.83224706568546
 20
45.509715937317992
 11
564.03224706568528
 21
45.509715937317992
  0
LINE
  8
_0-0_
  6
CONTINUOUS
 62
    2
 10
566.33844091121739
 20
45.509715937317992
 11
571.53844091121732
 21
45.509715937317992
  0
LINE
  8
_0-0_
  6
CONTINUOUS
 62
    2
 10
583.42377603557463
 20
45.509715937317992
 11
590.25347842171675
 21
45.509715937317992
  0
LINE
  8
_0-0_
  6
CONTINUOUS
 62
    2
 10
590.25347842171675
 20
68.530228126051156
 11
585.85347842171666
 21
68.530228126051156
  0
LINE
  8
_0-0_
  6
CONTINUOUS
 62
    2
 10
574.22734847837353
 20
68.530228126051156
 11
566.33844091121739
 21
68.530228126051156
  0
LINE
  8
_0-0_
  6
CONTINUOUS
 62
    2
 10
553.29760593742867
 20
68.530228126051156
 11
547.95587009564099
 21
68.530228126051156
  0
LINE
  8
_0-0_
  6
CONTINUOUS
 62
    2
 10
466.26980514007471
 20
46.130228126051065
 11
471.46980514007475
 21
46.130228126051065
  0
LINE
  8
_0-0_
  6
CONTINUOUS
 62
    2
 10
486.72022675433948
 20
46.130228126051065
 11
491.9202267543393
 21
46.130228126051065
  0
LINE
  8
_0-0_
  6
CONTINUOUS
 62
    2
 10
494.88658783912763
 20
46.130228126051065
 11
510.32966006631318
 21
46.130228126051065
  0
LINE
  8
_0-0_
  6
CONTINUOUS
 62
    2
 10
527.73187938179956
 20
46.130228126051065
 11
533.51057855296892
 21
46.130228126051065
  0
LINE
  8
_0-0_
  6
CONTINUOUS
 62
    2
 10
537.51057855296915
 20
46.130228126051065
 11
542.71057855296897
 21
46.130228126051065
  0
LINE
  8
_0-0_
  6
CONTINUOUS
 62
    2
 10
558.54289748010081
 20
46.130228126051065
 11
563.74289748010062
 21
46.130228126051065
  0
LINE
  8
_0-0_
  6
CONTINUOUS
 62
    2
 10
566.33844091121739
 20
46.130228126051065
 11
571.53844091121732
 21
46.130228126051065
  0
LINE
  8
_0-0_
  6
CONTINUOUS
 62
    2
 10
583.03603698634913
 20
46.130228126051065
 11
590.25347842171675
 21
46.130228126051065
  0
LINE
  8
_0-0_
  6
CONTINUOUS
 62
    2
 10
466.64285126659877
 20
46.930228126051247
 11
471.84285126659881
 21
46.930228126051247
  0
LINE
  8
_0-0_
  6
CONTINUOUS
 62
    2
 10
486.34718062781542
 20
46.930228126051247
 11
491.54718062781524
 21
46.930228126051247
  0
LINE
  8
_0-0_
  6
CONTINUOUS
 62
    2
 10
494.88658783912763
 20
46.930228126051247
 11
512.45398484607233
 21
46.930228126051247
  0
LINE
  8
_0-0_
  6
CONTINUOUS
 62
    2
 10
527.3588332552755
 20
46.930228126051247
 11
533.88362467949298
 21
46.930228126051247
  0
LINE
  8
_0-0_
  6
CONTINUOUS
 62
    2
 10
537.88362467949287
 20
46.930228126051247
 11
543.08362467949303
 21
46.930228126051247
  0
LINE
  8
_0-0_
  6
CONTINUOUS
 62
    2
 10
558.16985135357675
 20
46.930228126051247
 11
563.36985135357656
 21
46.930228126051247
  0
LINE
  8
_0-0_
  6
CONTINUOUS
 62
    2
 10
566.33844091121739
 20
46.930228126051247
 11
571.53844091121732
 21
46.930228126051247
  0
LINE
  8
_0-0_
  6
CONTINUOUS
 62
    2
 10
582.53614150482179
 20
46.930228126051247
 11
590.25347842171675
 21
46.930228126051247
  0
LINE
  8
_0-0_
  6
CONTINUOUS
 62
    2
 10
467.01589739312283
 20
47.730228126051202
 11
472.21589739312287
 21
47.730228126051202
  0
LINE
  8
_0-0_
  6
CONTINUOUS
 62
    2
 10
485.97413450129136
 20
47.730228126051202
 11
491.17413450129118
 21
47.730228126051202
  0
LINE
  8
_0-0_
  6
CONTINUOUS
 62
    2
 10
494.88658783912763
 20
47.730228126051202
 11
513.90064594571334
 21
47.730228126051202
  0
LINE
  8
_0-0_
  6
CONTINUOUS
 62
    2
 10
526.98578712875144
 20
47.730228126051202
 11
534.25667080601704
 21
47.730228126051202
  0
LINE
  8
_0-0_
  6
CONTINUOUS
 62
    2
 10
538.25667080601693
 20
47.730228126051202
 11
543.45667080601709
 21
47.730228126051202
  0
LINE
  8
_0-0_
  6
CONTINUOUS
 62
    2
 10
557.79680522705269
 20
47.730228126051202
 11
562.9968052270525
 21
47.730228126051202
  0
LINE
  8
_0-0_
  6
CONTINUOUS
 62
    2
 10
566.33844091121739
 20
47.730228126051202
 11
571.53844091121732
 21
47.730228126051202
  0
LINE
  8
_0-0_
  6
CONTINUOUS
 62
    2
 10
582.03624602329421
 20
47.730228126051202
 11
590.25347842171675
 21
47.730228126051202
  0
LINE
  8
_0-0_
  6
CONTINUOUS
 62
    2
 10
467.38894351964666
 20
48.530228126051384
 11
472.58894351964693
 21
48.530228126051384
  0
LINE
  8
_0-0_
  6
CONTINUOUS
 62
    2
 10
485.6010883747673
 20
48.530228126051384
 11
490.80108837476735
 21
48.530228126051384
  0
LINE
  8
_0-0_
  6
CONTINUOUS
 62
    2
 10
494.88658783912763
 20
48.530228126051384
 11
514.8849550656596
 21
48.530228126051384
  0
LINE
  8
_0-0_
  6
CONTINUOUS
 62
    2
 10
526.61274100222738
 20
48.530228126051384
 11
534.62971693254087
 21
48.530228126051384
  0
LINE
  8
_0-0_
  6
CONTINUOUS
 62
    2
 10
538.62971693254087
 20
48.530228126051384
 11
543.8297169325408
 21
48.530228126051384
  0
LINE
  8
_0-0_
  6
CONTINUOUS
 62
    2
 10
557.42375910052863
 20
48.530228126051384
 11
562.62375910052856
 21
48.530228126051384
  0
LINE
  8
_0-0_
  6
CONTINUOUS
 62
    2
 10
566.33844091121739
 20
48.530228126051384
 11
571.53844091121732
 21
48.530228126051384
  0
LINE
  8
_0-0_
  6
CONTINUOUS
 62
    2
 10
581.53635054176686
 20
48.530228126051384
 11
590.25347842171675
 21
48.530228126051384
  0
LINE
  8
_0-0_
  6
CONTINUOUS
 62
    2
 10
467.76198964617072
 20
49.330228126051111
 11
472.96198964617076
 21
49.330228126051111
  0
LINE
  8
_0-0_
  6
CONTINUOUS
 62
    2
 10
485.22804224824324
 20
49.330228126051111
 11
490.42804224824329
 21
49.330228126051111
  0
LINE
  8
_0-0_
  6
CONTINUOUS
 62
    2
 10
494.88658783912763
 20
49.330228126051111
 11
515.56284166501621
 21
49.330228126051111
  0
LINE
  8
_0-0_
  6
CONTINUOUS
 62
    2
 10
526.23969487570355
 20
49.330228126051111
 11
535.00276305906493
 21
49.330228126051111
  0
LINE
  8
_0-0_
  6
CONTINUOUS
 62
    2
 10
539.00276305906493
 20
49.330228126051111
 11
544.20276305906486
 21
49.330228126051111
  0
LINE
  8
_0-0_
  6
CONTINUOUS
 62
    2
 10
557.05071297400457
 20
49.330228126051111
 11
562.25071297400484
 21
49.330228126051111
  0
LINE
  8
_0-0_
  6
CONTINUOUS
 62
    2
 10
566.33844091121739
 20
49.330228126051111
 11
571.53844091121732
 21
49.330228126051111
  0
LINE
  8
_0-0_
  6
CONTINUOUS
 62
    2
 10
581.03645506023929
 20
49.330228126051111
 11
590.25347842171675
 21
49.330228126051111
  0
LINE
  8
_0-0_
  6
CONTINUOUS
 62
    2
 10
468.13503577269478
 20
50.130228126050838
 11
473.33503577269482
 21
50.130228126050838
  0
LINE
  8
_0-0_
  6
CONTINUOUS
 62
    2
 10
484.85499612171918
 20
50.130228126050838
 11
490.05499612171946
 21
50.130228126050838
  0
LINE
  8
_0-0_
  6
CONTINUOUS
 62
    2
 10
494.88658783912763
 20
50.130228126050838
 11
500.08658783912745
 21
50.130228126050838
  0
LINE
  8
_0-0_
  6
CONTINUOUS
 62
    2
 10
509.17808870918304
 20
50.130228126050838
 11
516.00597048533666
 21
50.130228126050838
  0
LINE
  8
_0-0_
  6
CONTINUOUS
 62
    2
 10
525.86664874917949
 20
50.130228126050838
 11
535.37580918558899
 21
50.130228126050838
  0
LINE
  8
_0-0_
  6
CONTINUOUS
 62
    2
 10
539.37580918558899
 20
50.130228126050838
 11
544.57580918558892
 21
50.130228126050838
  0
LINE
  8
_0-0_
  6
CONTINUOUS
 62
    2
 10
556.67766684748062
 20
50.130228126050838
 11
561.87766684748078
 21
50.130228126050838
  0
LINE
  8
_0-0_
  6
CONTINUOUS
 62
    2
 10
566.33844091121739
 20
50.130228126050838
 11
571.53844091121732
 21
50.130228126050838
  0
LINE
  8
_0-0_
  6
CONTINUOUS
 62
    2
 10
580.53655957871172
 20
50.130228126050838
 11
585.724944553505
 21
50.130228126050838
  0
LINE
  8
_0-0_
  6
CONTINUOUS
 62
    2
 10
585.85347842171666
 20
50.130228126050838
 11
590.25347842171675
 21
50.130228126050838
  0
LINE
  8
_0-0_
  6
CONTINUOUS
 62
    2
 10
468.50808189921884
 20
50.930228126051247
 11
489.6819499951954
 21
50.930228126051247
  0
LINE
  8
_0-0_
  6
CONTINUOUS
 62
    2
 10
494.88658783912763
 20
50.930228126051247
 11
500.08658783912745
 21
50.930228126051247
  0
LINE
  8
_0-0_
  6
CONTINUOUS
 62
    2
 10
510.31573444209027
 20
50.930228126051247
 11
516.31042407776033
 21
50.930228126051247
  0
LINE
  8
_0-0_
  6
CONTINUOUS
 62
    2
 10
525.49360262265543
 20
50.930228126051247
 11
535.74885531211305
 21
50.930228126051247
  0
LINE
  8
_0-0_
  6
CONTINUOUS
 62
    2
 10
539.74885531211305
 20
50.930228126051247
 11
561.50462072095672
 21
50.930228126051247
  0
LINE
  8
_0-0_
  6
CONTINUOUS
 62
    2
 10
566.33844091121739
 20
50.930228126051247
 11
571.53844091121732
 21
50.930228126051247
  0
LINE
  8
_0-0_
  6
CONTINUOUS
 62
    2
 10
580.03666409718426
 20
50.930228126051247
 11
585.22504907197765
 21
50.930228126051247
  0
LINE
  8
_0-0_
  6
CONTINUOUS
 62
    2
 10
585.85347842171666
 20
50.930228126051247
 11
590.25347842171675
 21
50.930228126051247
  0
LINE
  8
_0-0_
  6
CONTINUOUS
 62
    2
 10
468.8811280257429
 20
51.730228126051429
 11
489.30890386867134
 21
51.730228126051429
  0
LINE
  8
_0-0_
  6
CONTINUOUS
 62
    2
 10
494.88658783912763
 20
51.730228126051429
 11
500.08658783912745
 21
51.730228126051429
  0
LINE
  8
_0-0_
  6
CONTINUOUS
 62
    2
 10
511.04284553301579
 20
51.730228126051429
 11
516.54645938252054
 21
51.730228126051429
  0
LINE
  8
_0-0_
  6
CONTINUOUS
 62
    2
 10
525.12055649613148
 20
51.730228126051429
 11
530.3205564961313
 21
51.730228126051429
  0
LINE
  8
_0-0_
  6
CONTINUOUS
 62
    2
 10
530.92190143863695
 20
51.730228126051429
 11
536.12190143863711
 21
51.730228126051429
  0
LINE
  8
_0-0_
  6
CONTINUOUS
 62
    2
 10
540.12190143863711
 20
51.730228126051429
 11
561.13157459443266
 21
51.730228126051429
  0
LINE
  8
_0-0_
  6
CONTINUOUS
 62
    2
 10
566.33844091121739
 20
51.730228126051429
 11
571.53844091121732
 21
51.730228126051429
  0
LINE
  8
_0-0_
  6
CONTINUOUS
 62
    2
 10
579.53676861565702
 20
51.730228126051429
 11
584.72515359044996
 21
51.730228126051429
  0
LINE
  8
_0-0_
  6
CONTINUOUS
 62
    2
 10
585.85347842171666
 20
51.730228126051429
 11
590.25347842171675
 21
51.730228126051429
  0
LINE
  8
_0-0_
  6
CONTINUOUS
 62
    2
 10
469.25417415226696
 20
52.530228126051384
 11
488.93585774214728
 21
52.530228126051384
  0
LINE
  8
_0-0_
  6
CONTINUOUS
 62
    2
 10
494.88658783912763
 20
52.530228126051384
 11
500.08658783912745
 21
52.530228126051384
  0
LINE
  8
_0-0_
  6
CONTINUOUS
 62
    2
 10
511.47640137435906
 20
52.530228126051384
 11
516.74619401168422
 21
52.530228126051384
  0
LINE
  8
_0-0_
  6
CONTINUOUS
 62
    2
 10
524.74751036960743
 20
52.530228126051384
 11
529.94751036960724
 21
52.530228126051384
  0
LINE
  8
_0-0_
  6
CONTINUOUS
 62
    2
 10
531.2949475651609
 20
52.530228126051384
 11
536.49494756516083
 21
52.530228126051384
  0
LINE
  8
_0-0_
  6
CONTINUOUS
 62
    2
 10
540.49494756516094
 20
52.530228126051384
 11
560.7585284679086
 21
52.530228126051384
  0
LINE
  8
_0-0_
  6
CONTINUOUS
 62
    2
 10
566.33844091121739
 20
52.530228126051384
 11
571.53844091121732
 21
52.530228126051384
  0
LINE
  8
_0-0_
  6
CONTINUOUS
 62
    2
 10
579.03687313412945
 20
52.530228126051384
 11
584.22525810892273
 21
52.530228126051384
  0
LINE
  8
_0-0_
  6
CONTINUOUS
 62
    2
 10
585.85347842171666
 20
52.530228126051384
 11
590.25347842171675
 21
52.530228126051384
  0
LINE
  8
_0-0_
  6
CONTINUOUS
 62
    2
 10
469.62722027879079
 20
53.330228126051111
 11
488.56281161562322
 21
53.330228126051111
  0
LINE
  8
_0-0_
  6
CONTINUOUS
 62
    2
 10
494.88658783912763
 20
53.330228126051111
 11
500.08658783912745
 21
53.330228126051111
  0
LINE
  8
_0-0_
  6
CONTINUOUS
 62
    2
 10
511.74771429801899
 20
53.330228126051111
 11
516.91727532617244
 21
53.330228126051111
  0
LINE
  8
_0-0_
  6
CONTINUOUS
 62
    2
 10
524.37446424308337
 20
53.330228126051111
 11
529.57446424308353
 21
53.330228126051111
  0
LINE
  8
_0-0_
  6
CONTINUOUS
 62
    2
 10
531.66799369168496
 20
53.330228126051111
 11
536.86799369168489
 21
53.330228126051111
  0
LINE
  8
_0-0_
  6
CONTINUOUS
 62
    2
 10
540.867993691685
 20
53.330228126051111
 11
560.38548234138455
 21
53.330228126051111
  0
LINE
  8
_0-0_
  6
CONTINUOUS
 62
    2
 10
566.33844091121739
 20
53.330228126051111
 11
571.53844091121732
 21
53.330228126051111
  0
LINE
  8
_0-0_
  6
CONTINUOUS
 62
    2
 10
578.53697765260199
 20
53.330228126051111
 11
583.72536262739516
 21
53.330228126051111
  0
LINE
  8
_0-0_
  6
CONTINUOUS
 62
    2
 10
585.85347842171666
 20
53.330228126051111
 11
590.25347842171675
 21
53.330228126051111
  0
LINE
  8
_0-0_
  6
CONTINUOUS
 62
    2
 10
470.00026640531485
 20
54.130228126051065
 11
488.18976548909916
 21
54.130228126051065
  0
LINE
  8
_0-0_
  6
CONTINUOUS
 62
    2
 10
494.88658783912763
 20
54.130228126051065
 11
500.08658783912745
 21
54.130228126051065
  0
LINE
  8
_0-0_
  6
CONTINUOUS
 62
    2
 10
511.91309981703751
 20
54.130228126051065
 11
517.05666414253949
 21
54.130228126051065
  0
LINE
  8
_0-0_
  6
CONTINUOUS
 62
    2
 10
524.00141811655931
 20
54.130228126051065
 11
529.20141811655947
 21
54.130228126051065
  0
LINE
  8
_0-0_
  6
CONTINUOUS
 62
    2
 10
532.04103981820901
 20
54.130228126051065
 11
537.24103981820883
 21
54.130228126051065
  0
LINE
  8
_0-0_
  6
CONTINUOUS
 62
    2
 10
541.24103981820906
 20
54.130228126051065
 11
560.0124362148606
 21
54.130228126051065
  0
LINE
  8
_0-0_
  6
CONTINUOUS
 62
    2
 10
566.33844091121739
 20
54.130228126051065
 11
571.53844091121732
 21
54.130228126051065
  0
LINE
  8
_0-0_
  6
CONTINUOUS
 62
    2
 10
578.03708217107453
 20
54.130228126051065
 11
583.2254671458677
 21
54.130228126051065
  0
LINE
  8
_0-0_
  6
CONTINUOUS
 62
    2
 10
585.85347842171666
 20
54.130228126051065
 11
590.25347842171675
 21
54.130228126051065
  0
LINE
  8
_0-0_
  6
CONTINUOUS
 62
    2
 10
470.37331253183868
 20
54.930228126051247
 11
475.57331253183872
 21
54.930228126051247
  0
LINE
  8
_0-0_
  6
CONTINUOUS
 62
    2
 10
482.61671936257528
 20
54.930228126051247
 11
487.81671936257533
 21
54.930228126051247
  0
LINE
  8
_0-0_
  6
CONTINUOUS
 62
    2
 10
494.88658783912763
 20
54.930228126051247
 11
500.08658783912745
 21
54.930228126051247
  0
LINE
  8
_0-0_
  6
CONTINUOUS
 62
    2
 10
512.01037704293685
 20
54.930228126051247
 11
517.16386129992236
 21
54.930228126051247
  0
LINE
  8
_0-0_
  6
CONTINUOUS
 62
    2
 10
523.62837199003525
 20
54.930228126051247
 11
528.82837199003552
 21
54.930228126051247
  0
LINE
  8
_0-0_
  6
CONTINUOUS
 62
    2
 10
532.41408594473307
 20
54.930228126051247
 11
537.61408594473289
 21
54.930228126051247
  0
LINE
  8
_0-0_
  6
CONTINUOUS
 62
    2
 10
541.61408594473278
 20
54.930228126051247
 11
546.81408594473294
 21
54.930228126051247
  0
LINE
  8
_0-0_
  6
CONTINUOUS
 62
    2
 10
554.43939008833661
 20
54.930228126051247
 11
559.63939008833654
 21
54.930228126051247
  0
LINE
  8
_0-0_
  6
CONTINUOUS
 62
    2
 10
566.33844091121739
 20
54.930228126051247
 11
571.53844091121732
 21
54.930228126051247
  0
LINE
  8
_0-0_
  6
CONTINUOUS
 62
    2
 10
577.53718668954718
 20
54.930228126051247
 11
582.72557166434024
 21
54.930228126051247
  0
LINE
  8
_0-0_
  6
CONTINUOUS
 62
    2
 10
585.85347842171666
 20
54.930228126051247
 11
590.25347842171675
 21
54.930228126051247
  0
LINE
  8
_0-0_
  6
CONTINUOUS
 62
    2
 10
470.74635865836274
 20
55.730228126051657
 11
475.94635865836278
 21
55.730228126051657
  0
LINE
  8
_0-0_
  6
CONTINUOUS
 62
    2
 10
482.24367323605122
 20
55.730228126051657
 11
487.44367323605127
 21
55.730228126051657
  0
LINE
  8
_0-0_
  6
CONTINUOUS
 62
    2
 10
494.88658783912763
 20
55.730228126051657
 11
500.08658783912745
 21
55.730228126051657
  0
LINE
  8
_0-0_
  6
CONTINUOUS
 62
    2
 10
512.06223263347101
 20
55.730228126051657
 11
517.23826717496615
 21
55.730228126051657
  0
LINE
  8
_0-0_
  6
CONTINUOUS
 62
    2
 10
523.25532586351119
 20
55.730228126051657
 11
528.45532586351146
 21
55.730228126051657
  0
LINE
  8
_0-0_
  6
CONTINUOUS
 62
    2
 10
532.78713207125713
 20
55.730228126051657
 11
537.98713207125695
 21
55.730228126051657
  0
LINE
  8
_0-0_
  6
CONTINUOUS
 62
    2
 10
541.98713207125684
 20
55.730228126051657
 11
547.187132071257
 21
55.730228126051657
  0
LINE
  8
_0-0_
  6
CONTINUOUS
 62
    2
 10
554.06634396181266
 20
55.730228126051657
 11
559.26634396181282
 21
55.730228126051657
  0
LINE
  8
_0-0_
  6
CONTINUOUS
 62
    2
 10
566.33844091121739
 20
55.730228126051657
 11
571.53844091121732
 21
55.730228126051657
  0
LINE
  8
_0-0_
  6
CONTINUOUS
 62
    2
 10
577.03729120801961
 20
55.730228126051657
 11
582.22567618281289
 21
55.730228126051657
  0
LINE
  8
_0-0_
  6
CONTINUOUS
 62
    2
 10
585.85347842171666
 20
55.730228126051657
 11
590.25347842171675
 21
55.730228126051657
  0
LINE
  8
_0-0_
  6
CONTINUOUS
 62
    2
 10
471.1194047848868
 20
56.530228126051156
 11
476.31940478488661
 21
56.530228126051156
  0
LINE
  8
_0-0_
  6
CONTINUOUS
 62
    2
 10
481.87062710952716
 20
56.530228126051156
 11
487.07062710952744
 21
56.530228126051156
  0
LINE
  8
_0-0_
  6
CONTINUOUS
 62
    2
 10
494.88658783912763
 20
56.530228126051156
 11
500.08658783912745
 21
56.530228126051156
  0
LINE
  8
_0-0_
  6
CONTINUOUS
 62
    2
 10
512.0839802927693
 20
56.530228126051156
 11
517.27951779755517
 21
56.530228126051156
  0
LINE
  8
_0-0_
  6
CONTINUOUS
 62
    2
 10
522.88227973698747
 20
56.530228126051156
 11
528.0822797369874
 21
56.530228126051156
  0
LINE
  8
_0-0_
  6
CONTINUOUS
 62
    2
 10
533.16017819778085
 20
56.530228126051156
 11
538.36017819778101
 21
56.530228126051156
  0
LINE
  8
_0-0_
  6
CONTINUOUS
 62
    2
 10
542.3601781977809
 20
56.530228126051156
 11
547.56017819778071
 21
56.530228126051156
  0
LINE
  8
_0-0_
  6
CONTINUOUS
 62
    2
 10
553.6932978352886
 20
56.530228126051156
 11
558.89329783528876
 21
56.530228126051156
  0
LINE
  8
_0-0_
  6
CONTINUOUS
 62
    2
 10
566.33844091121739
 20
56.530228126051156
 11
571.53844091121732
 21
56.530228126051156
  0
LINE
  8
_0-0_
  6
CONTINUOUS
 62
    2
 10
576.53739572649226
 20
56.530228126051156
 11
581.72578070128532
 21
56.530228126051156
  0
LINE
  8
_0-0_
  6
CONTINUOUS
 62
    2
 10
585.85347842171666
 20
56.530228126051156
 11
590.25347842171675
 21
56.530228126051156
  0
LINE
  8
_0-0_
  6
CONTINUOUS
 62
    2
 10
471.49245091141086
 20
57.330228126051338
 11
476.69245091141067
 21
57.330228126051338
  0
LINE
  8
_0-0_
  6
CONTINUOUS
 62
    2
 10
481.49758098300333
 20
57.330228126051338
 11
486.69758098300338
 21
57.330228126051338
  0
LINE
  8
_0-0_
  6
CONTINUOUS
 62
    2
 10
494.88658783912763
 20
57.330228126051338
 11
500.08658783912745
 21
57.330228126051338
  0
LINE
  8
_0-0_
  6
CONTINUOUS
 62
    2
 10
512.08493594077868
 20
57.330228126051338
 11
517.28210891971662
 21
57.330228126051338
  0
LINE
  8
_0-0_
  6
CONTINUOUS
 62
    2
 10
522.50923361046353
 20
57.330228126051338
 11
527.70923361046334
 21
57.330228126051338
  0
LINE
  8
_0-0_
  6
CONTINUOUS
 62
    2
 10
533.53322432430491
 20
57.330228126051338
 11
538.73322432430507
 21
57.330228126051338
  0
LINE
  8
_0-0_
  6
CONTINUOUS
 62
    2
 10
542.73322432430496
 20
57.330228126051338
 11
547.93322432430477
 21
57.330228126051338
  0
LINE
  8
_0-0_
  6
CONTINUOUS
 62
    2
 10
553.32025170876489
 20
57.330228126051338
 11
558.5202517087647
 21
57.330228126051338
  0
LINE
  8
_0-0_
  6
CONTINUOUS
 62
    2
 10
566.33844091121739
 20
57.330228126051338
 11
571.53844091121732
 21
57.330228126051338
  0
LINE
  8
_0-0_
  6
CONTINUOUS
 62
    2
 10
576.03750024496469
 20
57.330228126051338
 11
581.22588521975797
 21
57.330228126051338
  0
LINE
  8
_0-0_
  6
CONTINUOUS
 62
    2
 10
585.85347842171666
 20
57.330228126051338
 11
590.25347842171675
 21
57.330228126051338
  0
LINE
  8
_0-0_
  6
CONTINUOUS
 62
    2
 10
471.86549703793492
 20
58.130228126051293
 11
477.06549703793473
 21
58.130228126051293
  0
LINE
  8
_0-0_
  6
CONTINUOUS
 62
    2
 10
481.1245348564795
 20
58.130228126051293
 11
486.32453485647932
 21
58.130228126051293
  0
LINE
  8
_0-0_
  6
CONTINUOUS
 62
    2
 10
494.88658783912763
 20
58.130228126051293
 11
500.08658783912745
 21
58.130228126051293
  0
LINE
  8
_0-0_
  6
CONTINUOUS
 62
    2
 10
512.06763290925471
 20
58.130228126051293
 11
517.24780410140147
 21
58.130228126051293
  0
LINE
  8
_0-0_
  6
CONTINUOUS
 62
    2
 10
522.13618748393947
 20
58.130228126051293
 11
527.33618748393928
 21
58.130228126051293
  0
LINE
  8
_0-0_
  6
CONTINUOUS
 62
    2
 10
533.90627045082886
 20
58.130228126051293
 11
539.10627045082879
 21
58.130228126051293
  0
LINE
  8
_0-0_
  6
CONTINUOUS
 62
    2
 10
543.10627045082902
 20
58.130228126051293
 11
548.30627045082883
 21
58.130228126051293
  0
LINE
  8
_0-0_
  6
CONTINUOUS
 62
    2
 10
552.94720558224083
 20
58.130228126051293
 11
558.14720558224064
 21
58.130228126051293
  0
LINE
  8
_0-0_
  6
CONTINUOUS
 62
    2
 10
566.33844091121739
 20
58.130228126051293
 11
571.53844091121732
 21
58.130228126051293
  0
LINE
  8
_0-0_
  6
CONTINUOUS
 62
    2
 10
575.53760476343712
 20
58.130228126051293
 11
580.7259897382304
 21
58.130228126051293
  0
LINE
  8
_0-0_
  6
CONTINUOUS
 62
    2
 10
585.85347842171666
 20
58.130228126051293
 11
590.25347842171675
 21
58.130228126051293
  0
LINE
  8
_0-0_
  6
CONTINUOUS
 62
    2
 10
472.23854316445875
 20
58.930228126050793
 11
477.43854316445879
 21
58.930228126050793
  0
LINE
  8
_0-0_
  6
CONTINUOUS
 62
    2
 10
480.75148872995544
 20
58.930228126050793
 11
485.95148872995526
 21
58.930228126050793
  0
LINE
  8
_0-0_
  6
CONTINUOUS
 62
    2
 10
494.88658783912763
 20
58.930228126050793
 11
500.08658783912745
 21
58.930228126050793
  0
LINE
  8
_0-0_
  6
CONTINUOUS
 62
    2
 10
512.02555067220499
 20
58.930228126050793
 11
517.1819732789229
 21
58.930228126050793
  0
LINE
  8
_0-0_
  6
CONTINUOUS
 62
    2
 10
521.76314135741541
 20
58.930228126050793
 11
526.96314135741557
 21
58.930228126050793
  0
LINE
  8
_0-0_
  6
CONTINUOUS
 62
    2
 10
534.27931657735292
 20
58.930228126050793
 11
539.47931657735285
 21
58.930228126050793
  0
LINE
  8
_0-0_
  6
CONTINUOUS
 62
    2
 10
543.47931657735296
 20
58.930228126050793
 11
548.67931657735289
 21
58.930228126050793
  0
LINE
  8
_0-0_
  6
CONTINUOUS
 62
    2
 10
552.57415945571677
 20
58.930228126050793
 11
557.77415945571681
 21
58.930228126050793
  0
LINE
  8
_0-0_
  6
CONTINUOUS
 62
    2
 10
566.33844091121739
 20
58.930228126050793
 11
571.53844091121732
 21
58.930228126050793
  0
LINE
  8
_0-0_
  6
CONTINUOUS
 62
    2
 10
575.03770928190966
 20
58.930228126050793
 11
580.22609425670305
 21
58.930228126050793
  0
LINE
  8
_0-0_
  6
CONTINUOUS
 62
    2
 10
585.85347842171666
 20
58.930228126050793
 11
590.25347842171675
 21
58.930228126050793
  0
LINE
  8
_0-0_
  6
CONTINUOUS
 62
    2
 10
472.61158929098281
 20
59.730228126051657
 11
477.81158929098285
 21
59.730228126051657
  0
LINE
  8
_0-0_
  6
CONTINUOUS
 62
    2
 10
480.37844260343138
 20
59.730228126051657
 11
485.5784426034312
 21
59.730228126051657
  0
LINE
  8
_0-0_
  6
CONTINUOUS
 62
    2
 10
494.88658783912763
 20
59.730228126051657
 11
500.08658783912745
 21
59.730228126051657
  0
LINE
  8
_0-0_
  6
CONTINUOUS
 62
    2
 10
511.9438113822041
 20
59.730228126051657
 11
517.0831212685672
 21
59.730228126051657
  0
LINE
  8
_0-0_
  6
CONTINUOUS
 62
    2
 10
521.39009523089135
 20
59.730228126051657
 11
526.59009523089151
 21
59.730228126051657
  0
LINE
  8
_0-0_
  6
CONTINUOUS
 62
    2
 10
534.65236270387697
 20
59.730228126051657
 11
539.85236270387691
 21
59.730228126051657
  0
LINE
  8
_0-0_
  6
CONTINUOUS
 62
    2
 10
543.85236270387702
 20
59.730228126051657
 11
549.05236270387695
 21
59.730228126051657
  0
LINE
  8
_0-0_
  6
CONTINUOUS
 62
    2
 10
552.20111332919271
 20
59.730228126051657
 11
557.40111332919275
 21
59.730228126051657
  0
LINE
  8
_0-0_
  6
CONTINUOUS
 62
    2
 10
566.33844091121739
 20
59.730228126051657
 11
571.53844091121732
 21
59.730228126051657
  0
LINE
  8
_0-0_
  6
CONTINUOUS
 62
    2
 10
574.53781380038242
 20
59.730228126051657
 11
579.72619877517536
 21
59.730228126051657
  0
LINE
  8
_0-0_
  6
CONTINUOUS
 62
    2
 10
585.85347842171666
 20
59.730228126051657
 11
590.25347842171675
 21
59.730228126051657
  0
LINE
  8
_0-0_
  6
CONTINUOUS
 62
    2
 10
472.98463541750664
 20
60.530228126051156
 11
478.18463541750691
 21
60.530228126051156
  0
LINE
  8
_0-0_
  6
CONTINUOUS
 62
    2
 10
480.00539647690732
 20
60.530228126051156
 11
485.20539647690737
 21
60.530228126051156
  0
LINE
  8
_0-0_
  6
CONTINUOUS
 62
    2
 10
494.88658783912763
 20
60.530228126051156
 11
500.08658783912745
 21
60.530228126051156
  0
LINE
  8
_0-0_
  6
CONTINUOUS
 62
    2
 10
511.80162001787733
 20
60.530228126051156
 11
516.95187202325508
 21
60.530228126051156
  0
LINE
  8
_0-0_
  6
CONTINUOUS
 62
    2
 10
521.01704910436729
 20
60.530228126051156
 11
526.21704910436745
 21
60.530228126051156
  0
LINE
  8
_0-0_
  6
CONTINUOUS
 62
    2
 10
535.02540883040103
 20
60.530228126051156
 11
540.22540883040085
 21
60.530228126051156
  0
LINE
  8
_0-0_
  6
CONTINUOUS
 62
    2
 10
544.22540883040074
 20
60.530228126051156
 11
549.42540883040101
 21
60.530228126051156
  0
LINE
  8
_0-0_
  6
CONTINUOUS
 62
    2
 10
551.82806720266865
 20
60.530228126051156
 11
557.02806720266869
 21
60.530228126051156
  0
LINE
  8
_0-0_
  6
CONTINUOUS
 62
    2
 10
566.33844091121739
 20
60.530228126051156
 11
571.53844091121732
 21
60.530228126051156
  0
LINE
  8
_0-0_
  6
CONTINUOUS
 62
    2
 10
574.03791831885485
 20
60.530228126051156
 11
579.22630329364813
 21
60.530228126051156
  0
LINE
  8
_0-0_
  6
CONTINUOUS
 62
    2
 10
585.85347842171666
 20
60.530228126051156
 11
590.25347842171675
 21
60.530228126051156
  0
LINE
  8
_0-0_
  6
CONTINUOUS
 62
    2
 10
473.3576815440307
 20
61.330228126051338
 11
478.55768154403097
 21
61.330228126051338
  0
LINE
  8
_0-0_
  6
CONTINUOUS
 62
    2
 10
479.63235035038326
 20
61.330228126051338
 11
484.83235035038331
 21
61.330228126051338
  0
LINE
  8
_0-0_
  6
CONTINUOUS
 62
    2
 10
494.88658783912763
 20
61.330228126051338
 11
500.08658783912745
 21
61.330228126051338
  0
LINE
  8
_0-0_
  6
CONTINUOUS
 62
    2
 10
511.56135536936335
 20
61.330228126051338
 11
516.78874805189287
 21
61.330228126051338
  0
LINE
  8
_0-0_
  6
CONTINUOUS
 62
    2
 10
520.64400297784323
 20
61.330228126051338
 11
525.84400297784362
 21
61.330228126051338
  0
LINE
  8
_0-0_
  6
CONTINUOUS
 62
    2
 10
535.39845495692509
 20
61.330228126051338
 11
540.59845495692491
 21
61.330228126051338
  0
LINE
  8
_0-0_
  6
CONTINUOUS
 62
    2
 10
544.5984549569248
 20
61.330228126051338
 11
549.79845495692496
 21
61.330228126051338
  0
LINE
  8
_0-0_
  6
CONTINUOUS
 62
    2
 10
551.45502107614459
 20
61.330228126051338
 11
556.65502107614464
 21
61.330228126051338
  0
LINE
  8
_0-0_
  6
CONTINUOUS
 62
    2
 10
566.33844091121739
 20
61.330228126051338
 11
571.53844091121732
 21
61.330228126051338
  0
LINE
  8
_0-0_
  6
CONTINUOUS
 62
    2
 10
573.53802283732728
 20
61.330228126051338
 11
578.72640781212056
 21
61.330228126051338
  0
LINE
  8
_0-0_
  6
CONTINUOUS
 62
    2
 10
585.85347842171666
 20
61.330228126051338
 11
590.25347842171675
 21
61.330228126051338
  0
LINE
  8
_0-0_
  6
CONTINUOUS
 62
    2
 10
473.73072767055476
 20
62.130228126051293
 11
478.9307276705548
 21
62.130228126051293
  0
LINE
  8
_0-0_
  6
CONTINUOUS
 62
    2
 10
479.2593042238592
 20
62.130228126051293
 11
484.45930422385948
 21
62.130228126051293
  0
LINE
  8
_0-0_
  6
CONTINUOUS
 62
    2
 10
494.88658783912763
 20
62.130228126051293
 11
500.08658783912745
 21
62.130228126051293
  0
LINE
  8
_0-0_
  6
CONTINUOUS
 62
    2
 10
511.17003284012458
 20
62.130228126051293
 11
516.59519234527659
 21
62.130228126051293
  0
LINE
  8
_0-0_
  6
CONTINUOUS
 62
    2
 10
520.27095685131951
 20
62.130228126051293
 11
525.47095685131956
 21
62.130228126051293
  0
LINE
  8
_0-0_
  6
CONTINUOUS
 62
    2
 10
535.77150108344892
 20
62.130228126051293
 11
540.97150108344897
 21
62.130228126051293
  0
LINE
  8
_0-0_
  6
CONTINUOUS
 62
    2
 10
544.97150108344886
 20
62.130228126051293
 11
550.17150108344867
 21
62.130228126051293
  0
LINE
  8
_0-0_
  6
CONTINUOUS
 62
    2
 10
551.08197494962076
 20
62.130228126051293
 11
556.28197494962069
 21
62.130228126051293
  0
LINE
  8
_0-0_
  6
CONTINUOUS
 62
    2
 10
566.33844091121739
 20
62.130228126051293
 11
571.53844091121732
 21
62.130228126051293
  0
LINE
  8
_0-0_
  6
CONTINUOUS
 62
    2
 10
573.03812735579993
 20
62.130228126051293
 11
578.2265123305931
 21
62.130228126051293
  0
LINE
  8
_0-0_
  6
CONTINUOUS
 62
    2
 10
585.85347842171666
 20
62.130228126051293
 11
590.25347842171675
 21
62.130228126051293
  0
LINE
  8
_0-0_
  6
CONTINUOUS
 62
    2
 10
474.10377379707882
 20
62.930228126050793
 11
484.08625809733542
 21
62.930228126050793
  0
LINE
  8
_0-0_
  6
CONTINUOUS
 62
    2
 10
494.88658783912763
 20
62.930228126050793
 11
500.08658783912745
 21
62.930228126050793
  0
LINE
  8
_0-0_
  6
CONTINUOUS
 62
    2
 10
510.5055201713061
 20
62.930228126050793
 11
516.3670761761357
 21
62.930228126050793
  0
LINE
  8
_0-0_
  6
CONTINUOUS
 62
    2
 10
519.89791072479545
 20
62.930228126050793
 11
525.0979107247955
 21
62.930228126050793
  0
LINE
  8
_0-0_
  6
CONTINUOUS
 62
    2
 10
536.14454720997298
 20
62.930228126050793
 11
541.34454720997303
 21
62.930228126050793
  0
LINE
  8
_0-0_
  6
CONTINUOUS
 62
    2
 10
545.34454720997292
 20
62.930228126050793
 11
550.54454720997273
 21
62.930228126050793
  0
LINE
  8
_0-0_
  6
CONTINUOUS
 62
    2
 10
550.7089288230967
 20
62.930228126050793
 11
555.90892882309663
 21
62.930228126050793
  0
LINE
  8
_0-0_
  6
CONTINUOUS
 62
    2
 10
566.33844091121739
 20
62.930228126050793
 11
571.53844091121732
 21
62.930228126050793
  0
LINE
  8
_0-0_
  6
CONTINUOUS
 62
    2
 10
572.53823187427236
 20
62.930228126050793
 11
577.72661684906564
 21
62.930228126050793
  0
LINE
  8
_0-0_
  6
CONTINUOUS
 62
    2
 10
585.85347842171666
 20
62.930228126050793
 11
590.25347842171675
 21
62.930228126050793
  0
LINE
  8
_0-0_
  6
CONTINUOUS
 62
    2
 10
474.47681992360287
 20
63.730228126051429
 11
483.71321197081136
 21
63.730228126051429
  0
LINE
  8
_0-0_
  6
CONTINUOUS
 62
    2
 10
494.88658783912763
 20
63.730228126051429
 11
500.08658783912745
 21
63.730228126051429
  0
LINE
  8
_0-0_
  6
CONTINUOUS
 62
    2
 10
509.46799803412125
 20
63.730228126051429
 11
516.08497023919358
 21
63.730228126051429
  0
LINE
  8
_0-0_
  6
CONTINUOUS
 62
    2
 10
519.52486459827162
 20
63.730228126051429
 11
524.72486459827144
 21
63.730228126051429
  0
LINE
  8
_0-0_
  6
CONTINUOUS
 62
    2
 10
536.51759333649704
 20
63.730228126051429
 11
541.71759333649709
 21
63.730228126051429
  0
LINE
  8
_0-0_
  6
CONTINUOUS
 62
    2
 10
545.71759333649698
 20
63.730228126051429
 11
555.53588269657257
 21
63.730228126051429
  0
LINE
  8
_0-0_
  6
CONTINUOUS
 62
    2
 10
566.33844091121739
 20
63.730228126051429
 11
571.53844091121732
 21
63.730228126051429
  0
LINE
  8
_0-0_
  6
CONTINUOUS
 62
    2
 10
572.03833639274501
 20
63.730228126051429
 11
577.22672136753829
 21
63.730228126051429
  0
LINE
  8
_0-0_
  6
CONTINUOUS
 62
    2
 10
585.85347842171666
 20
63.730228126051429
 11
590.25347842171675
 21
63.730228126051429
  0
LINE
  8
_0-0_
  6
CONTINUOUS
 62
    2
 10
474.84986605012693
 20
64.530228126051156
 11
483.3401658442873
 21
64.530228126051156
  0
LINE
  8
_0-0_
  6
CONTINUOUS
 62
    2
 10
494.88658783912763
 20
64.530228126051156
 11
500.08658783912745
 21
64.530228126051156
  0
LINE
  8
_0-0_
  6
CONTINUOUS
 62
    2
 10
508.08658783912745
 20
64.530228126051156
 11
515.68658783912736
 21
64.530228126051156
  0
LINE
  8
_0-0_
  6
CONTINUOUS
 62
    2
 10
519.15181847174756
 20
64.530228126051156
 11
524.35181847174738
 21
64.530228126051156
  0
LINE
  8
_0-0_
  6
CONTINUOUS
 62
    2
 10
536.89063946302076
 20
64.530228126051156
 11
542.09063946302092
 21
64.530228126051156
  0
LINE
  8
_0-0_
  6
CONTINUOUS
 62
    2
 10
546.09063946302092
 20
64.530228126051156
 11
555.16283657004851
 21
64.530228126051156
  0
LINE
  8
_0-0_
  6
CONTINUOUS
 62
    2
 10
566.33844091121739
 20
64.530228126051156
 11
571.53844091121732
 21
64.530228126051156
  0
LINE
  8
_0-0_
  6
CONTINUOUS
 62
    2
 10
571.53844091121732
 20
64.530228126051156
 11
576.72682588601072
 21
64.530228126051156
  0
LINE
  8
_0-0_
  6
CONTINUOUS
 62
    2
 10
585.85347842171666
 20
64.530228126051156
 11
590.25347842171675
 21
64.530228126051156
  0
LINE
  8
_0-0_
  6
CONTINUOUS
 62
    2
 10
475.22291217665077
 20
65.330228126051338
 11
482.96711971776324
 21
65.330228126051338
  0
LINE
  8
_0-0_
  6
CONTINUOUS
 62
    2
 10
494.88658783912763
 20
65.330228126051338
 11
515.05064115598668
 21
65.330228126051338
  0
LINE
  8
_0-0_
  6
CONTINUOUS
 62
    2
 10
518.7787723452235
 20
65.330228126051338
 11
523.97877234522343
 21
65.330228126051338
  0
LINE
  8
_0-0_
  6
CONTINUOUS
 62
    2
 10
537.26368558954482
 20
65.330228126051338
 11
542.46368558954498
 21
65.330228126051338
  0
LINE
  8
_0-0_
  6
CONTINUOUS
 62
    2
 10
546.46368558954498
 20
65.330228126051338
 11
554.78979044352445
 21
65.330228126051338
  0
LINE
  8
_0-0_
  6
CONTINUOUS
 62
    2
 10
566.33844091121739
 20
65.330228126051338
 11
576.22693040448337
 21
65.330228126051338
  0
LINE
  8
_0-0_
  6
CONTINUOUS
 62
    2
 10
585.85347842171666
 20
65.330228126051338
 11
590.25347842171675
 21
65.330228126051338
  0
LINE
  8
_0-0_
  6
CONTINUOUS
 62
    2
 10
475.59595830317483
 20
66.130228126051065
 11
482.59407359123918
 21
66.130228126051065
  0
LINE
  8
_0-0_
  6
CONTINUOUS
 62
    2
 10
494.88658783912763
 20
66.130228126051065
 11
514.15293440955304
 21
66.130228126051065
  0
LINE
  8
_0-0_
  6
CONTINUOUS
 62
    2
 10
518.40572621869944
 20
66.130228126051065
 11
523.60572621869937
 21
66.130228126051065
  0
LINE
  8
_0-0_
  6
CONTINUOUS
 62
    2
 10
537.63673171606888
 20
66.130228126051065
 11
542.83673171606904
 21
66.130228126051065
  0
LINE
  8
_0-0_
  6
CONTINUOUS
 62
    2
 10
546.83673171606904
 20
66.130228126051065
 11
554.41674431700073
 21
66.130228126051065
  0
LINE
  8
_0-0_
  6
CONTINUOUS
 62
    2
 10
566.33844091121739
 20
66.130228126051065
 11
575.7270349229558
 21
66.130228126051065
  0
LINE
  8
_0-0_
  6
CONTINUOUS
 62
    2
 10
585.85347842171666
 20
66.130228126051065
 11
590.25347842171675
 21
66.130228126051065
  0
LINE
  8
_0-0_
  6
CONTINUOUS
 62
    2
 10
475.96900442969866
 20
66.930228126050793
 11
482.22102746471535
 21
66.930228126050793
  0
LINE
  8
_0-0_
  6
CONTINUOUS
 62
    2
 10
494.88658783912763
 20
66.930228126050793
 11
512.81781506302116
 21
66.930228126050793
  0
LINE
  8
_0-0_
  6
CONTINUOUS
 62
    2
 10
518.03268009217538
 20
66.930228126050793
 11
523.23268009217566
 21
66.930228126050793
  0
LINE
  8
_0-0_
  6
CONTINUOUS
 62
    2
 10
538.00977784259294
 20
66.930228126050793
 11
543.20977784259276
 21
66.930228126050793
  0
LINE
  8
_0-0_
  6
CONTINUOUS
 62
    2
 10
547.20977784259287
 20
66.930228126050793
 11
554.04369819047668
 21
66.930228126050793
  0
LINE
  8
_0-0_
  6
CONTINUOUS
 62
    2
 10
566.33844091121739
 20
66.930228126050793
 11
575.22713944142845
 21
66.930228126050793
  0
LINE
  8
_0-0_
  6
CONTINUOUS
 62
    2
 10
585.85347842171666
 20
66.930228126050793
 11
590.25347842171675
 21
66.930228126050793
  0
LINE
  8
_0-0_
  6
CONTINUOUS
 62
    2
 10
476.34205055622272
 20
67.730228126051202
 11
481.84798133819129
 21
67.730228126051202
  0
LINE
  8
_0-0_
  6
CONTINUOUS
 62
    2
 10
494.88658783912763
 20
67.730228126051202
 11
510.88658783912751
 21
67.730228126051202
  0
LINE
  8
_0-0_
  6
CONTINUOUS
 62
    2
 10
517.65963396565144
 20
67.730228126051202
 11
522.8596339656516
 21
67.730228126051202
  0
LINE
  8
_0-0_
  6
CONTINUOUS
 62
    2
 10
538.382823969117
 20
67.730228126051202
 11
543.58282396911682
 21
67.730228126051202
  0
LINE
  8
_0-0_
  6
CONTINUOUS
 62
    2
 10
547.58282396911693
 20
67.730228126051202
 11
553.67065206395273
 21
67.730228126051202
  0
LINE
  8
_0-0_
  6
CONTINUOUS
 62
    2
 10
566.33844091121739
 20
67.730228126051202
 11
574.72724395990076
 21
67.730228126051202
  0
LINE
  8
_0-0_
  6
CONTINUOUS
 62
    2
 10
585.85347842171666
 20
67.730228126051202
 11
590.25347842171675
 21
67.730228126051202
  0
LINE
  8
_0-0_
  6
CONTINUOUS
 62
    2
 10
476.71509668274678
 20
68.530228126051156
 11
481.47493521166746
 21
68.530228126051156
  0
LINE
  8
_0-0_
  6
CONTINUOUS
 62
    2
 10
494.88658783912763
 20
68.530228126051156
 11
508.08658783912745
 21
68.530228126051156
  0
LINE
  8
_0-0_
  6
CONTINUOUS
 62
    2
 10
517.28658783912738
 20
68.530228126051156
 11
522.48658783912754
 21
68.530228126051156
  0
LINE
  8
_0-0_
  6
CONTINUOUS
 62
    2
 10
538.75587009564094
 20
68.530228126051156
 11
543.95587009564088
 21
68.530228126051156
  0
LINE
  8
_0-0_
  6
CONTINUOUS
 62
    2
 10
547.95587009564099
 20
68.530228126051156
 11
553.29760593742867
 21
68.530228126051156
  0
LINE
  8
_0-0_
  6
CONTINUOUS
 62
    2
 10
566.33844091121739
 20
68.530228126051156
 11
574.22734847837353
 21
68.530228126051156
  0
LINE
  8
_0-0_
  6
CONTINUOUS
 62
    2
 10
585.85347842171666
 20
68.530228126051156
 11
590.25347842171675
 21
68.530228126051156
  0
LINE
  8
_0-0_
  6
CONTINUOUS
 62
    2
 10
466.08328207681291
 20
45.730228126051429
 11
471.28328207681272
 21
45.730228126051429
  0
LINE
  8
_0-0_
  6
CONTINUOUS
 62
    2
 10
486.90674981760128
 20
45.730228126051429
 11
492.10674981760133
 21
45.730228126051429
  0
LINE
  8
_0-0_
  6
CONTINUOUS
 62
    2
 10
494.88658783912763
 20
45.730228126051429
 11
508.92949690904641
 21
45.730228126051429
  0
LINE
  8
_0-0_
  6
CONTINUOUS
 62
    2
 10
527.91840244506159
 20
45.730228126051429
 11
533.32405548970701
 21
45.730228126051429
  0
LINE
  8
_0-0_
  6
CONTINUOUS
 62
    2
 10
537.32405548970712
 20
45.730228126051429
 11
542.52405548970694
 21
45.730228126051429
  0
LINE
  8
_0-0_
  6
CONTINUOUS
 62
    2
 10
558.72942054336283
 20
45.730228126051429
 11
563.92942054336265
 21
45.730228126051429
  0
LINE
  8
_0-0_
  6
CONTINUOUS
 62
    2
 10
566.33844091121739
 20
45.730228126051429
 11
571.53844091121732
 21
45.730228126051429
  0
LINE
  8
_0-0_
  6
CONTINUOUS
 62
    2
 10
583.28598472711269
 20
45.730228126051429
 11
590.25347842171675
 21
45.730228126051429
  0
LINE
  8
_0-0_
  6
CONTINUOUS
 62
    2
 10
466.45632820333674
 20
46.530228126051156
 11
471.65632820333678
 21
46.530228126051156
  0
LINE
  8
_0-0_
  6
CONTINUOUS
 62
    2
 10
486.53370369107745
 20
46.530228126051156
 11
491.73370369107727
 21
46.530228126051156
  0
LINE
  8
_0-0_
  6
CONTINUOUS
 62
    2
 10
494.88658783912763
 20
46.530228126051156
 11
511.49683843879723
 21
46.530228126051156
  0
LINE
  8
_0-0_
  6
CONTINUOUS
 62
    2
 10
527.54535631853753
 20
46.530228126051156
 11
533.69710161623095
 21
46.530228126051156
  0
LINE
  8
_0-0_
  6
CONTINUOUS
 62
    2
 10
537.69710161623084
 20
46.530228126051156
 11
542.897101616231
 21
46.530228126051156
  0
LINE
  8
_0-0_
  6
CONTINUOUS
 62
    2
 10
558.35637441683878
 20
46.530228126051156
 11
563.55637441683859
 21
46.530228126051156
  0
LINE
  8
_0-0_
  6
CONTINUOUS
 62
    2
 10
566.33844091121739
 20
46.530228126051156
 11
571.53844091121732
 21
46.530228126051156
  0
LINE
  8
_0-0_
  6
CONTINUOUS
 62
    2
 10
582.78608924558546
 20
46.530228126051156
 11
590.25347842171675
 21
46.530228126051156
  0
LINE
  8
_0-0_
  6
CONTINUOUS
 62
    2
 10
466.8293743298608
 20
47.330228126051111
 11
472.02937432986084
 21
47.330228126051111
  0
LINE
  8
_0-0_
  6
CONTINUOUS
 62
    2
 10
486.16065756455339
 20
47.330228126051111
 11
491.36065756455321
 21
47.330228126051111
  0
LINE
  8
_0-0_
  6
CONTINUOUS
 62
    2
 10
494.88658783912763
 20
47.330228126051111
 11
513.25207896520715
 21
47.330228126051111
  0
LINE
  8
_0-0_
  6
CONTINUOUS
 62
    2
 10
527.17231019201347
 20
47.330228126051111
 11
534.07014774275501
 21
47.330228126051111
  0
LINE
  8
_0-0_
  6
CONTINUOUS
 62
    2
 10
538.0701477427549
 20
47.330228126051111
 11
543.27014774275506
 21
47.330228126051111
  0
LINE
  8
_0-0_
  6
CONTINUOUS
 62
    2
 10
557.98332829031472
 20
47.330228126051111
 11
563.18332829031453
 21
47.330228126051111
  0
LINE
  8
_0-0_
  6
CONTINUOUS
 62
    2
 10
566.33844091121739
 20
47.330228126051111
 11
571.53844091121732
 21
47.330228126051111
  0
LINE
  8
_0-0_
  6
CONTINUOUS
 62
    2
 10
582.28619376405788
 20
47.330228126051111
 11
590.25347842171675
 21
47.330228126051111
  0
LINE
  8
_0-0_
  6
CONTINUOUS
 62
    2
 10
467.20242045638486
 20
48.130228126051065
 11
472.4024204563849
 21
48.130228126051065
  0
LINE
  8
_0-0_
  6
CONTINUOUS
 62
    2
 10
485.78761143802933
 20
48.130228126051065
 11
490.98761143802938
 21
48.130228126051065
  0
LINE
  8
_0-0_
  6
CONTINUOUS
 62
    2
 10
494.88658783912763
 20
48.130228126051065
 11
514.42925419307562
 21
48.130228126051065
  0
LINE
  8
_0-0_
  6
CONTINUOUS
 62
    2
 10
526.79926406548941
 20
48.130228126051065
 11
534.44319386927884
 21
48.130228126051065
  0
LINE
  8
_0-0_
  6
CONTINUOUS
 62
    2
 10
538.44319386927884
 20
48.130228126051065
 11
543.64319386927912
 21
48.130228126051065
  0
LINE
  8
_0-0_
  6
CONTINUOUS
 62
    2
 10
557.61028216379066
 20
48.130228126051065
 11
562.81028216379059
 21
48.130228126051065
  0
LINE
  8
_0-0_
  6
CONTINUOUS
 62
    2
 10
566.33844091121739
 20
48.130228126051065
 11
571.53844091121732
 21
48.130228126051065
  0
LINE
  8
_0-0_
  6
CONTINUOUS
 62
    2
 10
581.78629828253042
 20
48.130228126051065
 11
590.25347842171675
 21
48.130228126051065
  0
LINE
  8
_0-0_
  6
CONTINUOUS
 62
    2
 10
467.57546658290869
 20
48.930228126051247
 11
472.77546658290873
 21
48.930228126051247
  0
LINE
  8
_0-0_
  6
CONTINUOUS
 62
    2
 10
485.41456531150527
 20
48.930228126051247
 11
490.61456531150532
 21
48.930228126051247
  0
LINE
  8
_0-0_
  6
CONTINUOUS
 62
    2
 10
494.88658783912763
 20
48.930228126051247
 11
515.25419705297372
 21
48.930228126051247
  0
LINE
  8
_0-0_
  6
CONTINUOUS
 62
    2
 10
526.42621793896535
 20
48.930228126051247
 11
534.8162399958029
 21
48.930228126051247
  0
LINE
  8
_0-0_
  6
CONTINUOUS
 62
    2
 10
538.8162399958029
 20
48.930228126051247
 11
544.01623999580283
 21
48.930228126051247
  0
LINE
  8
_0-0_
  6
CONTINUOUS
 62
    2
 10
557.2372360372666
 20
48.930228126051247
 11
562.43723603726653
 21
48.930228126051247
  0
LINE
  8
_0-0_
  6
CONTINUOUS
 62
    2
 10
566.33844091121739
 20
48.930228126051247
 11
571.53844091121732
 21
48.930228126051247
  0
LINE
  8
_0-0_
  6
CONTINUOUS
 62
    2
 10
581.28640280100319
 20
48.930228126051247
 11
590.25347842171675
 21
48.930228126051247
  0
LINE
  8
_0-0_
  6
CONTINUOUS
 62
    2
 10
467.94851270943275
 20
49.730228126051202
 11
473.14851270943279
 21
49.730228126051202
  0
LINE
  8
_0-0_
  6
CONTINUOUS
 62
    2
 10
485.04151918498121
 20
49.730228126051202
 11
490.24151918498126
 21
49.730228126051202
  0
LINE
  8
_0-0_
  6
CONTINUOUS
 62
    2
 10
494.88658783912763
 20
49.730228126051202
 11
500.08658783912745
 21
49.730228126051202
  0
LINE
  8
_0-0_
  6
CONTINUOUS
 62
    2
 10
508.48596711046378
 20
49.730228126051202
 11
515.81131066056435
 21
49.730228126051202
  0
LINE
  8
_0-0_
  6
CONTINUOUS
 62
    2
 10
526.05317181244129
 20
49.730228126051202
 11
535.18928612232696
 21
49.730228126051202
  0
LINE
  8
_0-0_
  6
CONTINUOUS
 62
    2
 10
539.18928612232696
 20
49.730228126051202
 11
544.38928612232689
 21
49.730228126051202
  0
LINE
  8
_0-0_
  6
CONTINUOUS
 62
    2
 10
556.86418991074254
 20
49.730228126051202
 11
562.06418991074281
 21
49.730228126051202
  0
LINE
  8
_0-0_
  6
CONTINUOUS
 62
    2
 10
566.33844091121739
 20
49.730228126051202
 11
571.53844091121732
 21
49.730228126051202
  0
LINE
  8
_0-0_
  6
CONTINUOUS
 62
    2
 10
580.78650731947562
 20
49.730228126051202
 11
590.25347842171675
 21
49.730228126051202
  0
LINE
  8
_0-0_
  6
CONTINUOUS
 62
    2
 10
468.32155883595681
 20
50.530228126051384
 11
473.52155883595685
 21
50.530228126051384
  0
LINE
  8
_0-0_
  6
CONTINUOUS
 62
    2
 10
484.66847305845738
 20
50.530228126051384
 11
489.86847305845743
 21
50.530228126051384
  0
LINE
  8
_0-0_
  6
CONTINUOUS
 62
    2
 10
494.88658783912763
 20
50.530228126051384
 11
500.08658783912745
 21
50.530228126051384
  0
LINE
  8
_0-0_
  6
CONTINUOUS
 62
    2
 10
509.79730228915321
 20
50.530228126051384
 11
516.16961390669348
 21
50.530228126051384
  0
LINE
  8
_0-0_
  6
CONTINUOUS
 62
    2
 10
525.68012568591746
 20
50.530228126051384
 11
535.56233224885102
 21
50.530228126051384
  0
LINE
  8
_0-0_
  6
CONTINUOUS
 62
    2
 10
539.56233224885102
 20
50.530228126051384
 11
544.76233224885084
 21
50.530228126051384
  0
LINE
  8
_0-0_
  6
CONTINUOUS
 62
    2
 10
556.49114378421859
 20
50.530228126051384
 11
561.69114378421875
 21
50.530228126051384
  0
LINE
  8
_0-0_
  6
CONTINUOUS
 62
    2
 10
566.33844091121739
 20
50.530228126051384
 11
571.53844091121732
 21
50.530228126051384
  0
LINE
  8
_0-0_
  6
CONTINUOUS
 62
    2
 10
580.28661183794804
 20
50.530228126051384
 11
585.47499681274132
 21
50.530228126051384
  0
LINE
  8
_0-0_
  6
CONTINUOUS
 62
    2
 10
585.85347842171666
 20
50.530228126051384
 11
590.25347842171675
 21
50.530228126051384
  0
LINE
  8
_0-0_
  6
CONTINUOUS
 62
    2
 10
468.69460496248087
 20
51.330228126051111
 11
489.49542693193337
 21
51.330228126051111
  0
LINE
  8
_0-0_
  6
CONTINUOUS
 62
    2
 10
494.88658783912763
 20
51.330228126051111
 11
500.08658783912745
 21
51.330228126051111
  0
LINE
  8
_0-0_
  6
CONTINUOUS
 62
    2
 10
510.72944859340066
 20
51.330228126051111
 11
516.43464818975235
 21
51.330228126051111
  0
LINE
  8
_0-0_
  6
CONTINUOUS
 62
    2
 10
525.3070795593934
 20
51.330228126051111
 11
530.50707955939333
 21
51.330228126051111
  0
LINE
  8
_0-0_
  6
CONTINUOUS
 62
    2
 10
530.73537837537492
 20
51.330228126051111
 11
535.93537837537508
 21
51.330228126051111
  0
LINE
  8
_0-0_
  6
CONTINUOUS
 62
    2
 10
539.93537837537508
 20
51.330228126051111
 11
561.31809765769469
 21
51.330228126051111
  0
LINE
  8
_0-0_
  6
CONTINUOUS
 62
    2
 10
566.33844091121739
 20
51.330228126051111
 11
571.53844091121732
 21
51.330228126051111
  0
LINE
  8
_0-0_
  6
CONTINUOUS
 62
    2
 10
579.7867163564207
 20
51.330228126051111
 11
584.97510133121375
 21
51.330228126051111
  0
LINE
  8
_0-0_
  6
CONTINUOUS
 62
    2
 10
585.85347842171666
 20
51.330228126051111
 11
590.25347842171675
 21
51.330228126051111
  0
LINE
  8
_0-0_
  6
CONTINUOUS
 62
    2
 10
469.06765108900493
 20
52.130228126051065
 11
489.12238080540931
 21
52.130228126051065
  0
LINE
  8
_0-0_
  6
CONTINUOUS
 62
    2
 10
494.88658783912763
 20
52.130228126051065
 11
500.08658783912745
 21
52.130228126051065
  0
LINE
  8
_0-0_
  6
CONTINUOUS
 62
    2
 10
511.27976613128715
 20
52.130228126051065
 11
516.65135962731449
 21
52.130228126051065
  0
LINE
  8
_0-0_
  6
CONTINUOUS
 62
    2
 10
524.93403343286946
 20
52.130228126051065
 11
530.13403343286927
 21
52.130228126051065
  0
LINE
  8
_0-0_
  6
CONTINUOUS
 62
    2
 10
531.10842450189887
 20
52.130228126051065
 11
536.3084245018988
 21
52.130228126051065
  0
LINE
  8
_0-0_
  6
CONTINUOUS
 62
    2
 10
540.30842450189914
 20
52.130228126051065
 11
560.94505153117063
 21
52.130228126051065
  0
LINE
  8
_0-0_
  6
CONTINUOUS
 62
    2
 10
566.33844091121739
 20
52.130228126051065
 11
571.53844091121732
 21
52.130228126051065
  0
LINE
  8
_0-0_
  6
CONTINUOUS
 62
    2
 10
579.28682087489312
 20
52.130228126051065
 11
584.4752058496864
 21
52.130228126051065
  0
LINE
  8
_0-0_
  6
CONTINUOUS
 62
    2
 10
585.85347842171666
 20
52.130228126051065
 11
590.25347842171675
 21
52.130228126051065
  0
LINE
  8
_0-0_
  6
CONTINUOUS
 62
    2
 10
469.44069721552876
 20
52.930228126051247
 11
488.74933467888525
 21
52.930228126051247
  0
LINE
  8
_0-0_
  6
CONTINUOUS
 62
    2
 10
494.88658783912763
 20
52.930228126051247
 11
500.08658783912745
 21
52.930228126051247
  0
LINE
  8
_0-0_
  6
CONTINUOUS
 62
    2
 10
511.62758197376218
 20
52.930228126051247
 11
516.84017438692001
 21
52.930228126051247
  0
LINE
  8
_0-0_
  6
CONTINUOUS
 62
    2
 10
524.5609873063454
 20
52.930228126051247
 11
529.76098730634521
 21
52.930228126051247
  0
LINE
  8
_0-0_
  6
CONTINUOUS
 62
    2
 10
531.48147062842293
 20
52.930228126051247
 11
536.68147062842286
 21
52.930228126051247
  0
LINE
  8
_0-0_
  6
CONTINUOUS
 62
    2
 10
540.68147062842297
 20
52.930228126051247
 11
560.57200540464657
 21
52.930228126051247
  0
LINE
  8
_0-0_
  6
CONTINUOUS
 62
    2
 10
566.33844091121739
 20
52.930228126051247
 11
571.53844091121732
 21
52.930228126051247
  0
LINE
  8
_0-0_
  6
CONTINUOUS
 62
    2
 10
578.78692539336578
 20
52.930228126051247
 11
583.97531036815906
 21
52.930228126051247
  0
LINE
  8
_0-0_
  6
CONTINUOUS
 62
    2
 10
585.85347842171666
 20
52.930228126051247
 11
590.25347842171675
 21
52.930228126051247
  0
LINE
  8
_0-0_
  6
CONTINUOUS
 62
    2
 10
469.81374334205282
 20
53.730228126051429
 11
488.37628855236119
 21
53.730228126051429
  0
LINE
  8
_0-0_
  6
CONTINUOUS
 62
    2
 10
494.88658783912763
 20
53.730228126051429
 11
500.08658783912745
 21
53.730228126051429
  0
LINE
  8
_0-0_
  6
CONTINUOUS
 62
    2
 10
511.84465714129237
 20
53.730228126051429
 11
516.9943762654251
 21
53.730228126051429
  0
LINE
  8
_0-0_
  6
CONTINUOUS
 62
    2
 10
524.18794117982134
 20
53.730228126051429
 11
529.3879411798215
 21
53.730228126051429
  0
LINE
  8
_0-0_
  6
CONTINUOUS
 62
    2
 10
531.85451675494699
 20
53.730228126051429
 11
537.05451675494692
 21
53.730228126051429
  0
LINE
  8
_0-0_
  6
CONTINUOUS
 62
    2
 10
541.05451675494703
 20
53.730228126051429
 11
560.19895927812252
 21
53.730228126051429
  0
LINE
  8
_0-0_
  6
CONTINUOUS
 62
    2
 10
566.33844091121739
 20
53.730228126051429
 11
571.53844091121732
 21
53.730228126051429
  0
LINE
  8
_0-0_
  6
CONTINUOUS
 62
    2
 10
578.28702991183809
 20
53.730228126051429
 11
583.47541488663148
 21
53.730228126051429
  0
LINE
  8
_0-0_
  6
CONTINUOUS
 62
    2
 10
585.85347842171666
 20
53.730228126051429
 11
590.25347842171675
 21
53.730228126051429
  0
LINE
  8
_0-0_
  6
CONTINUOUS
 62
    2
 10
470.18678946857665
 20
54.530228126051384
 11
488.00324242583736
 21
54.530228126051384
  0
LINE
  8
_0-0_
  6
CONTINUOUS
 62
    2
 10
494.88658783912763
 20
54.530228126051384
 11
500.08658783912745
 21
54.530228126051384
  0
LINE
  8
_0-0_
  6
CONTINUOUS
 62
    2
 10
511.97656164530986
 20
54.530228126051384
 11
517.11562553014778
 21
54.530228126051384
  0
LINE
  8
_0-0_
  6
CONTINUOUS
 62
    2
 10
523.81489505329728
 20
54.530228126051384
 11
529.01489505329755
 21
54.530228126051384
  0
LINE
  8
_0-0_
  6
CONTINUOUS
 62
    2
 10
532.22756288147104
 20
54.530228126051384
 11
537.42756288147086
 21
54.530228126051384
  0
LINE
  8
_0-0_
  6
CONTINUOUS
 62
    2
 10
541.42756288147075
 20
54.530228126051384
 11
559.82591315159857
 21
54.530228126051384
  0
LINE
  8
_0-0_
  6
CONTINUOUS
 62
    2
 10
566.33844091121739
 20
54.530228126051384
 11
571.53844091121732
 21
54.530228126051384
  0
LINE
  8
_0-0_
  6
CONTINUOUS
 62
    2
 10
577.78713443031086
 20
54.530228126051384
 11
582.9755194051038
 21
54.530228126051384
  0
LINE
  8
_0-0_
  6
CONTINUOUS
 62
    2
 10
585.85347842171666
 20
54.530228126051384
 11
590.25347842171675
 21
54.530228126051384
  0
LINE
  8
_0-0_
  6
CONTINUOUS
 62
    2
 10
470.55983559510071
 20
55.330228126051338
 11
475.75983559510098
 21
55.330228126051338
  0
LINE
  8
_0-0_
  6
CONTINUOUS
 62
    2
 10
482.43019629931325
 20
55.330228126051338
 11
487.6301962993133
 21
55.330228126051338
  0
LINE
  8
_0-0_
  6
CONTINUOUS
 62
    2
 10
494.88658783912763
 20
55.330228126051338
 11
500.08658783912745
 21
55.330228126051338
  0
LINE
  8
_0-0_
  6
CONTINUOUS
 62
    2
 10
512.04419244056419
 20
55.330228126051338
 11
517.20422499676113
 21
55.330228126051338
  0
LINE
  8
_0-0_
  6
CONTINUOUS
 62
    2
 10
523.44184892677322
 20
55.330228126051338
 11
528.64184892677349
 21
55.330228126051338
  0
LINE
  8
_0-0_
  6
CONTINUOUS
 62
    2
 10
532.6006090079951
 20
55.330228126051338
 11
537.80060900799492
 21
55.330228126051338
  0
LINE
  8
_0-0_
  6
CONTINUOUS
 62
    2
 10
541.80060900799481
 20
55.330228126051338
 11
547.00060900799497
 21
55.330228126051338
  0
LINE
  8
_0-0_
  6
CONTINUOUS
 62
    2
 10
554.25286702507458
 20
55.330228126051338
 11
559.45286702507451
 21
55.330228126051338
  0
LINE
  8
_0-0_
  6
CONTINUOUS
 62
    2
 10
566.33844091121739
 20
55.330228126051338
 11
571.53844091121732
 21
55.330228126051338
  0
LINE
  8
_0-0_
  6
CONTINUOUS
 62
    2
 10
577.28723894878328
 20
55.330228126051338
 11
582.47562392357656
 21
55.330228126051338
  0
LINE
  8
_0-0_
  6
CONTINUOUS
 62
    2
 10
585.85347842171666
 20
55.330228126051338
 11
590.25347842171675
 21
55.330228126051338
  0
LINE
  8
_0-0_
  6
CONTINUOUS
 62
    2
 10
470.93288172162477
 20
56.130228126051293
 11
476.13288172162481
 21
56.130228126051293
  0
LINE
  8
_0-0_
  6
CONTINUOUS
 62
    2
 10
482.05715017278919
 20
56.130228126051293
 11
487.25715017278947
 21
56.130228126051293
  0
LINE
  8
_0-0_
  6
CONTINUOUS
 62
    2
 10
494.88658783912763
 20
56.130228126051293
 11
500.08658783912745
 21
56.130228126051293
  0
LINE
  8
_0-0_
  6
CONTINUOUS
 62
    2
 10
512.07426749142701
 20
56.130228126051293
 11
517.25952082192555
 21
56.130228126051293
  0
LINE
  8
_0-0_
  6
CONTINUOUS
 62
    2
 10
523.0688028002495
 20
56.130228126051293
 11
528.26880280024943
 21
56.130228126051293
  0
LINE
  8
_0-0_
  6
CONTINUOUS
 62
    2
 10
532.97365513451882
 20
56.130228126051293
 11
538.17365513451898
 21
56.130228126051293
  0
LINE
  8
_0-0_
  6
CONTINUOUS
 62
    2
 10
542.17365513451887
 20
56.130228126051293
 11
547.37365513451903
 21
56.130228126051293
  0
LINE
  8
_0-0_
  6
CONTINUOUS
 62
    2
 10
553.87982089855063
 20
56.130228126051293
 11
559.07982089855079
 21
56.130228126051293
  0
LINE
  8
_0-0_
  6
CONTINUOUS
 62
    2
 10
566.33844091121739
 20
56.130228126051293
 11
571.53844091121732
 21
56.130228126051293
  0
LINE
  8
_0-0_
  6
CONTINUOUS
 62
    2
 10
576.78734346725582
 20
56.130228126051293
 11
581.97572844204899
 21
56.130228126051293
  0
LINE
  8
_0-0_
  6
CONTINUOUS
 62
    2
 10
585.85347842171666
 20
56.130228126051293
 11
590.25347842171675
 21
56.130228126051293
  0
LINE
  8
_0-0_
  6
CONTINUOUS
 62
    2
 10
471.30592784814883
 20
56.930228126050793
 11
476.50592784814887
 21
56.930228126050793
  0
LINE
  8
_0-0_
  6
CONTINUOUS
 62
    2
 10
481.68410404626513
 20
56.930228126050793
 11
486.88410404626541
 21
56.930228126050793
  0
LINE
  8
_0-0_
  6
CONTINUOUS
 62
    2
 10
494.88658783912763
 20
56.930228126050793
 11
500.08658783912745
 21
56.930228126050793
  0
LINE
  8
_0-0_
  6
CONTINUOUS
 62
    2
 10
512.08611001512259
 20
56.930228126050793
 11
517.28529227804677
 21
56.930228126050793
  0
LINE
  8
_0-0_
  6
CONTINUOUS
 62
    2
 10
522.69575667372544
 20
56.930228126050793
 11
527.89575667372537
 21
56.930228126050793
  0
LINE
  8
_0-0_
  6
CONTINUOUS
 62
    2
 10
533.34670126104288
 20
56.930228126050793
 11
538.54670126104304
 21
56.930228126050793
  0
LINE
  8
_0-0_
  6
CONTINUOUS
 62
    2
 10
542.54670126104293
 20
56.930228126050793
 11
547.74670126104309
 21
56.930228126050793
  0
LINE
  8
_0-0_
  6
CONTINUOUS
 62
    2
 10
553.50677477202657
 20
56.930228126050793
 11
558.70677477202673
 21
56.930228126050793
  0
LINE
  8
_0-0_
  6
CONTINUOUS
 62
    2
 10
566.33844091121739
 20
56.930228126050793
 11
571.53844091121732
 21
56.930228126050793
  0
LINE
  8
_0-0_
  6
CONTINUOUS
 62
    2
 10
576.28744798572836
 20
56.930228126050793
 11
581.47583296052153
 21
56.930228126050793
  0
LINE
  8
_0-0_
  6
CONTINUOUS
 62
    2
 10
585.85347842171666
 20
56.930228126050793
 11
590.25347842171675
 21
56.930228126050793
  0
LINE
  8
_0-0_
  6
CONTINUOUS
 62
    2
 10
471.67897397467289
 20
57.730228126051657
 11
476.8789739746727
 21
57.730228126051657
  0
LINE
  8
_0-0_
  6
CONTINUOUS
 62
    2
 10
481.3110579197413
 20
57.730228126051657
 11
486.51105791974135
 21
57.730228126051657
  0
LINE
  8
_0-0_
  6
CONTINUOUS
 62
    2
 10
494.88658783912763
 20
57.730228126051657
 11
500.08658783912745
 21
57.730228126051657
  0
LINE
  8
_0-0_
  6
CONTINUOUS
 62
    2
 10
512.07966776721071
 20
57.730228126051657
 11
517.26905774836086
 21
57.730228126051657
  0
LINE
  8
_0-0_
  6
CONTINUOUS
 62
    2
 10
522.3227105472015
 20
57.730228126051657
 11
527.52271054720131
 21
57.730228126051657
  0
LINE
  8
_0-0_
  6
CONTINUOUS
 62
    2
 10
533.71974738756694
 20
57.730228126051657
 11
538.9197473875671
 21
57.730228126051657
  0
LINE
  8
_0-0_
  6
CONTINUOUS
 62
    2
 10
542.91974738756699
 20
57.730228126051657
 11
548.1197473875668
 21
57.730228126051657
  0
LINE
  8
_0-0_
  6
CONTINUOUS
 62
    2
 10
553.13372864550286
 20
57.730228126051657
 11
558.33372864550267
 21
57.730228126051657
  0
LINE
  8
_0-0_
  6
CONTINUOUS
 62
    2
 10
566.33844091121739
 20
57.730228126051657
 11
571.53844091121732
 21
57.730228126051657
  0
LINE
  8
_0-0_
  6
CONTINUOUS
 62
    2
 10
575.78755250420102
 20
57.730228126051657
 11
580.97593747899407
 21
57.730228126051657
  0
LINE
  8
_0-0_
  6
CONTINUOUS
 62
    2
 10
585.85347842171666
 20
57.730228126051657
 11
590.25347842171675
 21
57.730228126051657
  0
LINE
  8
_0-0_
  6
CONTINUOUS
 62
    2
 10
472.05202010119694
 20
58.530228126051156
 11
477.25202010119676
 21
58.530228126051156
  0
LINE
  8
_0-0_
  6
CONTINUOUS
 62
    2
 10
480.93801179321747
 20
58.530228126051156
 11
486.13801179321729
 21
58.530228126051156
  0
LINE
  8
_0-0_
  6
CONTINUOUS
 62
    2
 10
494.88658783912763
 20
58.530228126051156
 11
500.08658783912745
 21
58.530228126051156
  0
LINE
  8
_0-0_
  6
CONTINUOUS
 62
    2
 10
512.05559805129872
 20
58.530228126051156
 11
517.22233697576178
 21
58.530228126051156
  0
LINE
  8
_0-0_
  6
CONTINUOUS
 62
    2
 10
521.94966442067744
 20
58.530228126051156
 11
527.14966442067725
 21
58.530228126051156
  0
LINE
  8
_0-0_
  6
CONTINUOUS
 62
    2
 10
534.09279351409089
 20
58.530228126051156
 11
539.29279351409082
 21
58.530228126051156
  0
LINE
  8
_0-0_
  6
CONTINUOUS
 62
    2
 10
543.29279351409104
 20
58.530228126051156
 11
548.49279351409086
 21
58.530228126051156
  0
LINE
  8
_0-0_
  6
CONTINUOUS
 62
    2
 10
552.7606825189788
 20
58.530228126051156
 11
557.96068251897862
 21
58.530228126051156
  0
LINE
  8
_0-0_
  6
CONTINUOUS
 62
    2
 10
566.33844091121739
 20
58.530228126051156
 11
571.53844091121732
 21
58.530228126051156
  0
LINE
  8
_0-0_
  6
CONTINUOUS
 62
    2
 10
575.28765702267344
 20
58.530228126051156
 11
580.47604199746672
 21
58.530228126051156
  0
LINE
  8
_0-0_
  6
CONTINUOUS
 62
    2
 10
585.85347842171666
 20
58.530228126051156
 11
590.25347842171675
 21
58.530228126051156
  0
LINE
  8
_0-0_
  6
CONTINUOUS
 62
    2
 10
472.42506622772078
 20
59.330228126051338
 11
477.62506622772082
 21
59.330228126051338
  0
LINE
  8
_0-0_
  6
CONTINUOUS
 62
    2
 10
480.56496566669341
 20
59.330228126051338
 11
485.76496566669323
 21
59.330228126051338
  0
LINE
  8
_0-0_
  6
CONTINUOUS
 62
    2
 10
494.88658783912763
 20
59.330228126051338
 11
500.08658783912745
 21
59.330228126051338
  0
LINE
  8
_0-0_
  6
CONTINUOUS
 62
    2
 10
511.99173527457799
 20
59.330228126051338
 11
517.14160958208413
 21
59.330228126051338
  0
LINE
  8
_0-0_
  6
CONTINUOUS
 62
    2
 10
521.57661829415338
 20
59.330228126051338
 11
526.77661829415354
 21
59.330228126051338
  0
LINE
  8
_0-0_
  6
CONTINUOUS
 62
    2
 10
534.46583964061494
 20
59.330228126051338
 11
539.66583964061488
 21
59.330228126051338
  0
LINE
  8
_0-0_
  6
CONTINUOUS
 62
    2
 10
543.66583964061499
 20
59.330228126051338
 11
548.86583964061492
 21
59.330228126051338
  0
LINE
  8
_0-0_
  6
CONTINUOUS
 62
    2
 10
552.38763639245474
 20
59.330228126051338
 11
557.58763639245478
 21
59.330228126051338
  0
LINE
  8
_0-0_
  6
CONTINUOUS
 62
    2
 10
566.33844091121739
 20
59.330228126051338
 11
571.53844091121732
 21
59.330228126051338
  0
LINE
  8
_0-0_
  6
CONTINUOUS
 62
    2
 10
574.7877615411461
 20
59.330228126051338
 11
579.97614651593915
 21
59.330228126051338
  0
LINE
  8
_0-0_
  6
CONTINUOUS
 62
    2
 10
585.85347842171666
 20
59.330228126051338
 11
590.25347842171675
 21
59.330228126051338
  0
LINE
  8
_0-0_
  6
CONTINUOUS
 62
    2
 10
472.79811235424484
 20
60.130228126051293
 11
477.99811235424488
 21
60.130228126051293
  0
LINE
  8
_0-0_
  6
CONTINUOUS
 62
    2
 10
480.19191954016935
 20
60.130228126051293
 11
485.3919195401694
 21
60.130228126051293
  0
LINE
  8
_0-0_
  6
CONTINUOUS
 62
    2
 10
494.88658783912763
 20
60.130228126051293
 11
500.08658783912745
 21
60.130228126051293
  0
LINE
  8
_0-0_
  6
CONTINUOUS
 62
    2
 10
511.8753687064592
 20
60.130228126051293
 11
517.02415988095902
 21
60.130228126051293
  0
LINE
  8
_0-0_
  6
CONTINUOUS
 62
    2
 10
521.20357216762932
 20
60.130228126051293
 11
526.40357216762948
 21
60.130228126051293
  0
LINE
  8
_0-0_
  6
CONTINUOUS
 62
    2
 10
534.838885767139
 20
60.130228126051293
 11
540.03888576713882
 21
60.130228126051293
  0
LINE
  8
_0-0_
  6
CONTINUOUS
 62
    2
 10
544.03888576713871
 20
60.130228126051293
 11
549.23888576713898
 21
60.130228126051293
  0
LINE
  8
_0-0_
  6
CONTINUOUS
 62
    2
 10
552.01459026593068
 20
60.130228126051293
 11
557.21459026593072
 21
60.130228126051293
  0
LINE
  8
_0-0_
  6
CONTINUOUS
 62
    2
 10
566.33844091121739
 20
60.130228126051293
 11
571.53844091121732
 21
60.130228126051293
  0
LINE
  8
_0-0_
  6
CONTINUOUS
 62
    2
 10
574.28786605961852
 20
60.130228126051293
 11
579.4762510344118
 21
60.130228126051293
  0
LINE
  8
_0-0_
  6
CONTINUOUS
 62
    2
 10
585.85347842171666
 20
60.130228126051293
 11
590.25347842171675
 21
60.130228126051293
  0
LINE
  8
_0-0_
  6
CONTINUOUS
 62
    2
 10
473.17115848076867
 20
60.930228126051247
 11
478.37115848076894
 21
60.930228126051247
  0
LINE
  8
_0-0_
  6
CONTINUOUS
 62
    2
 10
479.81887341364529
 20
60.930228126051247
 11
485.01887341364534
 21
60.930228126051247
  0
LINE
  8
_0-0_
  6
CONTINUOUS
 62
    2
 10
494.88658783912763
 20
60.930228126051247
 11
500.08658783912745
 21
60.930228126051247
  0
LINE
  8
_0-0_
  6
CONTINUOUS
 62
    2
 10
511.6814876936204
 20
60.930228126051247
 11
516.87477108400265
 21
60.930228126051247
  0
LINE
  8
_0-0_
  6
CONTINUOUS
 62
    2
 10
520.83052604110526
 20
60.930228126051247
 11
526.03052604110542
 21
60.930228126051247
  0
LINE
  8
_0-0_
  6
CONTINUOUS
 62
    2
 10
535.21193189366306
 20
60.930228126051247
 11
540.41193189366288
 21
60.930228126051247
  0
LINE
  8
_0-0_
  6
CONTINUOUS
 62
    2
 10
544.41193189366277
 20
60.930228126051247
 11
549.61193189366304
 21
60.930228126051247
  0
LINE
  8
_0-0_
  6
CONTINUOUS
 62
    2
 10
551.64154413940662
 20
60.930228126051247
 11
556.84154413940666
 21
60.930228126051247
  0
LINE
  8
_0-0_
  6
CONTINUOUS
 62
    2
 10
566.33844091121739
 20
60.930228126051247
 11
571.53844091121732
 21
60.930228126051247
  0
LINE
  8
_0-0_
  6
CONTINUOUS
 62
    2
 10
573.78797057809095
 20
60.930228126051247
 11
578.97635555288423
 21
60.930228126051247
  0
LINE
  8
_0-0_
  6
CONTINUOUS
 62
    2
 10
585.85347842171666
 20
60.930228126051247
 11
590.25347842171675
 21
60.930228126051247
  0
LINE
  8
_0-0_
  6
CONTINUOUS
 62
    2
 10
473.54420460729273
 20
61.730228126051657
 11
478.74420460729277
 21
61.730228126051657
  0
LINE
  8
_0-0_
  6
CONTINUOUS
 62
    2
 10
479.44582728712123
 20
61.730228126051657
 11
484.64582728712128
 21
61.730228126051657
  0
LINE
  8
_0-0_
  6
CONTINUOUS
 62
    2
 10
494.88658783912763
 20
61.730228126051657
 11
500.08658783912745
 21
61.730228126051657
  0
LINE
  8
_0-0_
  6
CONTINUOUS
 62
    2
 10
511.36800020477926
 20
61.730228126051657
 11
516.69391366752291
 21
61.730228126051657
  0
LINE
  8
_0-0_
  6
CONTINUOUS
 62
    2
 10
520.45747991458154
 20
61.730228126051657
 11
525.65747991458159
 21
61.730228126051657
  0
LINE
  8
_0-0_
  6
CONTINUOUS
 62
    2
 10
535.58497802018712
 20
61.730228126051657
 11
540.78497802018694
 21
61.730228126051657
  0
LINE
  8
_0-0_
  6
CONTINUOUS
 62
    2
 10
544.78497802018683
 20
61.730228126051657
 11
549.98497802018699
 21
61.730228126051657
  0
LINE
  8
_0-0_
  6
CONTINUOUS
 62
    2
 10
551.26849801288279
 20
61.730228126051657
 11
556.46849801288272
 21
61.730228126051657
  0
LINE
  8
_0-0_
  6
CONTINUOUS
 62
    2
 10
566.33844091121739
 20
61.730228126051657
 11
571.53844091121732
 21
61.730228126051657
  0
LINE
  8
_0-0_
  6
CONTINUOUS
 62
    2
 10
573.28807509656349
 20
61.730228126051657
 11
578.47646007135688
 21
61.730228126051657
  0
LINE
  8
_0-0_
  6
CONTINUOUS
 62
    2
 10
585.85347842171666
 20
61.730228126051657
 11
590.25347842171675
 21
61.730228126051657
  0
LINE
  8
_0-0_
  6
CONTINUOUS
 62
    2
 10
473.91725073381679
 20
62.530228126051156
 11
484.27278116059745
 21
62.530228126051156
  0
LINE
  8
_0-0_
  6
CONTINUOUS
 62
    2
 10
494.88658783912763
 20
62.530228126051156
 11
500.08658783912745
 21
62.530228126051156
  0
LINE
  8
_0-0_
  6
CONTINUOUS
 62
    2
 10
510.88658783912751
 20
62.530228126051156
 11
516.48658783912742
 21
62.530228126051156
  0
LINE
  8
_0-0_
  6
CONTINUOUS
 62
    2
 10
520.08443378805748
 20
62.530228126051156
 11
525.28443378805753
 21
62.530228126051156
  0
LINE
  8
_0-0_
  6
CONTINUOUS
 62
    2
 10
535.95802414671095
 20
62.530228126051156
 11
541.158024146711
 21
62.530228126051156
  0
LINE
  8
_0-0_
  6
CONTINUOUS
 62
    2
 10
545.15802414671089
 20
62.530228126051156
 11
550.3580241467107
 21
62.530228126051156
  0
LINE
  8
_0-0_
  6
CONTINUOUS
 62
    2
 10
550.89545188635873
 20
62.530228126051156
 11
556.09545188635866
 21
62.530228126051156
  0
LINE
  8
_0-0_
  6
CONTINUOUS
 62
    2
 10
566.33844091121739
 20
62.530228126051156
 11
571.53844091121732
 21
62.530228126051156
  0
LINE
  8
_0-0_
  6
CONTINUOUS
 62
    2
 10
572.78817961503626
 20
62.530228126051156
 11
577.9765645898292
 21
62.530228126051156
  0
LINE
  8
_0-0_
  6
CONTINUOUS
 62
    2
 10
585.85347842171666
 20
62.530228126051156
 11
590.25347842171675
 21
62.530228126051156
  0
LINE
  8
_0-0_
  6
CONTINUOUS
 62
    2
 10
474.29029686034085
 20
63.330228126051338
 11
483.89973503407339
 21
63.330228126051338
  0
LINE
  8
_0-0_
  6
CONTINUOUS
 62
    2
 10
494.88658783912763
 20
63.330228126051338
 11
500.08658783912745
 21
63.330228126051338
  0
LINE
  8
_0-0_
  6
CONTINUOUS
 62
    2
 10
510.03678773072897
 20
63.330228126051338
 11
516.23538233161878
 21
63.330228126051338
  0
LINE
  8
_0-0_
  6
CONTINUOUS
 62
    2
 10
519.71138766153342
 20
63.330228126051338
 11
524.91138766153347
 21
63.330228126051338
  0
LINE
  8
_0-0_
  6
CONTINUOUS
 62
    2
 10
536.33107027323501
 20
63.330228126051338
 11
541.53107027323506
 21
63.330228126051338
  0
LINE
  8
_0-0_
  6
CONTINUOUS
 62
    2
 10
545.53107027323495
 20
63.330228126051338
 11
555.7224057598346
 21
63.330228126051338
  0
LINE
  8
_0-0_
  6
CONTINUOUS
 62
    2
 10
566.33844091121739
 20
63.330228126051338
 11
571.53844091121732
 21
63.330228126051338
  0
LINE
  8
_0-0_
  6
CONTINUOUS
 62
    2
 10
572.28828413350868
 20
63.330228126051338
 11
577.47666910830196
 21
63.330228126051338
  0
LINE
  8
_0-0_
  6
CONTINUOUS
 62
    2
 10
585.85347842171666
 20
63.330228126051338
 11
590.25347842171675
 21
63.330228126051338
  0
LINE
  8
_0-0_
  6
CONTINUOUS
 62
    2
 10
474.6633429868649
 20
64.130228126051065
 11
483.52668890754933
 21
64.130228126051065
  0
LINE
  8
_0-0_
  6
CONTINUOUS
 62
    2
 10
494.88658783912763
 20
64.130228126051065
 11
500.08658783912745
 21
64.130228126051065
  0
LINE
  8
_0-0_
  6
CONTINUOUS
 62
    2
 10
508.80524993806193
 20
64.130228126051065
 11
515.90313585554588
 21
64.130228126051065
  0
LINE
  8
_0-0_
  6
CONTINUOUS
 62
    2
 10
519.33834153500959
 20
64.130228126051065
 11
524.53834153500941
 21
64.130228126051065
  0
LINE
  8
_0-0_
  6
CONTINUOUS
 62
    2
 10
536.70411639975873
 20
64.130228126051065
 11
541.90411639975912
 21
64.130228126051065
  0
LINE
  8
_0-0_
  6
CONTINUOUS
 62
    2
 10
545.90411639975889
 20
64.130228126051065
 11
555.34935963331054
 21
64.130228126051065
  0
LINE
  8
_0-0_
  6
CONTINUOUS
 62
    2
 10
566.33844091121739
 20
64.130228126051065
 11
571.53844091121732
 21
64.130228126051065
  0
LINE
  8
_0-0_
  6
CONTINUOUS
 62
    2
 10
571.78838865198122
 20
64.130228126051065
 11
576.97677362677439
 21
64.130228126051065
  0
LINE
  8
_0-0_
  6
CONTINUOUS
 62
    2
 10
585.85347842171666
 20
64.130228126051065
 11
590.25347842171675
 21
64.130228126051065
  0
LINE
  8
_0-0_
  6
CONTINUOUS
 62
    2
 10
475.03638911338896
 20
64.930228126051247
 11
483.15364278102527
 21
64.930228126051247
  0
LINE
  8
_0-0_
  6
CONTINUOUS
 62
    2
 10
494.88658783912763
 20
64.930228126051247
 11
515.41081162181752
 21
64.930228126051247
  0
LINE
  8
_0-0_
  6
CONTINUOUS
 62
    2
 10
518.96529540848553
 20
64.930228126051247
 11
524.16529540848535
 21
64.930228126051247
  0
LINE
  8
_0-0_
  6
CONTINUOUS
 62
    2
 10
537.07716252628279
 20
64.930228126051247
 11
542.27716252628295
 21
64.930228126051247
  0
LINE
  8
_0-0_
  6
CONTINUOUS
 62
    2
 10
546.27716252628295
 20
64.930228126051247
 11
554.97631350678648
 21
64.930228126051247
  0
LINE
  8
_0-0_
  6
CONTINUOUS
 62
    2
 10
566.33844091121739
 20
64.930228126051247
 11
576.47687814524693
 21
64.930228126051247
  0
LINE
  8
_0-0_
  6
CONTINUOUS
 62
    2
 10
585.85347842171666
 20
64.930228126051247
 11
590.25347842171675
 21
64.930228126051247
  0
LINE
  8
_0-0_
  6
CONTINUOUS
 62
    2
 10
475.4094352399128
 20
65.730228126051429
 11
482.78059665450121
 21
65.730228126051429
  0
LINE
  8
_0-0_
  6
CONTINUOUS
 62
    2
 10
494.88658783912763
 20
65.730228126051429
 11
514.65416708083558
 21
65.730228126051429
  0
LINE
  8
_0-0_
  6
CONTINUOUS
 62
    2
 10
518.59224928196147
 20
65.730228126051429
 11
523.7922492819614
 21
65.730228126051429
  0
LINE
  8
_0-0_
  6
CONTINUOUS
 62
    2
 10
537.45020865280685
 20
65.730228126051429
 11
542.65020865280701
 21
65.730228126051429
  0
LINE
  8
_0-0_
  6
CONTINUOUS
 62
    2
 10
546.65020865280701
 20
65.730228126051429
 11
554.60326738026242
 21
65.730228126051429
  0
LINE
  8
_0-0_
  6
CONTINUOUS
 62
    2
 10
566.33844091121739
 20
65.730228126051429
 11
575.97698266371947
 21
65.730228126051429
  0
LINE
  8
_0-0_
  6
CONTINUOUS
 62
    2
 10
585.85347842171666
 20
65.730228126051429
 11
590.25347842171675
 21
65.730228126051429
  0
LINE
  8
_0-0_
  6
CONTINUOUS
 62
    2
 10
475.78248136643663
 20
66.530228126051156
 11
482.40755052797738
 21
66.530228126051156
  0
LINE
  8
_0-0_
  6
CONTINUOUS
 62
    2
 10
494.88658783912763
 20
66.530228126051156
 11
513.54310363468483
 21
66.530228126051156
  0
LINE
  8
_0-0_
  6
CONTINUOUS
 62
    2
 10
518.21920315543741
 20
66.530228126051156
 11
523.41920315543734
 21
66.530228126051156
  0
LINE
  8
_0-0_
  6
CONTINUOUS
 62
    2
 10
537.82325477933091
 20
66.530228126051156
 11
543.02325477933073
 21
66.530228126051156
  0
LINE
  8
_0-0_
  6
CONTINUOUS
 62
    2
 10
547.02325477933084
 20
66.530228126051156
 11
554.2302212537387
 21
66.530228126051156
  0
LINE
  8
_0-0_
  6
CONTINUOUS
 62
    2
 10
566.33844091121739
 20
66.530228126051156
 11
575.47708718219212
 21
66.530228126051156
  0
LINE
  8
_0-0_
  6
CONTINUOUS
 62
    2
 10
585.85347842171666
 20
66.530228126051156
 11
590.25347842171675
 21
66.530228126051156
  0
LINE
  8
_0-0_
  6
CONTINUOUS
 62
    2
 10
476.15552749296069
 20
67.330228126050883
 11
482.03450440145332
 21
67.330228126050883
  0
LINE
  8
_0-0_
  6
CONTINUOUS
 62
    2
 10
494.88658783912763
 20
67.330228126050883
 11
511.93883984221168
 21
67.330228126050883
  0
LINE
  8
_0-0_
  6
CONTINUOUS
 62
    2
 10
517.84615702891335
 20
67.330228126050883
 11
523.04615702891363
 21
67.330228126050883
  0
LINE
  8
_0-0_
  6
CONTINUOUS
 62
    2
 10
538.19630090585497
 20
67.330228126050883
 11
543.39630090585479
 21
67.330228126050883
  0
LINE
  8
_0-0_
  6
CONTINUOUS
 62
    2
 10
547.3963009058549
 20
67.330228126050883
 11
553.85717512721465
 21
67.330228126050883
  0
LINE
  8
_0-0_
  6
CONTINUOUS
 62
    2
 10
566.33844091121739
 20
67.330228126050883
 11
574.97719170066455
 21
67.330228126050883
  0
LINE
  8
_0-0_
  6
CONTINUOUS
 62
    2
 10
585.85347842171666
 20
67.330228126050883
 11
590.25347842171675
 21
67.330228126050883
  0
LINE
  8
_0-0_
  6
CONTINUOUS
 62
    2
 10
476.52857361948475
 20
68.130228126051065
 11
481.66145827492949
 21
68.130228126051065
  0
LINE
  8
_0-0_
  6
CONTINUOUS
 62
    2
 10
494.88658783912763
 20
68.130228126051065
 11
509.58525716367421
 21
68.130228126051065
  0
LINE
  8
_0-0_
  6
CONTINUOUS
 62
    2
 10
517.47311090238941
 20
68.130228126051065
 11
522.67311090238957
 21
68.130228126051065
  0
LINE
  8
_0-0_
  6
CONTINUOUS
 62
    2
 10
538.56934703237903
 20
68.130228126051065
 11
543.76934703237885
 21
68.130228126051065
  0
LINE
  8
_0-0_
  6
CONTINUOUS
 62
    2
 10
547.76934703237896
 20
68.130228126051065
 11
553.4841290006907
 21
68.130228126051065
  0
LINE
  8
_0-0_
  6
CONTINUOUS
 62
    2
 10
566.33844091121739
 20
68.130228126051065
 11
574.4772962191372
 21
68.130228126051065
  0
LINE
  8
_0-0_
  6
CONTINUOUS
 62
    2
 10
585.85347842171666
 20
68.130228126051065
 11
590.25347842171675
 21
68.130228126051065
  0
LINE
  8
_0-0_
  6
CONTINUOUS
 62
    7
 10
422.75153672040835
 20
46.005966998549752
 11
439.56693592920044
 21
46.005966998549752
  0
LINE
  8
_0-0_
  6
CONTINUOUS
 62
    7
 10
422.75153672040835
 20
46.405966998549843
 11
439.56693592920044
 21
46.405966998549843
  0
LINE
  8
_0-0_
  6
CONTINUOUS
 62
    7
 10
422.75153672040835
 20
46.805966998549479
 11
439.56693592920044
 21
46.805966998549479
  0
LINE
  8
_0-0_
  6
CONTINUOUS
 62
    7
 10
422.75153672040835
 20
47.205966998549343
 11
439.56693592920044
 21
47.205966998549343
  0
LINE
  8
_0-0_
  6
CONTINUOUS
 62
    7
 10
422.75153672040835
 20
47.605966998549434
 11
439.56693592920044
 21
47.605966998549434
  0
LINE
  8
_0-0_
  6
CONTINUOUS
 62
    7
 10
422.75153672040835
 20
48.005966998549525
 11
439.56693592920044
 21
48.005966998549525
  0
LINE
  8
_0-0_
  6
CONTINUOUS
 62
    7
 10
422.75153672040835
 20
48.405966998549843
 11
439.56693592920044
 21
48.405966998549843
  0
LINE
  8
_0-0_
  6
CONTINUOUS
 62
    7
 10
422.75153672040835
 20
48.805966998549479
 11
439.56693592920044
 21
48.805966998549479
  0
LINE
  8
_0-0_
  6
CONTINUOUS
 62
    7
 10
422.75153672040835
 20
49.205966998549343
 11
439.56693592920044
 21
49.205966998549343
  0
LINE
  8
_0-0_
  6
CONTINUOUS
 62
    7
 10
422.75153672040835
 20
49.605966998548979
 11
439.56693592920044
 21
49.605966998548979
  0
LINE
  8
_0-0_
  6
CONTINUOUS
 62
    7
 10
422.75153672040835
 20
50.005966998549525
 11
439.56693592920044
 21
50.005966998549525
  0
LINE
  8
_0-0_
  6
CONTINUOUS
 62
    7
 10
422.75153672040835
 20
50.405966998549161
 11
439.56693592920044
 21
50.405966998549161
  0
LINE
  8
_0-0_
  6
CONTINUOUS
 62
    7
 10
422.75153672040835
 20
50.805966998549479
 11
439.56693592920044
 21
50.805966998549479
  0
LINE
  8
_0-0_
  6
CONTINUOUS
 62
    7
 10
422.75153672040835
 20
51.205966998549343
 11
439.56693592920044
 21
51.205966998549343
  0
LINE
  8
_0-0_
  6
CONTINUOUS
 62
    7
 10
422.75153672040835
 20
51.605966998548979
 11
439.56693592920044
 21
51.605966998548979
  0
LINE
  8
_0-0_
  6
CONTINUOUS
 62
    7
 10
422.75153672040835
 20
52.005966998549525
 11
439.56693592920044
 21
52.005966998549525
  0
LINE
  8
_0-0_
  6
CONTINUOUS
 62
    7
 10
422.75153672040835
 20
52.405966998549161
 11
439.56693592920044
 21
52.405966998549161
  0
LINE
  8
_0-0_
  6
CONTINUOUS
 62
    7
 10
422.75153672040835
 20
52.805966998549252
 11
439.56693592920044
 21
52.805966998549252
  0
LINE
  8
_0-0_
  6
CONTINUOUS
 62
    7
 10
422.75153672040835
 20
53.205966998548888
 11
439.56693592920044
 21
53.205966998548888
  0
LINE
  8
_0-0_
  6
CONTINUOUS
 62
    7
 10
422.75153672040835
 20
53.605966998548979
 11
439.56693592920044
 21
53.605966998548979
  0
LINE
  8
_0-0_
  6
CONTINUOUS
 62
    7
 10
422.75153672040835
 20
54.00596699854907
 11
439.56693592920044
 21
54.00596699854907
  0
LINE
  8
_0-0_
  6
CONTINUOUS
 62
    7
 10
422.75153672040835
 20
54.405966998549161
 11
439.56693592920044
 21
54.405966998549161
  0
LINE
  8
_0-0_
  6
CONTINUOUS
 62
    7
 10
422.75153672040835
 20
54.805966998549252
 11
439.56693592920044
 21
54.805966998549252
  0
LINE
  8
_0-0_
  6
CONTINUOUS
 62
    7
 10
422.75153672040835
 20
55.205966998548888
 11
439.56693592920044
 21
55.205966998548888
  0
LINE
  8
_0-0_
  6
CONTINUOUS
 62
    7
 10
422.75153672040835
 20
55.605966998548979
 11
439.56693592920044
 21
55.605966998548979
  0
LINE
  8
_0-0_
  6
CONTINUOUS
 62
    7
 10
422.75153672040835
 20
56.005966998548615
 11
439.56693592920044
 21
56.005966998548615
  0
LINE
  8
_0-0_
  6
CONTINUOUS
 62
    7
 10
422.75153672040835
 20
56.405966998549161
 11
439.56693592920044
 21
56.405966998549161
  0
LINE
  8
_0-0_
  6
CONTINUOUS
 62
    7
 10
422.75153672040835
 20
56.805966998548797
 11
439.56693592920044
 21
56.805966998548797
  0
LINE
  8
_0-0_
  6
CONTINUOUS
 62
    7
 10
422.75153672040835
 20
57.205966998548661
 11
439.56693592920044
 21
57.205966998548661
  0
LINE
  8
_0-0_
  6
CONTINUOUS
 62
    7
 10
422.75153672040835
 20
57.605966998548979
 11
439.56693592920044
 21
57.605966998548979
  0
LINE
  8
_0-0_
  6
CONTINUOUS
 62
    7
 10
422.75153672040835
 20
58.00596699854907
 11
439.56693592920044
 21
58.00596699854907
  0
LINE
  8
_0-0_
  6
CONTINUOUS
 62
    7
 10
422.75153672040835
 20
58.405966998548706
 11
439.56693592920044
 21
58.405966998548706
  0
LINE
  8
_0-0_
  6
CONTINUOUS
 62
    7
 10
422.75153672040835
 20
58.805966998548797
 11
439.56693592920044
 21
58.805966998548797
  0
LINE
  8
_0-0_
  6
CONTINUOUS
 62
    7
 10
422.75153672040835
 20
59.205966998548661
 11
439.56693592920044
 21
59.205966998548661
  0
LINE
  8
_0-0_
  6
CONTINUOUS
 62
    7
 10
422.75153672040835
 20
59.605966998548979
 11
439.56693592920044
 21
59.605966998548979
  0
LINE
  8
_0-0_
  6
CONTINUOUS
 62
    7
 10
422.75153672040835
 20
60.00596699854907
 11
439.56693592920044
 21
60.00596699854907
  0
LINE
  8
_0-0_
  6
CONTINUOUS
 62
    7
 10
422.75153672040835
 20
60.405966998548706
 11
439.56693592920044
 21
60.405966998548706
  0
LINE
  8
_0-0_
  6
CONTINUOUS
 62
    7
 10
422.75153672040835
 20
60.805966998548797
 11
439.56693592920044
 21
60.805966998548797
  0
LINE
  8
_0-0_
  6
CONTINUOUS
 62
    7
 10
422.75153672040835
 20
61.205966998548661
 11
439.56693592920044
 21
61.205966998548661
  0
LINE
  8
_0-0_
  6
CONTINUOUS
 62
    7
 10
422.75153672040835
 20
61.605966998548979
 11
439.56693592920044
 21
61.605966998548979
  0
LINE
  8
_0-0_
  6
CONTINUOUS
 62
    7
 10
422.75153672040835
 20
62.005966998548615
 11
439.56693592920044
 21
62.005966998548615
  0
LINE
  8
_0-0_
  6
CONTINUOUS
 62
    7
 10
422.75153672040835
 20
62.405966998548706
 11
439.56693592920044
 21
62.405966998548706
  0
LINE
  8
_0-0_
  6
CONTINUOUS
 62
    7
 10
460.67618689607173
 20
81.205966998549229
 11
466.5304179433557
 21
81.205966998549229
  0
LINE
  8
_0-0_
  6
CONTINUOUS
 62
    7
 10
459.58699319893333
 20
82.005966998548843
 11
467.6196116404941
 21
82.005966998548843
  0
LINE
  8
_0-0_
  6
CONTINUOUS
 62
    7
 10
458.86901533239563
 20
82.805966998549138
 11
468.33758950703179
 21
82.805966998549138
  0
LINE
  8
_0-0_
  6
CONTINUOUS
 62
    7
 10
458.36725346144942
 20
83.605966998548809
 11
468.83935137797801
 21
83.605966998548809
  0
LINE
  8
_0-0_
  6
CONTINUOUS
 62
    7
 10
458.02307454250388
 20
84.405966998549388
 11
469.18353029692355
 21
84.405966998549388
  0
LINE
  8
_0-0_
  6
CONTINUOUS
 62
    7
 10
457.80833239134211
 20
85.205966998548774
 11
469.39827244808532
 21
85.205966998548774
  0
LINE
  8
_0-0_
  6
CONTINUOUS
 62
    7
 10
457.70886333715737
 20
86.005966998548899
 11
469.49774150227006
 21
86.005966998548899
  0
LINE
  8
_0-0_
  6
CONTINUOUS
 62
    7
 10
457.71881887685288
 20
86.80596699854874
 11
469.48778596257455
 21
86.80596699854874
  0
LINE
  8
_0-0_
  6
CONTINUOUS
 62
    7
 10
457.83876592191962
 20
87.605966998548865
 11
469.36783891750804
 21
87.605966998548865
  0
LINE
  8
_0-0_
  6
CONTINUOUS
 62
    7
 10
458.07586037998124
 20
88.405966998548593
 11
469.13074445944642
 21
88.405966998548593
  0
LINE
  8
_0-0_
  6
CONTINUOUS
 62
    7
 10
458.44623445712625
 20
89.205966998548831
 11
468.76037038230118
 21
89.205966998548831
  0
LINE
  8
_0-0_
  6
CONTINUOUS
 62
    7
 10
458.98182165712626
 20
90.005966998548956
 11
468.22478318230117
 21
90.005966998548956
  0
LINE
  8
_0-0_
  6
CONTINUOUS
 62
    7
 10
459.75092407547038
 20
90.805966998548797
 11
467.45568076395705
 21
90.805966998548797
  0
LINE
  8
_0-0_
  6
CONTINUOUS
 62
    7
 10
460.94933305753204
 20
91.605966998548354
 11
466.25727178189538
 21
91.605966998548354
  0
LINE
  8
_0-0_
  6
CONTINUOUS
 62
    7
 10
469.19615077241508
 20
84.442914627619814
 11
469.19615077241508
 21
88.222437454733154
  0
LINE
  8
_0-0_
  6
CONTINUOUS
 62
    7
 10
468.39615077241513
 20
82.885973912398185
 11
468.39615077241513
 21
89.779378169954782
  0
LINE
  8
_0-0_
  6
CONTINUOUS
 62
    7
 10
467.59615077241517
 20
81.98430704477903
 11
467.59615077241517
 21
90.681045037574108
  0
LINE
  8
_0-0_
  6
CONTINUOUS
 62
    7
 10
466.79615077241522
 20
81.367107564841717
 11
466.79615077241522
 21
91.298244517511193
  0
LINE
  8
_0-0_
  6
CONTINUOUS
 62
    7
 10
465.99615077241526
 20
80.935878133390361
 11
465.99615077241526
 21
91.72947394896255
  0
LINE
  8
_0-0_
  6
CONTINUOUS
 62
    7
 10
465.19615077241508
 20
80.648136919855801
 11
465.19615077241508
 21
92.017215162497337
  0
LINE
  8
_0-0_
  6
CONTINUOUS
 62
    7
 10
464.39615077241513
 20
80.482672418435243
 11
464.39615077241513
 21
92.182679663917952
  0
LINE
  8
_0-0_
  6
CONTINUOUS
 62
    7
 10
463.59615077241517
 20
80.429194038962919
 11
463.59615077241517
 21
92.236158043390219
  0
LINE
  8
_0-0_
  6
CONTINUOUS
 62
    7
 10
439.19615077241508
 20
45.92371528860042
 11
439.19615077241508
 21
62.762792131568062
  0
LINE
  8
_0-0_
  6
CONTINUOUS
 62
    7
 10
438.79615077241522
 20
45.92371528860042
 11
438.79615077241522
 21
62.762792131568062
  0
LINE
  8
_0-0_
  6
CONTINUOUS
 62
    7
 10
438.39615077241524
 20
45.92371528860042
 11
438.39615077241524
 21
62.762792131568062
  0
LINE
  8
_0-0_
  6
CONTINUOUS
 62
    7
 10
437.99615077241504
 20
45.92371528860042
 11
437.99615077241526
 21
62.762792131568062
  0
LINE
  8
_0-0_
  6
CONTINUOUS
 62
    7
 10
437.59615077241517
 20
45.92371528860042
 11
437.59615077241517
 21
62.762792131568062
  0
LINE
  8
_0-0_
  6
CONTINUOUS
 62
    7
 10
437.19615077241497
 20
45.92371528860042
 11
437.19615077241497
 21
62.762792131568062
  0
LINE
  8
_0-0_
  6
CONTINUOUS
 62
    7
 10
436.79615077241522
 20
45.92371528860042
 11
436.79615077241522
 21
62.762792131568062
  0
LINE
  8
_0-0_
  6
CONTINUOUS
 62
    7
 10
436.39615077241513
 20
45.92371528860042
 11
436.39615077241513
 21
62.762792131568062
  0
LINE
  8
_0-0_
  6
CONTINUOUS
 62
    7
 10
435.99615077241515
 20
45.92371528860042
 11
435.99615077241515
 21
62.762792131568062
  0
LINE
  8
_0-0_
  6
CONTINUOUS
 62
    7
 10
435.59615077241517
 20
45.92371528860042
 11
435.59615077241517
 21
62.762792131568062
  0
LINE
  8
_0-0_
  6
CONTINUOUS
 62
    7
 10
435.19615077241508
 20
45.92371528860042
 11
435.19615077241508
 21
62.762792131568062
  0
LINE
  8
_0-0_
  6
CONTINUOUS
 62
    7
 10
434.79615077241488
 20
45.92371528860042
 11
434.79615077241488
 21
62.762792131568062
  0
LINE
  8
_0-0_
  6
CONTINUOUS
 62
    7
 10
434.39615077241524
 20
45.92371528860042
 11
434.39615077241524
 21
62.762792131568062
  0
LINE
  8
_0-0_
  6
CONTINUOUS
 62
    7
 10
433.99615077241526
 20
45.92371528860042
 11
433.99615077241526
 21
62.762792131568062
  0
LINE
  8
_0-0_
  6
CONTINUOUS
 62
    7
 10
433.59615077241506
 20
45.92371528860042
 11
433.59615077241506
 21
62.762792131568062
  0
LINE
  8
_0-0_
  6
CONTINUOUS
 62
    7
 10
433.19615077241508
 20
45.92371528860042
 11
433.19615077241508
 21
62.762792131568062
  0
LINE
  8
_0-0_
  6
CONTINUOUS
 62
    7
 10
432.79615077241522
 20
45.92371528860042
 11
432.79615077241522
 21
62.762792131568062
  0
LINE
  8
_0-0_
  6
CONTINUOUS
 62
    7
 10
432.39615077241501
 20
45.92371528860042
 11
432.39615077241501
 21
62.762792131568062
  0
LINE
  8
_0-0_
  6
CONTINUOUS
 62
    7
 10
431.99615077241515
 20
45.92371528860042
 11
431.99615077241515
 21
62.762792131568062
  0
LINE
  8
_0-0_
  6
CONTINUOUS
 62
    7
 10
431.59615077241517
 20
45.92371528860042
 11
431.59615077241517
 21
62.762792131568062
  0
LINE
  8
_0-0_
  6
CONTINUOUS
 62
    7
 10
431.19615077241497
 20
45.92371528860042
 11
431.19615077241497
 21
62.762792131568062
  0
LINE
  8
_0-0_
  6
CONTINUOUS
 62
    7
 10
430.7961507724151
 20
45.92371528860042
 11
430.7961507724151
 21
62.762792131568062
  0
LINE
  8
_0-0_
  6
CONTINUOUS
 62
    7
 10
430.39615077241513
 20
45.92371528860042
 11
430.39615077241513
 21
62.762792131568062
  0
LINE
  8
_0-0_
  6
CONTINUOUS
 62
    7
 10
429.99615077241526
 20
45.92371528860042
 11
429.99615077241526
 21
62.762792131568062
  0
LINE
  8
_0-0_
  6
CONTINUOUS
 62
    7
 10
429.59615077241506
 20
45.92371528860042
 11
429.59615077241506
 21
62.762792131568062
  0
LINE
  8
_0-0_
  6
CONTINUOUS
 62
    7
 10
429.19615077241508
 20
45.92371528860042
 11
429.19615077241508
 21
62.762792131568062
  0
LINE
  8
_0-0_
  6
CONTINUOUS
 62
    7
 10
428.79615077241522
 20
45.92371528860042
 11
428.79615077241522
 21
62.762792131568062
  0
LINE
  8
_0-0_
  6
CONTINUOUS
 62
    7
 10
428.39615077241524
 20
45.92371528860042
 11
428.39615077241524
 21
62.762792131568062
  0
LINE
  8
_0-0_
  6
CONTINUOUS
 62
    7
 10
427.99615077241526
 20
45.92371528860042
 11
427.99615077241526
 21
62.762792131568062
  0
LINE
  8
_0-0_
  6
CONTINUOUS
 62
    7
 10
427.59615077241517
 20
45.92371528860042
 11
427.59615077241517
 21
62.762792131568062
  0
LINE
  8
_0-0_
  6
CONTINUOUS
 62
    7
 10
427.19615077241497
 20
45.92371528860042
 11
427.19615077241497
 21
62.762792131568062
  0
LINE
  8
_0-0_
  6
CONTINUOUS
 62
    7
 10
426.79615077241522
 20
45.92371528860042
 11
426.79615077241522
 21
62.762792131568062
  0
LINE
  8
_0-0_
  6
CONTINUOUS
 62
    7
 10
426.39615077241513
 20
45.92371528860042
 11
426.39615077241513
 21
62.762792131568062
  0
LINE
  8
_0-0_
  6
CONTINUOUS
 62
    7
 10
425.99615077241515
 20
45.92371528860042
 11
425.99615077241515
 21
62.762792131568062
  0
LINE
  8
_0-0_
  6
CONTINUOUS
 62
    7
 10
425.59615077241517
 20
45.92371528860042
 11
425.59615077241517
 21
62.762792131568062
  0
LINE
  8
_0-0_
  6
CONTINUOUS
 62
    7
 10
425.19615077241531
 20
45.92371528860042
 11
425.19615077241531
 21
62.762792131568062
  0
LINE
  8
_0-0_
  6
CONTINUOUS
 62
    7
 10
424.79615077241488
 20
45.92371528860042
 11
424.79615077241488
 21
62.762792131568062
  0
LINE
  8
_0-0_
  6
CONTINUOUS
 62
    7
 10
424.39615077241513
 20
45.92371528860042
 11
424.39615077241513
 21
62.762792131568062
  0
LINE
  8
_0-0_
  6
CONTINUOUS
 62
    7
 10
423.99615077241526
 20
45.92371528860042
 11
423.99615077241526
 21
62.762792131568062
  0
LINE
  8
_0-0_
  6
CONTINUOUS
 62
    7
 10
423.59615077241506
 20
45.92371528860042
 11
423.59615077241506
 21
62.762792131568062
  0
LINE
  8
_0-0_
  6
CONTINUOUS
 62
    7
 10
423.19615077241508
 20
45.92371528860042
 11
423.19615077241508
 21
62.762792131568062
  0
LINE
  8
_0-0_
  6
CONTINUOUS
 62
    7
 10
422.79615077241522
 20
45.92371528860042
 11
422.79615077241522
 21
62.762792131568062
  0
LINE
  8
_0-0_
  6
CONTINUOUS
 62
    4
 10
431.99514096235282
 20
75.071325663332118
 11
409.23450740178578
 21
45.436051762022657
  0
LINE
  8
_0-0_
  6
CONTINUOUS
 62
    4
 10
409.23450740178578
 20
45.436051762022657
 11
407.00489431830147
 21
44.507046310570445
  0
LINE
  8
_0-0_
  6
CONTINUOUS
 62
    4
 10
407.00489431830147
 20
44.507046310570445
 11
404.9610823251079
 21
43.763841949409539
  0
LINE
  8
_0-0_
  6
CONTINUOUS
 62
    4
 10
404.9610823251079
 20
43.763841949409539
 11
403.84627578336597
 21
44.785747946005927
  0
LINE
  8
_0-0_
  6
CONTINUOUS
 62
    4
 10
403.84627578336597
 20
44.785747946005927
 11
402.91727033191421
 21
46.086355578038479
  0
LINE
  8
_0-0_
  6
CONTINUOUS
 62
    4
 10
402.91727033191421
 20
46.086355578038479
 11
402.17406597075251
 21
48.594670296958043
  0
LINE
  8
_0-0_
  6
CONTINUOUS
 62
    4
 10
402.17406597075251
 20
48.594670296958043
 11
402.91727033191421
 21
50.917183925587665
  0
LINE
  8
_0-0_
  6
CONTINUOUS
 62
    4
 10
402.91727033191421
 20
50.917183925587665
 11
405.70428668626914
 21
54.911907366829951
  0
LINE
  8
_0-0_
  6
CONTINUOUS
 62
    4
 10
405.70428668626914
 20
54.911907366829951
 11
426.69980988907821
 21
83.339474181252513
  0
LINE
  8
_0-0_
  6
CONTINUOUS
 62
    4
 10
426.69980988907821
 20
83.339474181252513
 11
426.69980988907821
 21
85.383286174445857
  0
LINE
  8
_0-0_
  6
CONTINUOUS
 62
    4
 10
426.69980988907821
 20
85.383286174445857
 11
427.25721315994917
 21
86.683893806478409
  0
LINE
  8
_0-0_
  6
CONTINUOUS
 62
    4
 10
427.25721315994917
 20
86.683893806478409
 11
428.74362188227178
 21
88.356103619091641
  0
LINE
  8
_0-0_
  6
CONTINUOUS
 62
    4
 10
428.74362188227178
 20
88.356103619091641
 11
429.20812460799777
 21
88.820606344816895
  0
LINE
  8
_0-0_
  6
CONTINUOUS
 62
    4
 10
429.20812460799777
 20
88.820606344816895
 11
430.04422951430433
 21
90.028313431704646
  0
LINE
  8
_0-0_
  6
CONTINUOUS
 62
    4
 10
430.04422951430433
 20
90.028313431704646
 11
431.43773769148174
 21
90.214114521994816
  0
LINE
  8
_0-0_
  6
CONTINUOUS
 62
    4
 10
431.43773769148174
 20
90.214114521994816
 11
433.85315186525622
 21
90.678617247720865
  0
LINE
  8
_0-0_
  6
CONTINUOUS
 62
    4
 10
433.85315186525622
 20
90.678617247720865
 11
434.78215731670798
 21
90.585716702575496
  0
LINE
  8
_0-0_
  6
CONTINUOUS
 62
    4
 10
434.78215731670798
 20
90.585716702575496
 11
436.73306876475669
 21
89.935412886559334
  0
LINE
  8
_0-0_
  6
CONTINUOUS
 62
    4
 10
436.73306876475669
 20
89.935412886559334
 11
437.47627312591794
 21
89.006407435107917
  0
LINE
  8
_0-0_
  6
CONTINUOUS
 62
    4
 10
437.47627312591794
 20
89.006407435107917
 11
439.52008511911174
 21
86.312291625897615
  0
LINE
  8
_0-0_
  6
CONTINUOUS
 62
    4
 10
439.52008511911174
 20
86.312291625897615
 11
445.83732218898342
 21
75.814530024493251
  0
LINE
  8
_0-0_
  6
CONTINUOUS
 62
    4
 10
450.31277339212568
 20
68.253959184063774
 11
459.30426011624252
 21
52.732541722657174
  0
LINE
  8
_0-0_
  6
CONTINUOUS
 62
    4
 10
459.30426011624252
 20
52.732541722657174
 11
460.1664770458766
 21
50.515412475026665
  0
LINE
  8
_0-0_
  6
CONTINUOUS
 62
    4
 10
460.1664770458766
 20
50.515412475026665
 11
459.79695550460485
 21
49.406847851211865
  0
LINE
  8
_0-0_
  6
CONTINUOUS
 62
    4
 10
459.79695550460485
 20
49.406847851211865
 11
458.68839088078983
 21
47.867174762579566
  0
LINE
  8
_0-0_
  6
CONTINUOUS
 62
    4
 10
458.68839088078983
 20
47.867174762579566
 11
454.37730623261962
 21
46.573849368128435
  0
LINE
  8
_0-0_
  6
CONTINUOUS
 62
    4
 10
454.37730623261962
 20
46.573849368128435
 11
451.79065544371758
 21
45.650045514949056
  0
LINE
  8
_0-0_
  6
CONTINUOUS
 62
    4
 10
451.79065544371758
 20
45.650045514949056
 11
449.51193927254201
 21
46.573849368128435
  0
LINE
  8
_0-0_
  6
CONTINUOUS
 62
    4
 10
449.51193927254201
 20
46.573849368128435
 11
446.0014846304606
 21
50.330651704391016
  0
LINE
  8
_0-0_
  6
CONTINUOUS
 62
    4
 10
446.0014846304606
 20
50.330651704391016
 11
445.87831078337001
 21
52.363020181385423
  0
LINE
  8
_0-0_
  6
CONTINUOUS
 62
    4
 10
445.87831078337001
 20
52.363020181385423
 11
431.99514096235282
 21
75.071325663332118
  0
LINE
  8
_0-0_
  6
CONTINUOUS
 62
    4
 10
458.25617902396414
 20
47.737511205533906
 11
459.46637222308061
 21
48.947704404650835
  0
LINE
  8
_0-0_
  6
CONTINUOUS
 62
    4
 10
456.63993495268562
 20
47.252637984148464
 11
460.09262211722887
 21
50.705325148691941
  0
LINE
  8
_0-0_
  6
CONTINUOUS
 62
    4
 10
455.02369088139983
 20
46.767764762762567
 11
459.77583827925662
 21
51.519912160619583
  0
LINE
  8
_0-0_
  6
CONTINUOUS
 62
    4
 10
453.3212370836701
 20
46.196681814932958
 11
459.45905444128414
 21
52.334499172547453
  0
LINE
  8
_0-0_
  6
CONTINUOUS
 62
    4
 10
451.68575652318907
 20
45.692572104352507
 11
459.09205023225479
 21
53.098865813417774
  0
LINE
  8
_0-0_
  6
CONTINUOUS
 62
    4
 10
450.88074264922727
 20
46.018929080283328
 11
458.67705632129775
 21
53.815242752354038
  0
LINE
  8
_0-0_
  6
CONTINUOUS
 62
    4
 10
450.07572877526047
 20
46.345286056216423
 11
458.26206241033844
 21
54.531619691294622
  0
LINE
  8
_0-0_
  6
CONTINUOUS
 62
    4
 10
449.34817632330157
 20
46.7491044541581
 11
457.84706849937868
 21
55.247996630235207
  0
LINE
  8
_0-0_
  6
CONTINUOUS
 62
    4
 10
448.80166667546848
 20
47.333965656224905
 11
457.43207458841891
 21
55.964373569175336
  0
LINE
  8
_0-0_
  6
CONTINUOUS
 62
    4
 10
448.25515702763539
 20
47.918826858291482
 11
457.0170806774596
 21
56.680750508116148
  0
LINE
  8
_0-0_
  6
CONTINUOUS
 62
    4
 10
447.70864737980594
 20
48.50368806035533
 11
456.60208676650257
 21
57.39712744705173
  0
LINE
  8
_0-0_
  6
CONTINUOUS
 62
    4
 10
447.16213773197262
 20
49.088549262422134
 11
456.18709285554303
 21
58.113504385992314
  0
LINE
  8
_0-0_
  6
CONTINUOUS
 62
    4
 10
446.61562808413953
 20
49.673410464489393
 11
455.77209894458304
 21
58.829881324932671
  0
LINE
  8
_0-0_
  6
CONTINUOUS
 62
    4
 10
446.06911843630644
 20
50.258271666555743
 11
455.35710503362327
 21
59.546258263873256
  0
LINE
  8
_0-0_
  6
CONTINUOUS
 62
    4
 10
445.94483565867802
 20
51.265359738820393
 11
454.94211112266669
 21
60.262635202809292
  0
LINE
  8
_0-0_
  6
CONTINUOUS
 62
    4
 10
445.88018589582646
 20
52.332080825868957
 11
454.52711721170715
 21
60.979012141749649
  0
LINE
  8
_0-0_
  6
CONTINUOUS
 62
    4
 10
445.46150756125405
 20
53.044773341196674
 11
454.11212330074738
 21
61.695389080690006
  0
LINE
  8
_0-0_
  6
CONTINUOUS
 62
    4
 10
445.03225420347951
 20
53.746890833322482
 11
453.69712938978739
 21
62.411766019630363
  0
LINE
  8
_0-0_
  6
CONTINUOUS
 62
    4
 10
444.60300084570565
 20
54.449008325448744
 11
453.28213547882785
 21
63.12814295857072
  0
LINE
  8
_0-0_
  6
CONTINUOUS
 62
    4
 10
444.17374748793384
 20
55.151125817569778
 11
452.86714156787104
 21
63.844519897506984
  0
LINE
  8
_0-0_
  6
CONTINUOUS
 62
    4
 10
443.74449413015975
 20
55.853243309695813
 11
452.45214765691151
 21
64.560896836447341
  0
LINE
  8
_0-0_
  6
CONTINUOUS
 62
    4
 10
443.31524077238521
 20
56.555360801821394
 11
452.03715374595174
 21
65.277273775387926
  0
LINE
  8
_0-0_
  6
CONTINUOUS
 62
    4
 10
442.88598741461067
 20
57.257478293947202
 11
451.62215983499198
 21
65.993650714328055
  0
LINE
  8
_0-0_
  6
CONTINUOUS
 62
    4
 10
442.45673405683931
 20
57.959595786068689
 11
451.20716592403517
 21
66.710027653264092
  0
LINE
  8
_0-0_
  6
CONTINUOUS
 62
    4
 10
442.02748069906545
 20
58.66171327819518
 11
450.79217201307563
 21
67.426404592205358
  0
LINE
  8
_0-0_
  6
CONTINUOUS
 62
    4
 10
441.59822734129114
 20
59.363830770320533
 11
450.37717810211586
 21
68.14278153114526
  0
LINE
  8
_0-0_
  6
CONTINUOUS
 62
    4
 10
441.16897398351659
 20
60.065948262446113
 11
449.35698490513403
 21
68.253959184063547
  0
LINE
  8
_0-0_
  6
CONTINUOUS
 62
    4
 10
440.73972062574501
 20
60.768065754567147
 11
448.22561405524277
 21
68.253959184064684
  0
LINE
  8
_0-0_
  6
CONTINUOUS
 62
    4
 10
440.31046726797092
 20
61.470183246693637
 11
447.09424320534129
 21
68.253959184063774
  0
LINE
  8
_0-0_
  6
CONTINUOUS
 62
    4
 10
439.88121391019661
 20
62.172300738819217
 11
445.96287235544207
 21
68.253959184064684
  0
LINE
  8
_0-0_
  6
CONTINUOUS
 62
    4
 10
439.45196055242252
 20
62.874418230944798
 11
444.83150150554286
 21
68.253959184065593
  0
LINE
  8
_0-0_
  6
CONTINUOUS
 62
    4
 10
439.02270719464821
 20
63.576535723071061
 11
443.70013065564137
 21
68.253959184064229
  0
LINE
  8
_0-0_
  6
CONTINUOUS
 62
    4
 10
438.59345383687662
 20
64.278653215192321
 11
442.56875980574989
 21
68.253959184065593
  0
LINE
  8
_0-0_
  6
CONTINUOUS
 62
    4
 10
438.16420047910253
 20
64.980770707318356
 11
441.5198109252616
 21
68.336381153477419
  0
LINE
  8
_0-0_
  6
CONTINUOUS
 62
    4
 10
437.73494712132822
 20
65.682888199443937
 11
443.06529224732287
 21
71.01323332543825
  0
LINE
  8
_0-0_
  6
CONTINUOUS
 62
    4
 10
437.30569376355368
 20
66.38500569156929
 11
444.61077356938961
 21
73.690085497405448
  0
LINE
  8
_0-0_
  6
CONTINUOUS
 62
    4
 10
436.87644040578198
 20
67.087123183691006
 11
445.74960784598363
 21
75.960290623891922
  0
LINE
  8
_0-0_
  6
CONTINUOUS
 62
    4
 10
436.44718704800823
 20
67.789240675817268
 11
445.32456244381103
 21
76.666616071619558
  0
LINE
  8
_0-0_
  6
CONTINUOUS
 62
    4
 10
436.0179336902338
 20
68.491358167942622
 11
444.89951704163821
 21
77.372941519347364
  0
LINE
  8
_0-0_
  6
CONTINUOUS
 62
    4
 10
435.58868033245926
 20
69.19347566006843
 11
444.47447163946561
 21
78.079266967074545
  0
LINE
  8
_0-0_
  6
CONTINUOUS
 62
    4
 10
435.15942697468495
 20
69.895593152194465
 11
444.04942623729346
 21
78.785592414802068
  0
LINE
  8
_0-0_
  6
CONTINUOUS
 62
    4
 10
434.73017361691382
 20
70.597710644315953
 11
443.62438083512382
 21
79.491917862525497
  0
LINE
  8
_0-0_
  6
CONTINUOUS
 62
    4
 10
407.86759851538545
 20
44.866506392687938
 11
411.87442715424493
 21
48.873335031547072
  0
LINE
  8
_0-0_
  6
CONTINUOUS
 62
    4
 10
434.30092025913962
 20
71.299828136441306
 11
443.19933543295144
 21
80.198243310253474
  0
LINE
  8
_0-0_
  6
CONTINUOUS
 62
    4
 10
406.01783802054922
 20
44.148116747751033
 11
415.62018199512477
 21
53.750460722327375
  0
LINE
  8
_0-0_
  6
CONTINUOUS
 62
    4
 10
433.87166690136507
 20
72.001945628567228
 11
442.77429003077884
 21
80.904568757980996
  0
LINE
  8
_0-0_
  6
CONTINUOUS
 62
    4
 10
404.72166148016822
 20
43.983311057270498
 11
419.36593683601393
 21
58.627586413116319
  0
LINE
  8
_0-0_
  6
CONTINUOUS
 62
    4
 10
433.44241354359076
 20
72.704063120693149
 11
442.34924462860602
 21
81.610894205708462
  0
LINE
  8
_0-0_
  6
CONTINUOUS
 62
    4
 10
404.13138103674589
 20
44.524401463741583
 11
423.11169167687251
 21
63.504712103867973
  0
LINE
  8
_0-0_
  6
CONTINUOUS
 62
    4
 10
433.0131601858194
 20
73.406180612814751
 11
441.92419922643683
 21
82.317219653431835
  0
LINE
  8
_0-0_
  6
CONTINUOUS
 62
    4
 10
403.60255948575923
 20
45.126950762654928
 11
426.85744651776486
 21
68.381837794660328
  0
LINE
  8
_0-0_
  6
CONTINUOUS
 62
    4
 10
432.58390682804531
 20
74.108298104940786
 11
441.499153824264
 21
83.023545101159471
  0
LINE
  8
_0-0_
  6
CONTINUOUS
 62
    4
 10
403.13115496496778
 20
45.78691709176303
 11
430.60320135864868
 21
73.258963485443928
  0
LINE
  8
_0-0_
  6
CONTINUOUS
 62
    4
 10
432.15465347027077
 20
74.810415597065969
 11
441.07410842209185
 21
83.729870548887106
  0
LINE
  8
_0-0_
  6
CONTINUOUS
 62
    4
 10
402.77600227921118
 20
46.563135255906786
 11
440.64906301991925
 21
84.436195996614799
  0
LINE
  8
_0-0_
  6
CONTINUOUS
 62
    4
 10
402.51740322780654
 20
47.435907054402492
 11
440.22401761774665
 21
85.142521444342094
  0
LINE
  8
_0-0_
  6
CONTINUOUS
 62
    4
 10
402.25880417640212
 20
48.308678852890921
 11
439.79897221557724
 21
85.848846892065922
  0
LINE
  8
_0-0_
  6
CONTINUOUS
 62
    4
 10
402.5320147708394
 20
49.71326029722843
 11
439.35226436555797
 21
86.533509891946778
  0
LINE
  8
_0-0_
  6
CONTINUOUS
 62
    4
 10
403.63889213794266
 20
51.951508514231705
 11
438.86422203814971
 21
87.176838414438294
  0
LINE
  8
_0-0_
  6
CONTINUOUS
 62
    4
 10
406.37202217767992
 20
55.816009403869316
 11
438.37617971074189
 21
87.820166936930377
  0
LINE
  8
_0-0_
  6
CONTINUOUS
 62
    4
 10
409.5681448286158
 20
60.143502904698266
 11
437.88813738333693
 21
88.463495459418937
  0
LINE
  8
_0-0_
  6
CONTINUOUS
 62
    4
 10
412.76426747958578
 20
64.470996405567689
 11
437.39778662956587
 21
89.104515555547891
  0
LINE
  8
_0-0_
  6
CONTINUOUS
 62
    4
 10
415.96039013055054
 20
68.798489906432565
 11
436.89495514072132
 21
89.733054916603123
  0
LINE
  8
_0-0_
  6
CONTINUOUS
 62
    4
 10
419.15651278152507
 20
73.12598340730716
 11
436.15772388677249
 21
90.12719451255407
  0
LINE
  8
_0-0_
  6
CONTINUOUS
 62
    4
 10
422.3526354324855
 20
77.453476908167886
 11
435.30919574934762
 21
90.41003722503001
  0
LINE
  8
_0-0_
  6
CONTINUOUS
 62
    4
 10
425.54875808343479
 20
81.780970409009512
 11
434.39247282606527
 21
90.624685151640278
  0
LINE
  8
_0-0_
  6
CONTINUOUS
 62
    4
 10
426.69980988907935
 20
84.063393064554816
 11
433.18691078819438
 21
90.550493963669396
  0
LINE
  8
_0-0_
  6
CONTINUOUS
 62
    4
 10
426.69980988907878
 20
85.194763914454086
 11
431.78616592641481
 21
90.28111995179006
  0
LINE
  8
_0-0_
  6
CONTINUOUS
 62
    4
 10
429.23927166951853
 20
88.865596544793789
 11
430.4570284090654
 21
90.083353284340717
  0
LINE
  8
_0-0_
  6
CONTINUOUS
 62
    4
 10
402.88524145734198
 20
46.194453029712918
 11
405.22124714763584
 21
43.858447339419058
  0
LINE
  8
_0-0_
  6
CONTINUOUS
 62
    4
 10
402.40887478370189
 20
47.802190553253126
 11
406.05091910422891
 21
44.160146232725879
  0
LINE
  8
_0-0_
  6
CONTINUOUS
 62
    4
 10
402.31314473903024
 20
49.029291447824676
 11
406.88059106082176
 21
44.461845126033154
  0
LINE
  8
_0-0_
  6
CONTINUOUS
 62
    4
 10
402.58741646021838
 20
49.886390576536655
 11
407.68385884151235
 21
44.789948195242346
  0
LINE
  8
_0-0_
  6
CONTINUOUS
 62
    4
 10
402.86168818140402
 20
50.743489705244087
 11
408.48247355908404
 21
45.122704327563611
  0
LINE
  8
_0-0_
  6
CONTINUOUS
 62
    4
 10
403.28799409042585
 20
51.448554646122034
 11
409.26317308497926
 21
45.473375651568517
  0
LINE
  8
_0-0_
  6
CONTINUOUS
 62
    4
 10
403.75294101504267
 20
52.114978571405686
 11
409.75463737261327
 21
46.11328221383485
  0
LINE
  8
_0-0_
  6
CONTINUOUS
 62
    4
 10
404.21788793965914
 20
52.781402496689111
 11
410.24610166024729
 21
46.753188776101183
  0
LINE
  8
_0-0_
  6
CONTINUOUS
 62
    4
 10
404.68283486427288
 20
53.447826421968443
 11
410.73756594787835
 21
47.393095338362741
  0
LINE
  8
_0-0_
  6
CONTINUOUS
 62
    4
 10
405.14778178888901
 20
54.114250347252096
 11
411.22903023551157
 21
48.033001900629301
  0
LINE
  8
_0-0_
  6
CONTINUOUS
 62
    4
 10
405.61272871350536
 20
54.780674272536203
 11
411.72049452314593
 21
48.672908462895634
  0
LINE
  8
_0-0_
  6
CONTINUOUS
 62
    4
 10
406.09026230830352
 20
55.434511527638392
 11
412.21195881077972
 21
49.312815025162195
  0
LINE
  8
_0-0_
  6
CONTINUOUS
 62
    4
 10
406.57088225581458
 20
56.085262430019725
 11
412.70342309841067
 21
49.952721587423753
  0
LINE
  8
_0-0_
  6
CONTINUOUS
 62
    4
 10
407.0515022033286
 20
56.736013332405832
 11
413.19488738604434
 21
50.592628149690086
  0
LINE
  8
_0-0_
  6
CONTINUOUS
 62
    4
 10
407.53212215084261
 20
57.386764234792395
 11
413.68635167367813
 21
51.232534711955964
  0
LINE
  8
_0-0_
  6
CONTINUOUS
 62
    4
 10
408.01274209835617
 20
58.037515137178275
 11
414.17781596131226
 21
51.872441274222297
  0
LINE
  8
_0-0_
  6
CONTINUOUS
 62
    4
 10
408.4933620458703
 20
58.68826603956461
 11
414.66928024894639
 21
52.51234783648863
  0
LINE
  8
_0-0_
  6
CONTINUOUS
 62
    4
 10
408.97398199338147
 20
59.339016941946397
 11
415.16074453657723
 21
53.152254398751097
  0
LINE
  8
_0-0_
  6
CONTINUOUS
 62
    4
 10
409.45460194089526
 20
59.989767844332732
 11
415.65220882421079
 21
53.79216096101743
  0
LINE
  8
_0-0_
  6
CONTINUOUS
 62
    4
 10
409.93522188840905
 20
60.640518746719067
 11
416.14367311184481
 21
54.432067523283081
  0
LINE
  8
_0-0_
  6
CONTINUOUS
 62
    4
 10
410.41584183592306
 20
61.291269649104947
 11
416.63513739947871
 21
55.071974085549414
  0
LINE
  8
_0-0_
  6
CONTINUOUS
 62
    4
 10
410.89646178343412
 20
61.942020551486735
 11
417.12660168710966
 21
55.711880647811199
  0
LINE
  8
_0-0_
  6
CONTINUOUS
 62
    4
 10
411.37708173094791
 20
62.59277145387307
 11
417.6180659747431
 21
56.351787210077532
  0
LINE
  8
_0-0_
  6
CONTINUOUS
 62
    4
 10
411.85770167846192
 20
63.243522356259405
 11
418.10953026237723
 21
56.991693772343865
  0
LINE
  8
_0-0_
  6
CONTINUOUS
 62
    4
 10
412.33832162597594
 20
63.89427325864574
 11
418.60099455001148
 21
57.631600334610198
  0
LINE
  8
_0-0_
  6
CONTINUOUS
 62
    4
 10
412.81894157348984
 20
64.54502416103162
 11
419.09245883764527
 21
58.271506896876531
  0
LINE
  8
_0-0_
  6
CONTINUOUS
 62
    4
 10
413.29956152100101
 20
65.195775063413407
 11
419.58392312527599
 21
58.911413459138316
  0
LINE
  8
_0-0_
  6
CONTINUOUS
 62
    4
 10
413.7801814685148
 20
65.846525965799742
 11
420.07538741290955
 21
59.551320021404649
  0
LINE
  8
_0-0_
  6
CONTINUOUS
 62
    4
 10
414.26080141602881
 20
66.497276868186077
 11
420.56685170054391
 21
60.191226583670982
  0
LINE
  8
_0-0_
  6
CONTINUOUS
 62
    4
 10
414.7414213635426
 20
67.148027770571503
 11
421.05831598817792
 21
60.83113314593686
  0
LINE
  8
_0-0_
  6
CONTINUOUS
 62
    4
 10
415.22204131105366
 20
67.798778672954427
 11
421.54978027580853
 21
61.4710397081991
  0
LINE
  8
_0-0_
  6
CONTINUOUS
 62
    4
 10
415.70266125856767
 20
68.449529575339625
 11
422.04124456344232
 21
62.110946270465433
  0
LINE
  8
_0-0_
  6
CONTINUOUS
 62
    4
 10
416.18328120608146
 20
69.100280477726415
 11
422.53270885107622
 21
62.750852832731766
  0
LINE
  8
_0-0_
  6
CONTINUOUS
 62
    4
 10
416.66390115359548
 20
69.75103138011275
 11
423.02417313871024
 21
63.390759394997644
  0
LINE
  8
_0-0_
  6
CONTINUOUS
 62
    4
 10
417.14452110110938
 20
70.401782282497948
 11
423.51563742634403
 21
64.03066595726375
  0
LINE
  8
_0-0_
  6
CONTINUOUS
 62
    4
 10
417.62514104862055
 20
71.05253318488019
 11
424.00710171397498
 21
64.670572519526218
  0
LINE
  8
_0-0_
  6
CONTINUOUS
 62
    4
 10
418.10576099613434
 20
71.703284087266297
 11
424.49856600160876
 21
65.310479081792096
  0
LINE
  8
_0-0_
  6
CONTINUOUS
 62
    4
 10
418.58638094364835
 20
72.354034989652519
 11
424.99003028924278
 21
65.950385644058429
  0
LINE
  8
_0-0_
  6
CONTINUOUS
 62
    4
 10
419.06700089116214
 20
73.004785892038853
 11
425.48149457687668
 21
66.590292206324307
  0
LINE
  8
_0-0_
  6
CONTINUOUS
 62
    4
 10
419.5476208386732
 20
73.655536794420868
 11
425.97295886450729
 21
67.230198768587002
  0
LINE
  8
_0-0_
  6
CONTINUOUS
 62
    4
 10
420.02824078618721
 20
74.306287696806976
 11
426.46442315214108
 21
67.870105330853335
  0
LINE
  8
_0-0_
  6
CONTINUOUS
 62
    4
 10
420.50886073370123
 20
74.957038599193254
 11
426.95588743977521
 21
68.510011893118985
  0
LINE
  8
_0-0_
  6
CONTINUOUS
 62
    4
 10
420.98948068121501
 20
75.607789501579191
 11
427.44735172740923
 21
69.149918455384636
  0
LINE
  8
_0-0_
  6
CONTINUOUS
 62
    4
 10
445.98437922091773
 20
50.612890961876587
 11
450.37215822974883
 21
46.225111953045257
  0
LINE
  8
_0-0_
  6
CONTINUOUS
 62
    4
 10
421.47010062872914
 20
76.258540403965469
 11
427.93881601504302
 21
69.789825017650855
  0
LINE
  8
_0-0_
  6
CONTINUOUS
 62
    4
 10
445.91138755317968
 20
51.817253479514989
 11
452.00282181405385
 21
45.725819218640822
  0
LINE
  8
_0-0_
  6
CONTINUOUS
 62
    4
 10
421.95072057623986
 20
76.909291306347711
 11
428.43028030267374
 21
70.42973157991355
  0
LINE
  8
_0-0_
  6
CONTINUOUS
 62
    4
 10
444.90503937120241
 20
53.954972511385108
 11
452.83646349292223
 21
46.023548389665507
  0
LINE
  8
_0-0_
  6
CONTINUOUS
 62
    4
 10
422.4313405237541
 20
77.56004220873308
 11
428.92174459030775
 21
71.069638142179542
  0
LINE
  8
_0-0_
  6
CONTINUOUS
 62
    4
 10
443.12523515706118
 20
56.866147575426226
 11
453.67010517179585
 21
46.321277560691783
  0
LINE
  8
_0-0_
  6
CONTINUOUS
 62
    4
 10
422.91196047126789
 20
78.210793111119528
 11
429.41320887794154
 21
71.709544704445648
  0
LINE
  8
_0-0_
  6
CONTINUOUS
 62
    4
 10
441.34543094292042
 20
59.777322639467116
 11
454.50930468003446
 21
46.613448902353298
  0
LINE
  8
_0-0_
  6
CONTINUOUS
 62
    4
 10
423.39258041878179
 20
78.861544013505522
 11
429.90467316557567
 21
72.349451266712094
  0
LINE
  8
_0-0_
  6
CONTINUOUS
 62
    4
 10
439.56562672876601
 20
62.688497703521648
 11
455.37958994918779
 21
46.874534483099637
  0
LINE
  8
_0-0_
  6
CONTINUOUS
 62
    4
 10
423.87320036629274
 20
79.512294915887651
 11
430.39613745320628
 21
72.989357828974335
  0
LINE
  8
_0-0_
  6
CONTINUOUS
 62
    4
 10
437.78582251463502
 20
65.599672767545712
 11
456.24987521833748
 21
47.135620063843021
  0
LINE
  8
_0-0_
  6
CONTINUOUS
 62
    4
 10
424.35382031380675
 20
80.163045818273872
 11
430.8876017408403
 21
73.629264391240667
  0
LINE
  8
_0-0_
  6
CONTINUOUS
 62
    4
 10
436.00601830049425
 20
68.510847831586148
 11
457.12016048749103
 21
47.396705644589588
  0
LINE
  8
_0-0_
  6
CONTINUOUS
 62
    4
 10
424.83444026132076
 20
80.813796720659866
 11
431.37906602847409
 21
74.269170953506546
  0
LINE
  8
_0-0_
  6
CONTINUOUS
 62
    4
 10
434.22621408635314
 20
71.42202289562772
 11
457.99044575664436
 21
47.657791225336382
  0
LINE
  8
_0-0_
  6
CONTINUOUS
 62
    4
 10
425.31506020883455
 20
81.464547623046144
 11
431.87053031610822
 21
74.909077515772822
  0
LINE
  8
_0-0_
  6
CONTINUOUS
 62
    4
 10
432.4464098722118
 20
74.333197959668666
 11
458.78217598295771
 21
47.997431848923156
  0
LINE
  8
_0-0_
  6
CONTINUOUS
 62
    4
 10
425.79568015634845
 20
82.115298525432081
 11
459.25577308291565
 21
48.655205598865336
  0
LINE
  8
_0-0_
  6
CONTINUOUS
 62
    4
 10
426.2763001038594
 20
82.766049427814323
 11
459.72937018287018
 21
49.312979348803424
  0
LINE
  8
_0-0_
  6
CONTINUOUS
 62
    4
 10
426.69980988908014
 20
83.473910492493246
 11
441.63603435051948
 21
68.537686031054477
  0
LINE
  8
_0-0_
  6
CONTINUOUS
 62
    4
 10
441.91976119751178
 20
68.25395918406241
 11
460.03943476104394
 21
50.13428562053025
  0
LINE
  8
_0-0_
  6
CONTINUOUS
 62
    4
 10
426.69980988907867
 20
84.605281342394846
 11
442.0501448226845
 21
69.254946408789806
  0
LINE
  8
_0-0_
  6
CONTINUOUS
 62
    4
 10
443.05113204741122
 20
68.253959184062865
 11
459.76989413915032
 21
51.535197092323983
  0
LINE
  8
_0-0_
  6
CONTINUOUS
 62
    4
 10
426.80581969443335
 20
85.630642386940394
 11
442.46425529484929
 21
69.972206786524907
  0
LINE
  8
_0-0_
  6
CONTINUOUS
 62
    4
 10
444.18250289731043
 20
68.253959184063774
 11
458.75394191089356
 21
53.682520170480643
  0
LINE
  8
_0-0_
  6
CONTINUOUS
 62
    4
 10
427.14523094940034
 20
86.422601981867047
 11
442.87836576701113
 21
70.689467164255802
  0
LINE
  8
_0-0_
  6
CONTINUOUS
 62
    4
 10
445.31387374720396
 20
68.253959184062865
 11
457.1960837365715
 21
56.371749194695553
  0
LINE
  8
_0-0_
  6
CONTINUOUS
 62
    4
 10
427.61396460217929
 20
87.085239178987592
 11
443.29247623917547
 21
71.406727541991586
  0
LINE
  8
_0-0_
  6
CONTINUOUS
 62
    4
 10
446.44524459710522
 20
68.253959184061955
 11
455.63822556223806
 21
59.060978218929563
  0
LINE
  8
_0-0_
  6
CONTINUOUS
 62
    4
 10
428.14637441389721
 20
87.684200217170201
 11
443.70658671134049
 21
72.123987919726915
  0
LINE
  8
_0-0_
  6
CONTINUOUS
 62
    4
 10
447.57661544700466
 20
68.253959184062637
 11
454.08036738790463
 21
61.750207243162663
  0
LINE
  8
_0-0_
  6
CONTINUOUS
 62
    4
 10
428.67878422561466
 20
88.283161255352525
 11
444.12069718350506
 21
72.841248297462187
  0
LINE
  8
_0-0_
  6
CONTINUOUS
 62
    4
 10
448.70798629690387
 20
68.253959184063547
 11
452.52250921356915
 21
64.439436267398492
  0
LINE
  8
_0-0_
  6
CONTINUOUS
 62
    4
 10
429.23454589901621
 20
88.858770431843823
 11
444.53480765566712
 21
73.558508675192854
  0
LINE
  8
_0-0_
  6
CONTINUOUS
 62
    4
 10
449.8393571467974
 20
68.253959184062865
 11
450.96465103923413
 21
67.128665291626362
  0
LINE
  8
_0-0_
  6
CONTINUOUS
 62
    4
 10
429.69737942852055
 20
89.527307752239267
 11
444.94891812783146
 21
74.275769052928808
  0
LINE
  8
_0-0_
  6
CONTINUOUS
 62
    4
 10
430.29438988311438
 20
90.061668147546243
 11
445.36302859999648
 21
74.993029430664137
  0
LINE
  8
_0-0_
  6
CONTINUOUS
 62
    4
 10
431.2926582800842
 20
90.194770600476204
 11
445.77713907216128
 21
75.710289808399011
  0
LINE
  8
_0-0_
  6
CONTINUOUS
 62
    4
 10
432.24872593153304
 20
90.370073798927933
 11
444.37615705221435
 21
78.242642678246625
  0
LINE
  8
_0-0_
  6
CONTINUOUS
 62
    4
 10
433.19761761208792
 20
90.552552968265445
 11
442.66652999014048
 21
81.083640590212838
  0
LINE
  8
_0-0_
  6
CONTINUOUS
 62
    4
 10
434.24178777334134
 20
90.63975365691249
 11
440.95690292807069
 21
83.92463850218337
  0
LINE
  8
_0-0_
  6
CONTINUOUS
 62
    4
 10
435.74971470801256
 20
90.263197572141053
 11
438.95268772294014
 21
87.060224557213132
  0
LINE
  8
_0-0_
  6
CONTINUOUS
 62
    7
 10
462.79615077241522
 20
80.484628750436968
 11
462.79615077241522
 21
92.180723331915999
  0
LINE
  8
_0-0_
  6
CONTINUOUS
 62
    7
 10
461.99615077241504
 20
80.652164226292371
 11
461.99615077241504
 21
92.013187856060483
  0
LINE
  8
_0-0_
  6
CONTINUOUS
 62
    7
 10
461.19615077241508
 20
80.942242677945615
 11
461.19615077241508
 21
91.723109404407239
  0
LINE
  8
_0-0_
  6
CONTINUOUS
 62
    7
 10
460.39615077241513
 20
81.376333719690592
 11
460.39615077241513
 21
91.289018362662375
  0
LINE
  8
_0-0_
  6
CONTINUOUS
 62
    7
 10
459.59615077241517
 20
81.997484399271343
 11
459.59615077241517
 21
90.667867683081624
  0
LINE
  8
_0-0_
  6
CONTINUOUS
 62
    7
 10
458.79615077241522
 20
82.905951083379534
 11
458.79615077241522
 21
89.759400998973433
  0
LINE
  8
_0-0_
  6
CONTINUOUS
 62
    7
 10
457.99615077241526
 20
84.485786412453649
 11
457.99615077241526
 21
88.179565669899489
  0
LINE
  8
_0-0_
  6
CONTINUOUS
 62
    7
 10
441.55998633164631
 20
68.405966998549275
 11
458.58446282642194
 21
68.405966998549275
  0
LINE
  8
_0-0_
  6
CONTINUOUS
 62
    7
 10
442.0218665469979
 20
69.205966998549229
 11
458.12258261107036
 21
69.205966998549229
  0
LINE
  8
_0-0_
  6
CONTINUOUS
 62
    7
 10
442.4837467623496
 20
70.005966998549184
 11
457.66070239571854
 21
70.005966998549184
  0
LINE
  8
_0-0_
  6
CONTINUOUS
 62
    7
 10
442.94562697770129
 20
70.805966998549252
 11
457.19882218036685
 21
70.805966998549252
  0
LINE
  8
_0-0_
  6
CONTINUOUS
 62
    7
 10
443.40750719305311
 20
71.605966998549206
 11
456.73694196501515
 21
71.605966998549206
  0
LINE
  8
_0-0_
  6
CONTINUOUS
 62
    7
 10
443.8693874084048
 20
72.405966998549275
 11
456.27506174966334
 21
72.405966998549275
  0
LINE
  8
_0-0_
  6
CONTINUOUS
 62
    7
 10
444.33126762375639
 20
73.205966998549172
 11
455.81318153431175
 21
73.205966998549172
  0
LINE
  8
_0-0_
  6
CONTINUOUS
 62
    7
 10
444.7931478391082
 20
74.005966998549241
 11
455.35130131895994
 21
74.005966998549241
  0
LINE
  8
_0-0_
  6
CONTINUOUS
 62
    7
 10
445.2550280544599
 20
74.805966998549195
 11
454.88942110360824
 21
74.805966998549195
  0
LINE
  8
_0-0_
  6
CONTINUOUS
 62
    7
 10
445.7169082698116
 20
75.605966998549263
 11
454.42754088825654
 21
75.605966998549263
  0
LINE
  8
_0-0_
  6
CONTINUOUS
 62
    7
 10
446.1787884851633
 20
76.405966998549161
 11
453.96566067290485
 21
76.405966998549161
  0
LINE
  8
_0-0_
  6
CONTINUOUS
 62
    7
 10
446.64066870051499
 20
77.205966998549229
 11
453.50378045755315
 21
77.205966998549229
  0
LINE
  8
_0-0_
  6
CONTINUOUS
 62
    7
 10
447.10254891586669
 20
78.005966998549184
 11
453.04190024220134
 21
78.005966998549184
  0
LINE
  8
_0-0_
  6
CONTINUOUS
 62
    7
 10
447.5644291312185
 20
78.805966998549195
 11
452.58002002684964
 21
78.805966998549195
  0
LINE
  8
_0-0_
  6
CONTINUOUS
 62
    7
 10
448.02630934657009
 20
79.605966998549263
 11
452.11813981149794
 21
79.605966998549263
  0
LINE
  8
_0-0_
  6
CONTINUOUS
 62
    7
 10
448.48818956192179
 20
80.405966998549161
 11
451.65625959614624
 21
80.405966998549161
  0
LINE
  8
_0-0_
  6
CONTINUOUS
 62
    7
 10
448.95006977727348
 20
81.205966998549229
 11
451.19437938079454
 21
81.205966998549229
  0
LINE
  8
_0-0_
  6
CONTINUOUS
 62
    7
 10
449.4119499926253
 20
82.005966998549184
 11
450.73249916544273
 21
82.005966998549184
  0
LINE
  8
_0-0_
  6
CONTINUOUS
 62
    7
 10
449.87383020797699
 20
82.805966998549252
 11
450.27061895009115
 21
82.805966998549252
  0
LINE
  8
_0-0_
  6
CONTINUOUS
 62
    7
 10
457.99615077241504
 20
68.253959184063774
 11
457.99615077241504
 21
69.424953366794512
  0
LINE
  8
_0-0_
  6
CONTINUOUS
 62
    7
 10
457.19615077241497
 20
68.253959184063774
 11
457.19615077241497
 21
70.810594012849606
  0
LINE
  8
_0-0_
  6
CONTINUOUS
 62
    7
 10
456.39615077241501
 20
68.253959184063774
 11
456.39615077241501
 21
72.1962346589047
  0
LINE
  8
_0-0_
  6
CONTINUOUS
 62
    7
 10
455.59615077241506
 20
68.253959184063774
 11
455.59615077241506
 21
73.581875304959624
  0
LINE
  8
_0-0_
  6
CONTINUOUS
 62
    7
 10
454.7961507724151
 20
68.253959184063774
 11
454.7961507724151
 21
74.967515951014718
  0
LINE
  8
_0-0_
  6
CONTINUOUS
 62
    7
 10
453.99615077241504
 20
68.253959184063774
 11
453.99615077241504
 21
76.353156597069756
  0
LINE
  8
_0-0_
  6
CONTINUOUS
 62
    7
 10
453.19615077241497
 20
68.253959184063774
 11
453.19615077241497
 21
77.738797243124793
  0
LINE
  8
_0-0_
  6
CONTINUOUS
 62
    7
 10
452.39615077241501
 20
68.253959184063774
 11
452.39615077241501
 21
79.124437889179831
  0
LINE
  8
_0-0_
  6
CONTINUOUS
 62
    7
 10
451.59615077241506
 20
68.253959184063774
 11
451.59615077241506
 21
80.510078535234811
  0
LINE
  8
_0-0_
  6
CONTINUOUS
 62
    7
 10
450.7961507724151
 20
68.253959184063774
 11
450.7961507724151
 21
81.895719181289905
  0
LINE
  8
_0-0_
  6
CONTINUOUS
 62
    7
 10
449.99615077241504
 20
68.253959184063774
 11
449.99615077241504
 21
83.017832430966507
  0
LINE
  8
_0-0_
  6
CONTINUOUS
 62
    7
 10
449.19615077241497
 20
68.253959184063774
 11
449.19615077241497
 21
81.632191784911413
  0
LINE
  8
_0-0_
  6
CONTINUOUS
 62
    7
 10
448.39615077241501
 20
68.253959184063774
 11
448.39615077241501
 21
80.246551138856205
  0
LINE
  8
_0-0_
  6
CONTINUOUS
 62
    7
 10
447.59615077241506
 20
68.253959184063774
 11
447.59615077241506
 21
78.860910492801338
  0
LINE
  8
_0-0_
  6
CONTINUOUS
 62
    7
 10
446.7961507724151
 20
68.253959184063774
 11
446.7961507724151
 21
77.47526984674613
  0
LINE
  8
_0-0_
  6
CONTINUOUS
 62
    7
 10
445.99615077241504
 20
68.253959184063774
 11
445.99615077241504
 21
76.089629200691036
  0
LINE
  8
_0-0_
  6
CONTINUOUS
 62
    7
 10
445.19615077241497
 20
68.253959184063774
 11
445.19615077241497
 21
74.703988554635998
  0
LINE
  8
_0-0_
  6
CONTINUOUS
 62
    7
 10
444.39615077241501
 20
68.253959184063774
 11
444.39615077241501
 21
73.318347908580904
  0
LINE
  8
_0-0_
  6
CONTINUOUS
 62
    7
 10
443.59615077241506
 20
68.253959184063774
 11
443.59615077241506
 21
71.932707262525923
  0
LINE
  8
_0-0_
  6
CONTINUOUS
 62
    7
 10
442.7961507724151
 20
68.253959184063774
 11
442.7961507724151
 21
70.547066616470829
  0
LINE
  8
_0-0_
  6
CONTINUOUS
 62
    7
 10
441.99615077241504
 20
68.253959184063774
 11
441.99615077241504
 21
69.161425970415735
  0
TEXT
  8
_0-0_
 62
    4
 10
983.5
 20
65.999999995499707
 40
10
 41
1
 50
0
  1
SCALE
  0
LINE
  8
_0-0_
  6
CONTINUOUS
 62
    2
 10
966
 20
76.999999995499593
 11
966
 21
32
  0
LINE
  8
ADD_LINE
  6
DOT
 62
    7
 10
996
 20
76.999999995499593
 11
996
 21
32
  0
LINE
  8
_0-0_
  6
CONTINUOUS
 62
    2
 10
1026
 20
76.999999995499593
 11
1026
 21
32
  0
LINE
  8
ADD_LINE
  6
DOT
 62
    7
 10
1046
 20
76.999999995499593
 11
1046
 21
32
  0
LINE
  8
_0-0_
  6
CONTINUOUS
 62
    2
 10
1146
 20
64.999999995499707
 11
886
 21
64.999999995499707
  0
LINE
  8
ADD_LINE
  6
DOT
 62
    7
 10
886
 20
70.999999995499707
 11
1146
 21
70.999999995499707
  0
LINE
  8
ADD_LINE
  6
DOT
 62
    7
 10
886
 20
49.999999998199996
 11
616.21377219623469
 21
49.999999998199996
  0
LINE
  8
ADD_LINE
  6
DOT
 62
    7
 10
886
 20
48.499999997749796
 11
1146
 21
48.499999997749796
  0
LINE
  8
ADD_LINE
  6
DOT
 62
    7
 10
926
 20
76.999999995499593
 11
926
 21
32
  0
LINE
  8
_0-0_
  6
CONTINUOUS
 62
    2
 10
1066
 20
103.99999999279964
 11
1066
 21
32
  0
LINE
  8
ADD_LINE
  6
DOT
 62
    7
 10
1086
 20
103.99999999279964
 11
1086
 21
32
  0
LINE
  8
_0-0_
  6
CONTINUOUS
 62
    2
 10
1106
 20
103.99999999279964
 11
1106
 21
32
  0
LINE
  8
ADD_LINE
  6
DOT
 62
    7
 10
1126
 20
103.99999999279964
 11
1126
 21
32
  0
LINE
  8
_0-0_
  6
CONTINUOUS
 62
    2
 10
1146
 20
90.499999994149675
 11
1106
 21
90.499999994149675
  0
LINE
  8
ADD_LINE
  6
DOT
 62
    7
 10
886
 20
90.499999994149675
 11
1106
 21
90.499999994149675
  0
LINE
  8
ADD_LINE
  6
DOT
 62
    7
 10
1106
 20
97.24999999347466
 11
1146
 21
97.24999999347466
  0
LINE
  8
ADD_LINE
  6
DOT
 62
    7
 10
1106
 20
83.749999994824634
 11
1146
 21
83.749999994824634
  0
LINE
  8
_0-0_
  6
CONTINUOUS
 62
    1
 10
1146
 20
76.999999995499593
 11
886
 21
76.999999995499593
  0
LINE
  8
ADD_LINE
  6
DOT
 62
    7
 10
1076
 20
103.99999999279964
 11
1076
 21
32
  0
CIRCLE
  8
_0-0_
  6
CONTINUOUS
 62
    2
 10
1076
 20
90.499999994149675
 40
8
  0
CIRCLE
  8
_0-0_
  6
CONTINUOUS
 62
    2
 10
1076
 20
90.499999994149675
 40
4
  0
LINE
  8
_0-0_
  6
CENTER1
 62
    7
 10
1076
 20
100.49999999414968
 11
1076
 21
80.499999994149675
  0
TEXT
  8
_0-0_
 62
    4
 10
916
 20
65.999999995499707
 40
10
 41
1
 50
0
  1
日付
  0
TEXT
  8
_0-0_
 62
    4
 10
1116
 20
92.24999999347466
 40
10
 41
1
 50
0
  1
単位
  0
TEXT
  8
_0-0_
 62
    4
 10
1121
 20
78.749999994824634
 40
10
 41
1
 50
0
  1
mm
  0
LINE
  8
_0-0_
  6
CONTINUOUS
 62
    2
 10
1088
 20
94.499999994149618
 11
1102
 21
98.499999994149618
  0
LINE
  8
_0-0_
  6
CONTINUOUS
 62
    2
 10
1102
 20
98.499999994149618
 11
1102
 21
82.499999994149675
  0
LINE
  8
_0-0_
  6
CONTINUOUS
 62
    2
 10
1088
 20
86.499999994149675
 11
1102
 21
82.499999994149675
  0
LINE
  8
_0-0_
  6
CONTINUOUS
 62
    2
 10
1088
 20
94.499999994149618
 11
1088
 21
86.499999994149675
  0
LINE
  8
_0-0_
  6
CENTER1
 62
    7
 10
1066
 20
90.499999994149675
 11
1104
 21
90.499999994149675
  0
LINE
  8
_0-0_
  6
CONTINUOUS
 62
    1
 10
886
 20
67.999999996399879
 11
616.21377219623469
 21
67.999999996399879
  0
LINE
  8
_0-0_
  6
CONTINUOUS
 62
    1
 10
616.21377219623469
 20
32
 11
616.21377219623469
 21
103.99999999279964
  0
LINE
  8
ADD_LINE
  6
DOT
 62
    7
 10
886
 20
85.999999994599762
 11
616.21377219623469
 21
85.999999994599762
  0
LINE
  8
ADD_LINE
  6
DOT
 62
    7
 10
751.10688609811734
 20
32
 11
751.10688609811734
 21
103.99999999279964
  0
TEXT
  8
_0-0_
 62
    4
 10
620.21377219623469
 20
89.999999992799644
 40
10
 41
1
 50
0
  1
品番
  0
TEXT
  8
_0-0_
 62
    4
 10
620.21377219623469
 20
53.999999996399879
 40
10
 41
1
 50
0
  1
名称
  0
LINE
  8
_0-0_
  6
CONTINUOUS
 62
    1
 10
376.21377219623469
 20
103.99999999279964
 11
376.21377219623469
 21
32
  0
LINE
  8
_0-0_
  6
CONTINUOUS
 62
    7
 10
135.53848217623846
 20
581.19191271650357
 11
135.53848217623846
 21
541.19191271650323
  0
LINE
  8
_0-0_
  6
CONTINUOUS
 62
    7
 10
256.46452775903845
 20
581.19191271650357
 11
256.46452775903845
 21
541.19191271650323
  0
LINE
  8
_0-0_
  6
CONTINUOUS
 62
    7
 10
289.56185329383845
 20
581.19191271650357
 11
289.56185329383845
 21
541.19191271650323
  0
LINE
  8
_0-0_
  6
CONTINUOUS
 62
    7
 10
410.4878988766381
 20
541.19191271650323
 11
410.4878988766381
 21
581.19191271650357
  0
LINE
  8
_0-0_
  6
CONTINUOUS
 62
    7
 10
256.35107513543841
 20
541.19191271650323
 11
135.42502955223847
 21
541.19191271650323
  0
LINE
  8
_0-0_
  6
CONTINUOUS
 62
    7
 10
289.56185329383845
 20
541.19191271650323
 11
410.4878988766381
 21
541.19191271650323
  0
LINE
  8
_0-0_
  6
CONTINUOUS
 62
    7
 10
410.4878988766381
 20
581.19191271650357
 11
289.56185329383845
 21
581.19191271650357
  0
LINE
  8
_0-0_
  6
CONTINUOUS
 62
    7
 10
256.46452775903845
 20
581.19191271650357
 11
135.53848217623846
 21
581.19191271650357
  0
LINE
  8
_0-0_
  6
CONTINUOUS
 62
    7
 10
632.46735322903851
 20
581.18966568850362
 11
632.46735322903851
 21
541.18966568850362
  0
LINE
  8
_0-0_
  6
CONTINUOUS
 62
    7
 10
753.39339881183844
 20
581.18966568850362
 11
753.39339881183844
 21
541.18966568850362
  0
LINE
  8
_0-0_
  6
CONTINUOUS
 62
    7
 10
753.26126463663843
 20
541.18966568850362
 11
632.3352190538385
 21
541.18966568850362
  0
LINE
  8
_0-0_
  6
CONTINUOUS
 62
    7
 10
783.05659233703852
 20
541.18966568850362
 11
903.98263791983845
 21
541.18966568850362
  0
LINE
  8
_0-0_
  6
CONTINUOUS
 62
    7
 10
783.23561129263851
 20
581.18966568850362
 11
783.23561129263851
 21
541.18966568850362
  0
LINE
  8
_0-0_
  6
CONTINUOUS
 62
    7
 10
903.98263791983845
 20
581.18966568850362
 11
783.02149613943811
 21
581.18966568850362
  0
LINE
  8
_0-0_
  6
CONTINUOUS
 62
    7
 10
753.39339881183844
 20
581.18966568850362
 11
632.46735322903851
 21
581.18966568850362
  0
LINE
  8
_0-0_
  6
CONTINUOUS
 62
    7
 10
903.98263791983845
 20
541.18966568850362
 11
903.98263791983845
 21
581.18966568850362
  0
ARC
  8
_0-0_
  6
CONTINUOUS
 62
    2
 10
774.51165632623827
 20
190.69983522130363
 40
0.6999999999998181
 50
180
 51
0
  0
ARC
  8
_0-0_
  6
CONTINUOUS
 62
    2
 10
774.51165632623827
 20
190.69983522130363
 40
0.6999999999998181
 50
0.000000000000007
 51
180
  0
TEXT
  8
_0-0_
 62
    7
 10
813.68617665503803
 20
200.42509951490362
 40
8
 41
1
 50
0
  1
NO RETURN VALVE
  0
LINE
  8
_0-0_
  6

 62
    8
 10
894.71606541303845
 20
681.65231796290323
 11
894.71606541303845
 21
679.84747340090371
  0
LINE
  8
_0-0_
  6

 62
    8
 10
894.71606541303845
 20
681.65231796290323
 11
895.37898636463808
 21
680.01153103130332
  0
LINE
  8
_0-0_
  6
CONTINUOUS
 62
    7
 10
760.42899596303812
 20
172.69983522130363
 11
758.5789959630381
 21
173.76793321930359
  0
LINE
  8
_0-0_
  6
CONTINUOUS
 62
    7
 10
710.97065814463849
 20
153.07541671050359
 11
711.3999045062385
 21
152.51451373210358
  0
LINE
  8
_0-0_
  6
CONTINUOUS
 62
    7
 10
760.42900208463846
 20
172.69983522130363
 11
782.42898984103851
 21
172.69983522130363
  0
LINE
  8
_0-0_
  6
CONTINUOUS
 62
    7
 10
784.27899596303848
 20
173.76793321930359
 11
784.25501533463853
 21
173.76793321930359
  0
LINE
  8
_0-0_
  6
CONTINUOUS
 62
    7
 10
782.92899596303846
 20
173.76793321930359
 11
782.14431317343849
 21
173.76793321930359
  0
LINE
  8
_0-0_
  6
CONTINUOUS
 62
    7
 10
772.21367875263809
 20
173.76793321930359
 11
770.64431317343849
 21
173.76793321930359
  0
LINE
  8
_0-0_
  6
CONTINUOUS
 62
    7
 10
760.71367875263809
 20
173.76793321930359
 11
759.92899596303812
 21
173.76793321930359
  0
LINE
  8
_0-0_
  6
CONTINUOUS
 62
    7
 10
758.60297659143851
 20
173.76793321930359
 11
758.5789959630381
 21
173.76793321930359
  0
LINE
  8
_0-0_
  6
CONTINUOUS
 62
    7
 10
784.27899596303848
 20
184.63173722330362
 11
784.25501533463853
 21
184.63173722330362
  0
LINE
  8
_0-0_
  6
CONTINUOUS
 62
    7
 10
782.92899596303846
 20
184.63173722330362
 11
782.14431317343849
 21
184.63173722330362
  0
LINE
  8
_0-0_
  6
CONTINUOUS
 62
    7
 10
772.21367875263809
 20
184.63173722330362
 11
770.64431317343849
 21
184.63173722330362
  0
LINE
  8
_0-0_
  6
CONTINUOUS
 62
    7
 10
760.71367875263809
 20
184.63173722330362
 11
759.92899596303812
 21
184.63173722330362
  0
LINE
  8
_0-0_
  6
CONTINUOUS
 62
    7
 10
758.60297659143851
 20
184.63173722330362
 11
758.5789959630381
 21
184.63173722330362
  0
LINE
  8
_0-0_
  6
CONTINUOUS
 62
    7
 10
782.42899596303812
 20
185.69983522130363
 11
760.42899596303812
 21
185.69983522130363
  0
LINE
  8
_0-0_
  6
CONTINUOUS
 62
    7
 10
758.55399596303846
 20
199.06586062490362
 11
760.05399596303846
 21
198.19983522130363
  0
LINE
  8
_0-0_
  6
CONTINUOUS
 62
    7
 10
784.27899596303848
 20
184.63173722330362
 11
782.42899596303812
 21
185.69983522130363
  0
LINE
  8
_0-0_
  6
CONTINUOUS
 62
    7
 10
810.0004870874385
 20
717.78546694050374
 11
841.14727197943853
 21
741.25625284370358
  0
LINE
  8
_0-0_
  6
CONTINUOUS
 62
    7
 10
809.80366660063851
 20
716.38501640730374
 11
789.90002404143809
 21
701.38654594490322
  0
LINE
  8
_0-0_
  6
CONTINUOUS
 62
    7
 10
814.61818678583847
 20
709.99593232690358
 11
789.90012090663845
 21
691.36953367290334
  0
LINE
  8
_0-0_
  6
CONTINUOUS
 62
    7
 10
816.01863731903848
 20
709.79911184010371
 11
847.1654222110385
 21
733.26989774290359
  0
LINE
  8
_0-0_
  6
CONTINUOUS
 62
    7
 10
760.42899596303812
 20
190.39983522130362
 11
782.42899596303812
 21
190.39983522130362
  0
LINE
  8
_0-0_
  6
CONTINUOUS
 62
    7
 10
760.72900310503849
 20
190.69983522130363
 11
782.12898882103809
 21
190.69983522130363
  0
LINE
  8
_0-0_
  6
CONTINUOUS
 62
    7
 10
780.72899596303853
 20
193.69983522130366
 11
762.12899596303851
 21
193.69983522130366
  0
LINE
  8
_0-0_
  6
CONTINUOUS
 62
    7
 10
781.67899596303846
 20
194.69983522130363
 11
761.17899596303812
 21
194.69983522130363
  0
LINE
  8
_0-0_
  6
CONTINUOUS
 62
    7
 10
760.05399596303846
 20
198.19983522130363
 11
782.80399596303846
 21
198.19983522130363
  0
LINE
  8
_0-0_
  6
CONTINUOUS
 62
    7
 10
758.55399596303846
 20
199.06586062490362
 11
758.57506977543846
 21
199.06586062490362
  0
LINE
  8
_0-0_
  6
CONTINUOUS
 62
    7
 10
764.36433786383805
 20
199.06586062490362
 11
765.63972787463808
 21
199.06586062490362
  0
LINE
  8
_0-0_
  6
CONTINUOUS
 62
    7
 10
777.2182640514385
 20
199.06586062490362
 11
778.49365406223808
 21
199.06586062490362
  0
LINE
  8
_0-0_
  6
CONTINUOUS
 62
    7
 10
784.28292215063846
 20
199.06586062490362
 11
784.30399596303846
 21
199.06586062490362
  0
LINE
  8
_0-0_
  6
CONTINUOUS
 62
    2
 10
805.2714178886381
 20
204.42509951490362
 11
813.68617665503803
 21
204.42509951490362
  0
LINE
  8
_0-0_
  6
CONTINUOUS
 62
    7
 10
758.55399596303846
 20
208.83380981770361
 11
758.57506977543846
 21
208.83380981770361
  0
LINE
  8
_0-0_
  6
CONTINUOUS
 62
    7
 10
764.36433786383805
 20
208.83380981770361
 11
765.63972787463808
 21
208.83380981770361
  0
LINE
  8
_0-0_
  6
CONTINUOUS
 62
    7
 10
777.2182640514385
 20
208.83380981770361
 11
778.49365406223808
 21
208.83380981770361
  0
LINE
  8
_0-0_
  6
CONTINUOUS
 62
    7
 10
784.28292215063846
 20
208.83380981770361
 11
784.30399596303846
 21
208.83380981770361
  0
LINE
  8
_0-0_
  6
CONTINUOUS
 62
    7
 10
760.05399596303846
 20
209.69983522130363
 11
782.80399596303846
 21
209.69983522130363
  0
LINE
  8
_0-0_
  6
CONTINUOUS
 62
    7
 10
777.42899596303812
 20
210.19983522130363
 11
765.42899596303812
 21
210.19983522130363
  0
LINE
  8
_0-0_
  6
CONTINUOUS
 62
    7
 10
776.92899596303846
 20
210.39983522130362
 11
765.92899596303812
 21
210.39983522130362
  0
LINE
  8
_0-0_
  6
CONTINUOUS
 62
    7
 10
782.80399596303846
 20
209.69983522130363
 11
784.30399596303846
 21
208.83380981770361
  0
LINE
  8
_0-0_
  6
CONTINUOUS
 62
    7
 10
761.17899596303812
 20
194.69983522130363
 11
762.17899596303846
 21
193.69983522130366
  0
LINE
  8
_0-0_
  6
CONTINUOUS
 62
    7
 10
782.12899596303851
 20
190.69983522130363
 11
782.42899596303812
 21
190.39983522130362
  0
LINE
  8
_0-0_
  6
CONTINUOUS
 62
    7
 10
710.97065814463849
 20
153.07541671050359
 11
710.96962531983809
 21
153.07841999090363
  0
LINE
  8
_0-0_
  6
CONTINUOUS
 62
    9
 10
871.03997278183851
 20
700.69514261810332
 11
898.51896361543845
 21
711.79737557450358
  0
LINE
  8
_0-0_
  6
CONTINUOUS
 62
    9
 10
870.78072994623847
 20
700.05150452250314
 11
899.15255589583808
 21
711.51446628090321
  0
LINE
  8
_0-0_
  6
CONTINUOUS
 62
    9
 10
906.91656344303806
 20
692.29787327130362
 11
878.5447374930385
 21
680.83491151290332
  0
LINE
  8
_0-0_
  6
CONTINUOUS
 62
    7
 10
906.64027481223809
 20
691.64697804730372
 11
879.19563271703851
 21
680.55862288210369
  0
LINE
  8
_0-0_
  6
CONTINUOUS
 62
    7
 10
765.92899596303812
 20
213.39983522130362
 11
776.92899596303846
 21
213.39983522130362
  0
LINE
  8
_0-0_
  6
CONTINUOUS
 62
    7
 10
776.92899596303846
 20
222.39983522130362
 11
765.92899596303812
 21
222.39983522130362
  0
LINE
  8
_0-0_
  6
CONTINUOUS
 62
    9
 10
777.42899596303812
 20
225.39983522130362
 11
765.42899596303812
 21
225.39983522130362
  0
LINE
  8
_0-0_
  6
CONTINUOUS
 62
    7
 10
777.42899596303812
 20
228.39983522130362
 11
765.42899596303812
 21
228.39983522130362
  0
LINE
  8
_0-0_
  6
CONTINUOUS
 62
    7
 10
767.89346205703851
 20
234.74983522130364
 11
767.92640003823851
 21
234.72294147250361
  0
LINE
  8
_0-0_
  6
CONTINUOUS
 62
    7
 10
774.96452986903853
 20
234.64983522130362
 11
774.93159194223813
 21
234.6767289257036
  0
LINE
  8
_0-0_
  6
CONTINUOUS
 62
    7
 10
767.89346205703851
 20
247.24983522130364
 11
767.9264000818381
 21
247.22294143650359
  0
LINE
  8
_0-0_
  6
CONTINUOUS
 62
    7
 10
774.96452986903853
 20
247.14983522130362
 11
774.93159188823847
 21
247.1767289701036
  0
LINE
  8
_0-0_
  6
CONTINUOUS
 62
    7
 10
664.8289959630381
 20
311.4498352213036
 11
664.8289959630381
 21
305.9498352213036
  0
LINE
  8
_0-0_
  6
CONTINUOUS
 62
    7
 10
790.85681173063847
 20
636.52230477050364
 11
871.80351556383846
 21
697.52002128650361
  0
LINE
  8
_0-0_
  6
CONTINUOUS
 62
    7
 10
897.68736597023849
 20
686.08840554090375
 11
889.49712529543808
 21
682.77933351250363
  0
LINE
  8
_0-0_
  6
CONTINUOUS
 62
    7
 10
905.48732866703847
 20
686.7591651229036
 11
898.5489611350381
 21
683.9558826753032
  0
LINE
  8
_0-0_
  6
CONTINUOUS
 62
    7
 10
890.35872046023849
 20
680.6468106469033
 11
883.42035292863852
 21
677.84352819930359
  0
LINE
  8
_0-0_
  6
CONTINUOUS
 62
    7
 10
904.62540260183812
 20
685.65595006770354
 11
884.8067282246385
 21
677.64868585810359
  0
LINE
  8
_0-0_
  6
CONTINUOUS
 62
    7
 10
767.89346205703851
 20
259.74983522130367
 11
767.92640003783845
 21
259.72294147290359
  0
LINE
  8
_0-0_
  6
CONTINUOUS
 62
    7
 10
774.96452986903853
 20
259.64983522130365
 11
774.93159192703808
 21
259.67672893810357
  0
LINE
  8
_0-0_
  6
CONTINUOUS
 62
    7
 10
767.89346205703851
 20
272.24983522130367
 11
767.92640003823851
 21
272.22294147210357
  0
LINE
  8
_0-0_
  6
CONTINUOUS
 62
    7
 10
774.96452986903853
 20
272.14983522130365
 11
774.93159188783852
 21
272.17672897010357
  0
LINE
  8
_0-0_
  6
CONTINUOUS
 62
    7
 10
767.89346205703851
 20
284.74983522130367
 11
767.92640003823851
 21
284.72294147210357
  0
LINE
  8
_0-0_
  6
CONTINUOUS
 62
    7
 10
858.42282435503853
 20
667.40277670250362
 11
858.46276306103846
 21
667.43287267650362
  0
LINE
  8
_0-0_
  6
CONTINUOUS
 62
    7
 10
791.33781559903844
 20
616.85059665330323
 11
858.38289257943848
 21
667.37268595130331
  0
LINE
  8
_0-0_
  6
CONTINUOUS
 62
    7
 10
861.89687997543842
 20
670.02066538570375
 11
861.93682059903813
 21
670.05076280450362
  0
LINE
  8
_0-0_
  6
CONTINUOUS
 62
    7
 10
861.97675237463852
 20
670.0808535557037
 11
878.00865609463813
 21
682.16175953490324
  0
LINE
  8
_0-0_
  6
CONTINUOUS
 62
    7
 10
859.30416321743803
 20
666.81477751370358
 11
862.2591130494385
 21
669.0414919273037
  0
LINE
  8
_0-0_
  6
CONTINUOUS
 62
    7
 10
729.33456053903808
 20
296.59983522130358
 11
728.73419877983849
 21
296.80490051770357
  0
LINE
  8
_0-0_
  6
CONTINUOUS
 62
    7
 10
737.73482927623843
 20
313.99480322490365
 11
737.13456053903849
 21
314.1998352213036
  0
LINE
  8
_0-0_
  6
CONTINUOUS
 62
    7
 10
774.96452986903853
 20
284.64983522130365
 11
774.93159188783852
 21
284.67672897010357
  0
LINE
  8
_0-0_
  6
CONTINUOUS
 62
    7
 10
767.89346205703851
 20
297.24983522130361
 11
767.9263999994381
 21
297.22294150370357
  0
LINE
  8
_0-0_
  6
CONTINUOUS
 62
    7
 10
774.96452986903853
 20
297.14983522130359
 11
774.93159188823847
 21
297.17672896970356
  0
LINE
  8
_0-0_
  6
CONTINUOUS
 62
    7
 10
767.89346205703851
 20
309.74983522130361
 11
767.92640003783845
 21
309.72294147290353
  0
LINE
  8
_0-0_
  6
CONTINUOUS
 62
    7
 10
774.96452986903853
 20
309.64983522130359
 11
774.9315919154385
 21
309.67672894730362
  0
LINE
  8
_0-0_
  6
CONTINUOUS
 62
    7
 10
736.30798660783853
 20
344.79842289490352
 11
735.9311993694381
 21
345.29077671090363
  0
LINE
  8
_0-0_
  6
CONTINUOUS
 62
    7
 10
767.89346205703851
 20
559.64983522130319
 11
767.92640001143843
 21
559.67672894850364
  0
LINE
  8
_0-0_
  6
CONTINUOUS
 62
    7
 10
774.96452986903853
 20
559.74983522130356
 11
774.93159929943852
 21
559.72294752410323
  0
LINE
  8
_0-0_
  6
CONTINUOUS
 62
    7
 10
767.89346205703851
 20
547.14983522130319
 11
767.92639999023845
 21
547.17672893130316
  0
LINE
  8
_0-0_
  6
CONTINUOUS
 62
    7
 10
1059.2969451554382
 20
285.1998352213036
 11
1018.5610467706384
 21
285.1998352213036
  0
LINE
  8
_0-0_
  6
CONTINUOUS
 62
    7
 10
1043.0798490078387
 20
295.1998352213036
 11
1036.1689554966383
 21
295.1998352213036
  0
LINE
  8
_0-0_
  6
CONTINUOUS
 62
    7
 10
1018.4744442302381
 20
296.14983522130359
 11
1059.3835476958384
 21
296.14983522130359
  0
LINE
  8
_0-0_
  6
CONTINUOUS
 62
    7
 10
729.3345731154385
 20
296.59983522130358
 11
737.13454796263852
 21
296.59983522130358
  0
LINE
  8
_0-0_
  6
CONTINUOUS
 62
    7
 10
1061.0289959630386
 20
297.09983522130358
 11
1016.8289959630381
 21
297.09983522130358
  0
LINE
  8
_0-0_
  6
CONTINUOUS
 62
    7
 10
1005.8289959630384
 20
297.1998352213036
 11
994.8289959630381
 21
297.1998352213036
  0
LINE
  8
_0-0_
  6
CONTINUOUS
 62
    7
 10
1015.8289959630384
 20
298.19983522130354
 11
1005.8289959630384
 21
298.19983522130354
  0
LINE
  8
_0-0_
  6
CONTINUOUS
 62
    7
 10
994.68286250543804
 20
305.9498352213036
 11
776.42899596303846
 21
305.9498352213036
  0
LINE
  8
_0-0_
  6
CONTINUOUS
 62
    7
 10
766.42899596303846
 20
305.9498352213036
 11
737.73456053903851
 21
305.9498352213036
  0
LINE
  8
_0-0_
  6
CONTINUOUS
 62
    7
 10
728.73456053903851
 20
305.9498352213036
 11
664.8289959630381
 21
305.9498352213036
  0
LINE
  8
_0-0_
  6
CONTINUOUS
 62
    7
 10
738.15984832103845
 20
356.64890730690365
 11
738.15896150783851
 21
356.64961813650359
  0
LINE
  8
_0-0_
  6
CONTINUOUS
 62
    7
 10
738.15896150783851
 20
356.64961813650359
 11
738.15785749543852
 21
356.65065456930358
  0
LINE
  8
_0-0_
  6
CONTINUOUS
 62
    7
 10
738.15785749543852
 20
356.65065456930358
 11
738.15702503703847
 21
356.65165512690362
  0
LINE
  8
_0-0_
  6
CONTINUOUS
 62
    7
 10
738.15702503703847
 20
356.65165512690362
 11
738.15646422423845
 21
356.65261969970356
  0
LINE
  8
_0-0_
  6
CONTINUOUS
 62
    7
 10
738.15646422423845
 20
356.65261969970356
 11
738.15617511863843
 21
356.65354818210358
  0
LINE
  8
_0-0_
  6
CONTINUOUS
 62
    7
 10
738.15617511863843
 20
356.65354818210358
 11
738.15615749023846
 21
356.65443853690363
  0
LINE
  8
_0-0_
  6
CONTINUOUS
 62
    7
 10
767.89346205703851
 20
322.24983522130361
 11
767.92640003823851
 21
322.22294147210357
  0
LINE
  8
_0-0_
  6
CONTINUOUS
 62
    7
 10
774.96452986903853
 20
322.14983522130359
 11
774.93159188783852
 21
322.17672897010357
  0
LINE
  8
_0-0_
  6
CONTINUOUS
 62
    7
 10
767.89346205703851
 20
334.74983522130361
 11
767.92640003823851
 21
334.72294147250358
  0
LINE
  8
_0-0_
  6
CONTINUOUS
 62
    7
 10
774.96452986903853
 20
334.64983522130359
 11
774.93159188783852
 21
334.67672897010357
  0
LINE
  8
_0-0_
  6
CONTINUOUS
 62
    7
 10
767.89346205703851
 20
347.24983522130367
 11
767.9263999738381
 21
347.2229415249036
  0
LINE
  8
_0-0_
  6
CONTINUOUS
 62
    7
 10
743.74958199263813
 20
355.46859393290367
 11
743.3727947542385
 21
355.96094774890366
  0
LINE
  8
_0-0_
  6
CONTINUOUS
 62
    7
 10
728.73456053903851
 20
296.80477124370361
 11
728.73456053903851
 21
313.9948993153036
  0
LINE
  8
_0-0_
  6
CONTINUOUS
 62
    7
 10
730.33456053903808
 20
317.99983522130361
 11
730.33456053903808
 21
320.49983522130361
  0
LINE
  8
_0-0_
  6
CONTINUOUS
 62
    7
 10
730.51397996303842
 20
320.1998352213036
 11
730.51397996303842
 21
318.29983522130357
  0
LINE
  8
_0-0_
  6
CONTINUOUS
 62
    7
 10
730.98456053903851
 20
314.1998352213036
 11
730.98456053903851
 21
317.99983522130361
  0
LINE
  8
_0-0_
  6
CONTINUOUS
 62
    7
 10
732.58456053903808
 20
297.40258061570358
 11
732.58456053903808
 21
305.99708982690356
  0
LINE
  8
_0-0_
  6
CONTINUOUS
 62
    7
 10
733.05514111503851
 20
320.1998352213036
 11
733.05514111503851
 21
318.29983522130357
  0
LINE
  8
_0-0_
  6
CONTINUOUS
 62
    7
 10
733.41397996303851
 20
320.1998352213036
 11
733.41397996303851
 21
318.29983522130357
  0
LINE
  8
_0-0_
  6
CONTINUOUS
 62
    7
 10
733.88456053903849
 20
297.40258061570358
 11
733.88456053903849
 21
305.99708982690356
  0
LINE
  8
_0-0_
  6
CONTINUOUS
 62
    7
 10
735.48456053903851
 20
314.1998352213036
 11
735.48456053903851
 21
317.99983522130361
  0
LINE
  8
_0-0_
  6
CONTINUOUS
 62
    7
 10
735.95514111503849
 20
320.1998352213036
 11
735.95514111503849
 21
318.29983522130357
  0
LINE
  8
_0-0_
  6
CONTINUOUS
 62
    7
 10
736.13456053903849
 20
317.99983522130361
 11
736.13456053903849
 21
320.49983522130361
  0
LINE
  8
_0-0_
  6
CONTINUOUS
 62
    7
 10
737.73456053903851
 20
313.9948993153036
 11
737.73456053903851
 21
296.80477124370361
  0
LINE
  8
_0-0_
  6
CONTINUOUS
 62
    7
 10
744.02899596303848
 20
584.1998352213036
 11
744.02899596303848
 21
581.1998352213036
  0
LINE
  8
_0-0_
  6
CONTINUOUS
 62
    7
 10
745.42899596303812
 20
538.6998352213036
 11
745.42899596303812
 21
541.1998352213036
  0
LINE
  8
_0-0_
  6
CONTINUOUS
 62
    7
 10
747.92899596303812
 20
702.92314229690373
 11
747.92899596303812
 21
691.89983522130319
  0
LINE
  8
_0-0_
  6
CONTINUOUS
 62
    7
 10
748.02899596303848
 20
673.19983522130315
 11
748.02899596303848
 21
674.1998352213036
  0
LINE
  8
_0-0_
  6
CONTINUOUS
 62
    7
 10
748.07833650103851
 20
685.95034547850332
 11
748.07833650103851
 21
684.62265740610314
  0
LINE
  8
_0-0_
  6
CONTINUOUS
 62
    7
 10
747.87899596303851
 20
673.19983522130315
 11
745.72899596303853
 21
585.1998352213036
  0
LINE
  8
_0-0_
  6
CONTINUOUS
 62
    7
 10
735.73849719183852
 20
345.59919983210352
 11
737.14081950743844
 21
356.09995777810366
  0
LINE
  8
_0-0_
  6
CONTINUOUS
 62
    7
 10
736.5634204066381
 20
344.72783195290367
 11
733.3278958238385
 21
320.49983522130361
  0
LINE
  8
_0-0_
  6
CONTINUOUS
 62
    7
 10
730.13617352023812
 20
296.59983522130358
 11
710.96962531983809
 21
153.07841999090363
  0
LINE
  8
_0-0_
  6
CONTINUOUS
 62
    7
 10
764.4827825450385
 20
553.79130834330363
 11
763.16850433343848
 21
543.9498352213036
  0
LINE
  8
_0-0_
  6
CONTINUOUS
 62
    7
 10
753.92052234583809
 20
474.6998352213036
 11
738.1557885646381
 21
356.65161499410362
  0
LINE
  8
_0-0_
  6
CONTINUOUS
 62
    7
 10
737.02807380423849
 20
345.31804240250358
 11
738.43039611943811
 21
355.8188003485036
  0
LINE
  8
_0-0_
  6
CONTINUOUS
 62
    7
 10
905.48732866703847
 20
686.7591651229036
 11
904.62540260183812
 21
685.65595006770354
  0
LINE
  8
_0-0_
  6
CONTINUOUS
 62
    7
 10
774.96452986903853
 20
547.24983522130356
 11
774.9315918418381
 21
547.22294143450324
  0
LINE
  8
_0-0_
  6
CONTINUOUS
 62
    7
 10
767.89346205703851
 20
534.64983522130319
 11
767.92640009303852
 21
534.67672901530364
  0
LINE
  8
_0-0_
  6
CONTINUOUS
 62
    7
 10
774.96452986903853
 20
534.74983522130356
 11
774.93159190343852
 21
534.72294148490323
  0
LINE
  8
_0-0_
  6
CONTINUOUS
 62
    7
 10
767.89346205703851
 20
522.14983522130319
 11
767.92640010583852
 21
522.17672902530364
  0
LINE
  8
_0-0_
  6
CONTINUOUS
 62
    7
 10
774.96452986903853
 20
522.24983522130321
 11
774.93159194503846
 21
522.22294151930362
  0
LINE
  8
_0-0_
  6
CONTINUOUS
 62
    7
 10
994.68286250543804
 20
311.4498352213036
 11
776.42899596303846
 21
311.4498352213036
  0
LINE
  8
_0-0_
  6
CONTINUOUS
 62
    7
 10
766.42899596303846
 20
311.4498352213036
 11
737.73456053903851
 21
311.4498352213036
  0
LINE
  8
_0-0_
  6
CONTINUOUS
 62
    7
 10
728.73456053903851
 20
311.4498352213036
 11
664.8289959630381
 21
311.4498352213036
  0
LINE
  8
_0-0_
  6
CONTINUOUS
 62
    7
 10
729.3345731154385
 20
314.1998352213036
 11
737.13454796263852
 21
314.1998352213036
  0
LINE
  8
_0-0_
  6
CONTINUOUS
 62
    7
 10
730.33456053903808
 20
317.99983522130361
 11
736.13456053903849
 21
317.99983522130361
  0
LINE
  8
_0-0_
  6
CONTINUOUS
 62
    7
 10
730.51397996303842
 20
318.29983522130357
 11
730.33456053903808
 21
318.29983522130357
  0
LINE
  8
_0-0_
  6
CONTINUOUS
 62
    7
 10
733.05514111503851
 20
318.29983522130357
 11
733.41397996303851
 21
318.29983522130357
  0
LINE
  8
_0-0_
  6
CONTINUOUS
 62
    7
 10
735.95514111503849
 20
318.29983522130357
 11
736.13456053903849
 21
318.29983522130357
  0
LINE
  8
_0-0_
  6
CONTINUOUS
 62
    7
 10
1015.8289959630384
 20
319.1998352213036
 11
1005.8289959630384
 21
319.1998352213036
  0
LINE
  8
_0-0_
  6
CONTINUOUS
 62
    7
 10
1005.8289959630384
 20
320.1998352213036
 11
994.8289959630381
 21
320.1998352213036
  0
LINE
  8
_0-0_
  6
CONTINUOUS
 62
    7
 10
733.41397996303851
 20
320.1998352213036
 11
733.05514111503851
 21
320.1998352213036
  0
LINE
  8
_0-0_
  6
CONTINUOUS
 62
    7
 10
730.51397996303842
 20
320.1998352213036
 11
730.33456053903808
 21
320.1998352213036
  0
LINE
  8
_0-0_
  6
CONTINUOUS
 62
    7
 10
735.95514111503849
 20
320.1998352213036
 11
736.13456053903849
 21
320.1998352213036
  0
LINE
  8
_0-0_
  6
CONTINUOUS
 62
    7
 10
730.33456053903808
 20
320.49983522130361
 11
736.13456053903849
 21
320.49983522130361
  0
LINE
  8
_0-0_
  6
CONTINUOUS
 62
    7
 10
1016.8289959630381
 20
329.89983522130359
 11
1061.0289959630386
 21
329.89983522130359
  0
LINE
  8
_0-0_
  6
CONTINUOUS
 62
    7
 10
738.29839868423846
 20
356.60669698050367
 11
738.27717054343805
 21
356.61167392570371
  0
LINE
  8
_0-0_
  6
CONTINUOUS
 62
    7
 10
738.27717054343805
 20
356.61167392570371
 11
738.2591835374385
 21
356.61605604010367
  0
LINE
  8
_0-0_
  6
CONTINUOUS
 62
    7
 10
738.2591835374385
 20
356.61605604010367
 11
738.24261443903811
 21
356.62026349930363
  0
LINE
  8
_0-0_
  6
CONTINUOUS
 62
    7
 10
738.24261443903811
 20
356.62026349930363
 11
738.22954841583851
 21
356.62372897410353
  0
LINE
  8
_0-0_
  6
CONTINUOUS
 62
    7
 10
738.22954841583851
 20
356.62372897410353
 11
738.21563817423851
 21
356.6276054885036
  0
LINE
  8
_0-0_
  6
CONTINUOUS
 62
    7
 10
738.21563817423851
 20
356.6276054885036
 11
738.20311159503808
 21
356.6313189437036
  0
LINE
  8
_0-0_
  6
CONTINUOUS
 62
    7
 10
738.20311162343808
 20
356.63131893490356
 11
738.20256284143852
 21
356.63148770130363
  0
LINE
  8
_0-0_
  6
CONTINUOUS
 62
    7
 10
738.20256283783851
 20
356.63148770250359
 11
738.1930971734381
 21
356.63450040010366
  0
LINE
  8
_0-0_
  6
CONTINUOUS
 62
    7
 10
738.1930971734381
 20
356.63450040010366
 11
738.18340744783848
 21
356.63784271730367
  0
LINE
  8
_0-0_
  6
CONTINUOUS
 62
    7
 10
738.18340744783848
 20
356.63784271730367
 11
738.17626631983808
 21
356.64055826890365
  0
LINE
  8
_0-0_
  6
CONTINUOUS
 62
    7
 10
738.17626631983808
 20
356.64055826890365
 11
738.16929781183842
 21
356.64355056610361
  0
LINE
  8
_0-0_
  6
CONTINUOUS
 62
    7
 10
738.16929781183842
 20
356.64355056610361
 11
738.16380087543803
 21
356.64635179330367
  0
LINE
  8
_0-0_
  6
CONTINUOUS
 62
    7
 10
738.16380087543803
 20
356.64635179330367
 11
738.15984832503807
 21
356.6489073037036
  0
LINE
  8
_0-0_
  6
CONTINUOUS
 62
    7
 10
774.96452986903853
 20
347.14983522130365
 11
774.93159188823847
 21
347.17672896970362
  0
LINE
  8
_0-0_
  6
CONTINUOUS
 62
    7
 10
767.89346205703851
 20
359.74983522130367
 11
767.92640003783845
 21
359.7229414729037
  0
LINE
  8
_0-0_
  6
CONTINUOUS
 62
    7
 10
774.96452986903853
 20
359.64983522130365
 11
774.9315919246385
 21
359.67672894010366
  0
LINE
  8
_0-0_
  6
CONTINUOUS
 62
    7
 10
767.89346205703851
 20
372.24983522130321
 11
767.92640003823851
 21
372.22294147250318
  0
LINE
  8
_0-0_
  6
CONTINUOUS
 62
    7
 10
774.96452986903853
 20
372.14983522130365
 11
774.93159188783852
 21
372.17672897010323
  0
LINE
  8
_0-0_
  6
CONTINUOUS
 62
    7
 10
753.47899596303853
 20
474.6998352213036
 11
753.47899596303853
 21
482.6998352213036
  0
LINE
  8
_0-0_
  6
CONTINUOUS
 62
    7
 10
753.97899596303853
 20
483.1998352213036
 11
753.97899596303853
 21
537.1998352213036
  0
LINE
  8
_0-0_
  6
CONTINUOUS
 62
    7
 10
754.92899596303812
 20
580.77983522130364
 11
754.92899596303812
 21
543.9498352213036
  0
LINE
  8
_0-0_
  6
CONTINUOUS
 62
    2
 10
755.3289959630381
 20
580.77983522130364
 11
755.3289959630381
 21
543.9498352213036
  0
LINE
  8
_0-0_
  6
CONTINUOUS
 62
    7
 10
758.55399596303846
 20
208.83380981770361
 11
758.55399596303846
 21
199.06586062490362
  0
LINE
  8
_0-0_
  6
CONTINUOUS
 62
    7
 10
758.57506977543846
 20
208.83380981770361
 11
758.57506977543846
 21
199.06586062490362
  0
LINE
  8
_0-0_
  6
CONTINUOUS
 62
    7
 10
758.5789959630381
 20
184.63173722330362
 11
758.5789959630381
 21
173.76793321930359
  0
LINE
  8
_0-0_
  6
CONTINUOUS
 62
    7
 10
758.60297659143851
 20
184.63173722330362
 11
758.60297659143851
 21
173.76793321930359
  0
LINE
  8
_0-0_
  6
CONTINUOUS
 62
    7
 10
758.92899596303846
 20
474.6998352213036
 11
758.92899596303846
 21
482.6998352213036
  0
LINE
  8
_0-0_
  6
CONTINUOUS
 62
    7
 10
759.92899596303812
 20
172.98851610610362
 11
759.92899596303812
 21
185.41115433650361
  0
LINE
  8
_0-0_
  6
CONTINUOUS
 62
    7
 10
760.42899596303812
 20
190.39983522130362
 11
760.42899596303812
 21
185.69983522130363
  0
LINE
  8
_0-0_
  6
CONTINUOUS
 62
    7
 10
760.71367875263809
 20
184.63173722330362
 11
760.71367875263809
 21
173.76793321930359
  0
LINE
  8
_0-0_
  6
CONTINUOUS
 62
    7
 10
761.17899596303812
 20
198.19983522130363
 11
761.17899596303812
 21
194.69983522130363
  0
LINE
  8
_0-0_
  6
CONTINUOUS
 62
    2
 10
762.12899596303851
 20
198.19983522130363
 11
762.12899596303851
 21
193.69983522130366
  0
LINE
  8
_0-0_
  6
CONTINUOUS
 62
    2
 10
762.52899596303803
 20
580.77983522130364
 11
762.52899596303803
 21
543.9498352213036
  0
LINE
  8
_0-0_
  6
CONTINUOUS
 62
    7
 10
762.67899596303812
 20
193.69983522130366
 11
762.67899596303812
 21
190.69983522130363
  0
LINE
  8
_0-0_
  6
CONTINUOUS
 62
    7
 10
762.92899596303846
 20
580.77983522130364
 11
762.92899596303846
 21
543.9498352213036
  0
LINE
  8
_0-0_
  6
CONTINUOUS
 62
    7
 10
763.87899596303851
 20
483.1998352213036
 11
763.87899596303851
 21
537.1998352213036
  0
LINE
  8
_0-0_
  6
CONTINUOUS
 62
    7
 10
764.36433786383805
 20
208.83380981770361
 11
764.36433786383805
 21
199.06586062490362
  0
LINE
  8
_0-0_
  6
CONTINUOUS
 62
    7
 10
764.37899596303851
 20
474.6998352213036
 11
764.37899596303851
 21
482.6998352213036
  0
LINE
  8
_0-0_
  6
CONTINUOUS
 62
    7
 10
765.42899596303812
 20
228.39983522130362
 11
765.42899596303812
 21
225.39983522130362
  0
LINE
  8
_0-0_
  6
CONTINUOUS
 62
    7
 10
765.42899596303812
 20
210.19983522130363
 11
765.42899596303812
 21
209.69983522130363
  0
LINE
  8
_0-0_
  6
CONTINUOUS
 62
    7
 10
765.42899596303812
 20
562.1998352213036
 11
765.42899596303812
 21
565.19983522130315
  0
LINE
  8
_0-0_
  6
CONTINUOUS
 62
    7
 10
765.42899596303812
 20
580.1998352213036
 11
765.42899596303812
 21
580.77983522130364
  0
LINE
  8
_0-0_
  6
CONTINUOUS
 62
    7
 10
765.4668983614381
 20
580.1998352213036
 11
765.4668983614381
 21
580.77983522130364
  0
LINE
  8
_0-0_
  6
CONTINUOUS
 62
    7
 10
765.63972787463808
 20
208.83380981770361
 11
765.63972787463808
 21
199.06586062490362
  0
LINE
  8
_0-0_
  6
CONTINUOUS
 62
    7
 10
765.92899596303812
 20
210.39983522130362
 11
765.92899596303812
 21
210.19983522130363
  0
LINE
  8
_0-0_
  6
CONTINUOUS
 62
    7
 10
766.30552057983812
 20
222.39983522130362
 11
766.30552057983812
 21
213.39983522130362
  0
LINE
  8
_0-0_
  6
CONTINUOUS
 62
    7
 10
766.30552057983812
 20
568.19983522130315
 11
766.30552057983812
 21
577.19983522130315
  0
LINE
  8
_0-0_
  6
CONTINUOUS
 62
    7
 10
766.39193821423851
 20
222.39983522130362
 11
766.39193821423851
 21
213.39983522130362
  0
LINE
  8
_0-0_
  6
CONTINUOUS
 62
    7
 10
766.39193821423851
 20
568.19983522130315
 11
766.39193821423851
 21
577.19983522130315
  0
LINE
  8
_0-0_
  6
CONTINUOUS
 62
    7
 10
766.4085378166385
 20
577.19983522130315
 11
766.4085378166385
 21
568.19983522130315
  0
LINE
  8
_0-0_
  6
CONTINUOUS
 62
    7
 10
766.4085378166385
 20
222.39983522130362
 11
766.4085378166385
 21
213.39983522130362
  0
LINE
  8
_0-0_
  6
CONTINUOUS
 62
    7
 10
766.42899596303846
 20
562.1998352213036
 11
766.42899596303846
 21
553.49983522130356
  0
LINE
  8
_0-0_
  6
CONTINUOUS
 62
    7
 10
766.42899596303846
 20
553.39983522130319
 11
766.42899596303846
 21
543.9498352213036
  0
LINE
  8
_0-0_
  6
CONTINUOUS
 62
    7
 10
766.42899596303846
 20
537.1998352213036
 11
766.42899596303846
 21
528.49983522130356
  0
LINE
  8
_0-0_
  6
CONTINUOUS
 62
    7
 10
766.42899596303846
 20
528.39983522130319
 11
766.42899596303846
 21
515.99983522130321
  0
LINE
  8
_0-0_
  6
CONTINUOUS
 62
    7
 10
766.42899596303846
 20
515.89983522130319
 11
766.42899596303846
 21
503.49983522130321
  0
LINE
  8
_0-0_
  6
CONTINUOUS
 62
    7
 10
766.42899596303846
 20
503.39983522130319
 11
766.42899596303846
 21
490.99983522130321
  0
LINE
  8
_0-0_
  6
CONTINUOUS
 62
    7
 10
766.42899596303846
 20
490.89983522130319
 11
766.42899596303846
 21
478.49983522130321
  0
LINE
  8
_0-0_
  6
CONTINUOUS
 62
    7
 10
766.42899596303846
 20
478.39983522130319
 11
766.42899596303846
 21
465.99983522130321
  0
LINE
  8
_0-0_
  6
CONTINUOUS
 62
    7
 10
766.42899596303846
 20
465.89983522130359
 11
766.42899596303846
 21
453.49983522130321
  0
LINE
  8
_0-0_
  6
CONTINUOUS
 62
    7
 10
766.42899596303846
 20
453.39983522130365
 11
766.42899596303846
 21
440.99983522130321
  0
LINE
  8
_0-0_
  6
CONTINUOUS
 62
    7
 10
766.42899596303846
 20
440.89983522130359
 11
766.42899596303846
 21
428.49983522130321
  0
LINE
  8
_0-0_
  6
CONTINUOUS
 62
    7
 10
766.42899596303846
 20
428.39983522130359
 11
766.42899596303846
 21
415.99983522130321
  0
LINE
  8
_0-0_
  6
CONTINUOUS
 62
    7
 10
766.42899596303846
 20
415.89983522130359
 11
766.42899596303846
 21
403.49983522130321
  0
LINE
  8
_0-0_
  6
CONTINUOUS
 62
    7
 10
766.42899596303846
 20
403.39983522130359
 11
766.42899596303846
 21
390.99983522130321
  0
LINE
  8
_0-0_
  6
CONTINUOUS
 62
    7
 10
766.42899596303846
 20
390.89983522130359
 11
766.42899596303846
 21
378.49983522130321
  0
LINE
  8
_0-0_
  6
CONTINUOUS
 62
    7
 10
766.42899596303846
 20
378.39983522130365
 11
766.42899596303846
 21
365.99983522130321
  0
LINE
  8
_0-0_
  6
CONTINUOUS
 62
    7
 10
766.42899596303846
 20
365.89983522130365
 11
766.42899596303846
 21
353.49983522130367
  0
LINE
  8
_0-0_
  6
CONTINUOUS
 62
    7
 10
766.42899596303846
 20
353.39983522130365
 11
766.42899596303846
 21
340.99983522130367
  0
LINE
  8
_0-0_
  6
CONTINUOUS
 62
    7
 10
766.42899596303846
 20
340.89983522130365
 11
766.42899596303846
 21
328.49983522130361
  0
LINE
  8
_0-0_
  6
CONTINUOUS
 62
    7
 10
766.42899596303846
 20
328.39983522130359
 11
766.42899596303846
 21
315.99983522130361
  0
LINE
  8
_0-0_
  6
CONTINUOUS
 62
    7
 10
766.42899596303846
 20
315.89983522130359
 11
766.42899596303846
 21
303.49983522130361
  0
LINE
  8
_0-0_
  6
CONTINUOUS
 62
    7
 10
766.42899596303846
 20
303.39983522130359
 11
766.42899596303846
 21
290.99983522130367
  0
LINE
  8
_0-0_
  6
CONTINUOUS
 62
    7
 10
766.42899596303846
 20
290.89983522130365
 11
766.42899596303846
 21
278.49983522130367
  0
LINE
  8
_0-0_
  6
CONTINUOUS
 62
    7
 10
766.42899596303846
 20
278.39983522130365
 11
766.42899596303846
 21
265.99983522130367
  0
LINE
  8
_0-0_
  6
CONTINUOUS
 62
    7
 10
766.42899596303846
 20
265.89983522130365
 11
766.42899596303846
 21
253.49983522130364
  0
LINE
  8
_0-0_
  6
CONTINUOUS
 62
    7
 10
766.42899596303846
 20
253.39983522130362
 11
766.42899596303846
 21
240.99983522130364
  0
LINE
  8
_0-0_
  6
CONTINUOUS
 62
    7
 10
766.42899596303846
 20
240.89983522130362
 11
766.42899596303846
 21
228.49983522130364
  0
LINE
  8
_0-0_
  6
CONTINUOUS
 62
    7
 10
767.86481412303851
 20
580.1998352213036
 11
767.86481412303851
 21
580.77983522130364
  0
LINE
  8
_0-0_
  6
CONTINUOUS
 62
    7
 10
769.0310802014385
 20
580.1998352213036
 11
769.0310802014385
 21
580.77983522130364
  0
LINE
  8
_0-0_
  6
CONTINUOUS
 62
    7
 10
769.22036533863809
 20
222.39983522130362
 11
769.22036533863809
 21
213.39983522130362
  0
LINE
  8
_0-0_
  6
CONTINUOUS
 62
    7
 10
769.22036533863809
 20
568.19983522130315
 11
769.22036533863809
 21
577.19983522130315
  0
LINE
  8
_0-0_
  6
CONTINUOUS
 62
    7
 10
769.42899596303846
 20
222.39983522130362
 11
769.42899596303846
 21
213.39983522130362
  0
LINE
  8
_0-0_
  6
CONTINUOUS
 62
    7
 10
769.42899596303846
 20
568.19983522130315
 11
769.42899596303846
 21
577.19983522130315
  0
LINE
  8
_0-0_
  6
CONTINUOUS
 62
    7
 10
770.64431317343849
 20
184.63173722330362
 11
770.64431317343849
 21
173.76793321930359
  0
LINE
  8
_0-0_
  6
CONTINUOUS
 62
    7
 10
771.42899596303846
 20
228.49983522130364
 11
771.42899596303846
 21
228.39983522130362
  0
LINE
  8
_0-0_
  6
CONTINUOUS
 62
    7
 10
771.42899596303846
 20
240.89983522130362
 11
771.42899596303846
 21
240.99983522130364
  0
LINE
  8
_0-0_
  6
CONTINUOUS
 62
    7
 10
771.42899596303846
 20
253.39983522130362
 11
771.42899596303846
 21
253.49983522130364
  0
LINE
  8
_0-0_
  6
CONTINUOUS
 62
    7
 10
771.42899596303846
 20
265.89983522130365
 11
771.42899596303846
 21
265.99983522130367
  0
LINE
  8
_0-0_
  6
CONTINUOUS
 62
    7
 10
771.42899596303846
 20
278.39983522130365
 11
771.42899596303846
 21
278.49983522130367
  0
LINE
  8
_0-0_
  6
CONTINUOUS
 62
    7
 10
771.42899596303846
 20
290.89983522130365
 11
771.42899596303846
 21
290.99983522130367
  0
LINE
  8
_0-0_
  6
CONTINUOUS
 62
    7
 10
771.42899596303846
 20
303.39983522130359
 11
771.42899596303846
 21
303.49983522130361
  0
LINE
  8
_0-0_
  6
CONTINUOUS
 62
    7
 10
771.42899596303846
 20
315.89983522130359
 11
771.42899596303846
 21
315.99983522130361
  0
LINE
  8
_0-0_
  6
CONTINUOUS
 62
    7
 10
771.42899596303846
 20
328.39983522130359
 11
771.42899596303846
 21
328.49983522130361
  0
LINE
  8
_0-0_
  6
CONTINUOUS
 62
    7
 10
771.42899596303846
 20
340.89983522130365
 11
771.42899596303846
 21
340.99983522130367
  0
LINE
  8
_0-0_
  6
CONTINUOUS
 62
    7
 10
771.42899596303846
 20
353.39983522130365
 11
771.42899596303846
 21
353.49983522130367
  0
LINE
  8
_0-0_
  6
CONTINUOUS
 62
    7
 10
771.42899596303846
 20
365.89983522130365
 11
771.42899596303846
 21
365.99983522130321
  0
LINE
  8
_0-0_
  6
CONTINUOUS
 62
    7
 10
771.42899596303846
 20
378.39983522130365
 11
771.42899596303846
 21
378.49983522130321
  0
LINE
  8
_0-0_
  6
CONTINUOUS
 62
    7
 10
771.42899596303846
 20
390.89983522130359
 11
771.42899596303846
 21
390.99983522130321
  0
LINE
  8
_0-0_
  6
CONTINUOUS
 62
    7
 10
771.42899596303846
 20
403.39983522130359
 11
771.42899596303846
 21
403.49983522130321
  0
LINE
  8
_0-0_
  6
CONTINUOUS
 62
    7
 10
771.42899596303846
 20
415.89983522130359
 11
771.42899596303846
 21
415.99983522130321
  0
LINE
  8
_0-0_
  6
CONTINUOUS
 62
    7
 10
771.42899596303846
 20
428.39983522130359
 11
771.42899596303846
 21
428.49983522130321
  0
LINE
  8
_0-0_
  6
CONTINUOUS
 62
    7
 10
771.42899596303846
 20
440.89983522130359
 11
771.42899596303846
 21
440.99983522130321
  0
LINE
  8
_0-0_
  6
CONTINUOUS
 62
    7
 10
771.42899596303846
 20
453.39983522130365
 11
771.42899596303846
 21
453.49983522130321
  0
LINE
  8
_0-0_
  6
CONTINUOUS
 62
    7
 10
771.42899596303846
 20
465.89983522130359
 11
771.42899596303846
 21
465.99983522130321
  0
LINE
  8
_0-0_
  6
CONTINUOUS
 62
    7
 10
771.42899596303846
 20
478.39983522130319
 11
771.42899596303846
 21
478.49983522130321
  0
LINE
  8
_0-0_
  6
CONTINUOUS
 62
    7
 10
771.42899596303846
 20
490.89983522130319
 11
771.42899596303846
 21
490.99983522130321
  0
LINE
  8
_0-0_
  6
CONTINUOUS
 62
    7
 10
771.42899596303846
 20
503.39983522130319
 11
771.42899596303846
 21
503.49983522130321
  0
LINE
  8
_0-0_
  6
CONTINUOUS
 62
    7
 10
771.42899596303846
 20
515.89983522130319
 11
771.42899596303846
 21
515.99983522130321
  0
LINE
  8
_0-0_
  6
CONTINUOUS
 62
    7
 10
771.42899596303846
 20
528.39983522130319
 11
771.42899596303846
 21
528.49983522130356
  0
LINE
  8
_0-0_
  6
CONTINUOUS
 62
    7
 10
771.42899596303846
 20
553.39983522130319
 11
771.42899596303846
 21
553.49983522130356
  0
LINE
  8
_0-0_
  6
CONTINUOUS
 62
    7
 10
772.21367875263809
 20
184.63173722330362
 11
772.21367875263809
 21
173.76793321930359
  0
LINE
  8
_0-0_
  6
CONTINUOUS
 62
    7
 10
773.42899596303846
 20
222.39983522130362
 11
773.42899596303846
 21
213.39983522130362
  0
LINE
  8
_0-0_
  6
CONTINUOUS
 62
    7
 10
773.42899596303846
 20
568.19983522130315
 11
773.42899596303846
 21
577.19983522130315
  0
LINE
  8
_0-0_
  6
CONTINUOUS
 62
    7
 10
773.63762658703808
 20
222.39983522130362
 11
773.63762658703808
 21
213.39983522130362
  0
LINE
  8
_0-0_
  6
CONTINUOUS
 62
    7
 10
773.63762658703808
 20
568.19983522130315
 11
773.63762658703808
 21
577.19983522130315
  0
LINE
  8
_0-0_
  6
CONTINUOUS
 62
    7
 10
773.82691172463808
 20
580.1998352213036
 11
773.82691172463808
 21
580.77983522130364
  0
LINE
  8
_0-0_
  6
CONTINUOUS
 62
    7
 10
774.99317780303852
 20
580.1998352213036
 11
774.99317780303852
 21
580.77983522130364
  0
LINE
  8
_0-0_
  6
CONTINUOUS
 62
    7
 10
740.42880613543809
 20
344.84814891930353
 11
741.83112845103847
 21
355.34890686530366
  0
LINE
  8
_0-0_
  6
CONTINUOUS
 62
    7
 10
743.11177477943852
 20
355.98976973810363
 11
758.96489459663849
 21
474.6998352213036
  0
LINE
  8
_0-0_
  6
CONTINUOUS
 62
    7
 10
763.87899596303851
 20
511.49721653930362
 11
766.42899596303846
 21
530.59192284730364
  0
LINE
  8
_0-0_
  6
CONTINUOUS
 62
    7
 10
741.51941864783851
 20
344.0659547485036
 11
737.51365930223812
 21
314.07034759130357
  0
LINE
  8
_0-0_
  6
CONTINUOUS
 62
    7
 10
735.18056206423853
 20
296.59983522130358
 11
715.92562737663843
 21
152.41657135890358
  0
LINE
  8
_0-0_
  6
CONTINUOUS
 62
    7
 10
742.53996185463802
 20
344.65941286570353
 11
743.9422841698381
 21
355.16017081170367
  0
LINE
  8
_0-0_
  6
CONTINUOUS
 62
    7
 10
743.11215856863851
 20
355.99258261290356
 11
743.11210417063808
 21
355.99229321570363
  0
LINE
  8
_0-0_
  6
CONTINUOUS
 62
    7
 10
743.11210417063808
 20
355.99229321570363
 11
743.1119047966381
 21
355.99172653250366
  0
LINE
  8
_0-0_
  6
CONTINUOUS
 62
    7
 10
743.1119047966381
 20
355.99172653250366
 11
743.11158466063853
 21
355.99117602010358
  0
LINE
  8
_0-0_
  6
CONTINUOUS
 62
    7
 10
743.11158466063853
 20
355.99117602010358
 11
743.11114377863851
 21
355.99064170490362
  0
LINE
  8
_0-0_
  6
CONTINUOUS
 62
    7
 10
743.11114377863851
 20
355.99064170490362
 11
743.11058217183802
 21
355.99012361330358
  0
LINE
  8
_0-0_
  6
CONTINUOUS
 62
    7
 10
743.11058217183802
 20
355.99012361330358
 11
743.10969464383845
 21
355.98948886530366
  0
LINE
  8
_0-0_
  6
CONTINUOUS
 62
    7
 10
767.89346205703851
 20
509.64983522130319
 11
767.92639997623803
 21
509.67672891970358
  0
LINE
  8
_0-0_
  6
CONTINUOUS
 62
    7
 10
774.96452986903853
 20
509.74983522130321
 11
774.93159182743852
 21
509.72294142330361
  0
LINE
  8
_0-0_
  6
CONTINUOUS
 62
    7
 10
767.89346205703851
 20
497.14983522130319
 11
767.92640005183853
 21
497.17672898130354
  0
LINE
  8
_0-0_
  6
CONTINUOUS
 62
    7
 10
774.96452986903853
 20
497.24983522130321
 11
774.9315919218385
 21
497.22294150010362
  0
LINE
  8
_0-0_
  6
CONTINUOUS
 62
    7
 10
767.89346205703851
 20
484.64983522130319
 11
767.92640010863852
 21
484.67672902810364
  0
LINE
  8
_0-0_
  6
CONTINUOUS
 62
    7
 10
1069.9627244934381
 20
378.93230194570322
 11
1067.0295439110387
 21
378.43408500890359
  0
LINE
  8
_0-0_
  6
CONTINUOUS
 62
    7
 10
1008.9789959630381
 20
332.49983522130361
 11
1068.8789959630385
 21
332.49983522130361
  0
LINE
  8
_0-0_
  6
CONTINUOUS
 62
    7
 10
1007.0289959630385
 20
333.79983522130357
 11
1070.8289959630381
 21
333.79983522130357
  0
LINE
  8
_0-0_
  6
CONTINUOUS
 62
    9
 10
1007.0289959630385
 20
336.12026175490359
 11
1070.8289959630381
 21
336.12026175490359
  0
LINE
  8
_0-0_
  6
CONTINUOUS
 62
    9
 10
1007.531883970238
 20
336.98794814210362
 11
1070.3261079558386
 21
336.98794814210362
  0
LINE
  8
_0-0_
  6
CONTINUOUS
 62
    9
 10
1011.598048566238
 20
339.31752160850363
 11
1066.2599433598386
 21
339.31752160850363
  0
LINE
  8
_0-0_
  6
CONTINUOUS
 62
    7
 10
1008.0289959630385
 20
339.4498352213036
 11
1069.8289959630381
 21
339.4498352213036
  0
LINE
  8
_0-0_
  6
CONTINUOUS
 62
    7
 10
1008.0289959630385
 20
345.24983522130367
 11
1069.8289959630381
 21
345.24983522130367
  0
LINE
  8
_0-0_
  6
CONTINUOUS
 62
    7
 10
1058.8289959630379
 20
349.52317321170369
 11
1057.9497083578381
 21
349.52317321170369
  0
LINE
  8
_0-0_
  6
CONTINUOUS
 62
    7
 10
1044.7789959630386
 20
349.52317321170369
 11
1033.0789959630379
 21
349.52317321170369
  0
LINE
  8
_0-0_
  6
CONTINUOUS
 62
    7
 10
1019.9082835682385
 20
349.52317321170369
 11
1019.0289959630385
 21
349.52317321170369
  0
LINE
  8
_0-0_
  6
CONTINUOUS
 62
    7
 10
1046.0456437798384
 20
350.22217754250357
 11
1041.9125670878384
 21
350.22217754250357
  0
LINE
  8
_0-0_
  6
CONTINUOUS
 62
    7
 10
1035.9454248382381
 20
350.22217754250357
 11
1031.8121965722385
 21
350.22217754250357
  0
LINE
  8
_0-0_
  6
CONTINUOUS
 62
    9
 10
1046.247254737038
 20
350.72217754250357
 11
1041.5489921110379
 21
350.72217754250357
  0
LINE
  8
_0-0_
  6
CONTINUOUS
 62
    9
 10
1036.3089998150385
 20
350.72217754250357
 11
1031.6108153918381
 21
350.72217754250357
  0
LINE
  8
_0-0_
  6
CONTINUOUS
 62
    2
 10
742.86576430903847
 20
355.98888868690358
 11
742.86199028063845
 21
355.98912517370366
  0
LINE
  8
_0-0_
  6
CONTINUOUS
 62
    2
 10
742.59830374423802
 20
356.00969499450366
 11
742.59301783783849
 21
356.0101652609037
  0
LINE
  8
_0-0_
  6
CONTINUOUS
 62
    2
 10
742.25438283543849
 20
356.04308402490358
 11
742.24782812343847
 21
356.04376478690369
  0
LINE
  8
_0-0_
  6
CONTINUOUS
 62
    2
 10
741.83672079103803
 20
356.08879178890356
 11
741.8291503770381
 21
356.08965809770359
  0
LINE
  8
_0-0_
  6
CONTINUOUS
 62
    2
 10
741.37648937023812
 20
356.14340693610359
 11
741.35996601343845
 21
356.14543523490363
  0
LINE
  8
_0-0_
  6
CONTINUOUS
 62
    2
 10
740.8773273890381
 20
356.20649765210362
 11
740.86871773023802
 21
356.2076175033036
  0
LINE
  8
_0-0_
  6
CONTINUOUS
 62
    2
 10
740.37648926703844
 20
356.27335522930366
 11
740.35928957863848
 21
356.27571325850363
  0
LINE
  8
_0-0_
  6
CONTINUOUS
 62
    2
 10
739.87793487703811
 20
356.34345105850366
 11
739.8614788034381
 21
356.34582917770365
  0
LINE
  8
_0-0_
  6
CONTINUOUS
 62
    2
 10
739.41197411023802
 20
356.41260755130361
 11
739.39814523623852
 21
356.41472310770359
  0
LINE
  8
_0-0_
  6
CONTINUOUS
 62
    7
 10
739.41197413823852
 20
356.41260754690359
 11
739.31544500783809
 21
356.42746116730359
  0
LINE
  8
_0-0_
  6
CONTINUOUS
 62
    7
 10
739.31544500783809
 20
356.42746116730359
 11
739.21453249023853
 21
356.44321715850367
  0
LINE
  8
_0-0_
  6
CONTINUOUS
 62
    7
 10
739.21453249023853
 20
356.44321715850367
 11
739.11056263543844
 21
356.4597190873036
  0
LINE
  8
_0-0_
  6
CONTINUOUS
 62
    7
 10
739.1105626258385
 20
356.45971908850356
 11
739.02347838223852
 21
356.47377466890362
  0
LINE
  8
_0-0_
  6
CONTINUOUS
 62
    7
 10
739.02347838223852
 20
356.47377466890362
 11
738.93971030343812
 21
356.48752087610364
  0
LINE
  8
_0-0_
  6
CONTINUOUS
 62
    7
 10
738.93971030343812
 20
356.48752087610364
 11
738.84257365903852
 21
356.50377711890371
  0
LINE
  8
_0-0_
  6
CONTINUOUS
 62
    7
 10
738.84257364343853
 20
356.50377712170359
 11
738.76675791223852
 21
356.51673796330363
  0
LINE
  8
_0-0_
  6
CONTINUOUS
 62
    7
 10
738.76675791223852
 20
356.51673796330363
 11
738.69478689743846
 21
356.52930097730371
  0
LINE
  8
_0-0_
  6
CONTINUOUS
 62
    7
 10
738.69478689743846
 20
356.52930097730371
 11
738.6194700358385
 21
356.54276879650365
  0
LINE
  8
_0-0_
  6
CONTINUOUS
 62
    7
 10
738.61947000623809
 20
356.54276880170357
 11
738.55609467983811
 21
356.5544078065036
  0
LINE
  8
_0-0_
  6
CONTINUOUS
 62
    7
 10
738.55609467983811
 20
356.5544078065036
 11
738.49699779623847
 21
356.56557142650365
  0
LINE
  8
_0-0_
  6
CONTINUOUS
 62
    7
 10
738.49699779623847
 20
356.56557142650365
 11
738.43853241063812
 21
356.57698540930369
  0
LINE
  8
_0-0_
  6
CONTINUOUS
 62
    7
 10
738.43853243623846
 20
356.57698540410365
 11
738.41010046863812
 21
356.58270051490365
  0
LINE
  8
_0-0_
  6
CONTINUOUS
 62
    7
 10
738.41010046863812
 20
356.58270051490365
 11
738.3628179386385
 21
356.59250626730363
  0
LINE
  8
_0-0_
  6
CONTINUOUS
 62
    7
 10
738.3628179386385
 20
356.59250626730363
 11
738.33928925783812
 21
356.59755813410356
  0
LINE
  8
_0-0_
  6
CONTINUOUS
 62
    7
 10
738.33928925783812
 20
356.59755813410356
 11
738.3202117814385
 21
356.60175819530366
  0
LINE
  8
_0-0_
  6
CONTINUOUS
 62
    7
 10
738.3202117814385
 20
356.60175819530366
 11
738.2983986862381
 21
356.60669698010361
  0
LINE
  8
_0-0_
  6
CONTINUOUS
 62
    7
 10
767.89346205703851
 20
384.74983522130321
 11
767.92640003823851
 21
384.72294147250318
  0
LINE
  8
_0-0_
  6
CONTINUOUS
 62
    7
 10
774.96452986903853
 20
384.64983522130365
 11
774.93159188783852
 21
384.67672897010323
  0
LINE
  8
_0-0_
  6
CONTINUOUS
 62
    7
 10
767.89346205703851
 20
397.24983522130321
 11
767.92639998503853
 21
397.22294151570361
  0
LINE
  8
_0-0_
  6
CONTINUOUS
 62
    7
 10
774.96452986903853
 20
397.14983522130359
 11
774.93162159223812
 21
397.17670471650359
  0
LINE
  8
_0-0_
  6
CONTINUOUS
 62
    7
 10
789.97899596303853
 20
673.19983522130315
 11
790.87326225503853
 21
636.5973079129036
  0
LINE
  8
_0-0_
  6
CONTINUOUS
 62
    7
 10
791.35688876183849
 20
616.8023625297036
 11
792.12899596303805
 21
585.1998352213036
  0
LINE
  8
_0-0_
  6
CONTINUOUS
 62
    7
 10
776.42899596303846
 20
562.1998352213036
 11
776.42899596303846
 21
553.49983522130356
  0
LINE
  8
_0-0_
  6
CONTINUOUS
 62
    7
 10
776.42899596303846
 20
553.39983522130319
 11
776.42899596303846
 21
543.9498352213036
  0
LINE
  8
_0-0_
  6
CONTINUOUS
 62
    7
 10
776.42899596303846
 20
537.1998352213036
 11
776.42899596303846
 21
528.49983522130356
  0
LINE
  8
_0-0_
  6
CONTINUOUS
 62
    7
 10
776.42899596303846
 20
528.39983522130319
 11
776.42899596303846
 21
515.99983522130321
  0
LINE
  8
_0-0_
  6
CONTINUOUS
 62
    7
 10
776.42899596303846
 20
515.89983522130319
 11
776.42899596303846
 21
503.49983522130321
  0
LINE
  8
_0-0_
  6
CONTINUOUS
 62
    7
 10
776.42899596303846
 20
503.39983522130319
 11
776.42899596303846
 21
490.99983522130321
  0
LINE
  8
_0-0_
  6
CONTINUOUS
 62
    7
 10
776.42899596303846
 20
490.89983522130319
 11
776.42899596303846
 21
478.49983522130321
  0
LINE
  8
_0-0_
  6
CONTINUOUS
 62
    7
 10
776.42899596303846
 20
478.39983522130319
 11
776.42899596303846
 21
465.99983522130321
  0
LINE
  8
_0-0_
  6
CONTINUOUS
 62
    7
 10
776.42899596303846
 20
465.89983522130359
 11
776.42899596303846
 21
453.49983522130321
  0
LINE
  8
_0-0_
  6
CONTINUOUS
 62
    7
 10
776.42899596303846
 20
453.39983522130365
 11
776.42899596303846
 21
440.99983522130321
  0
LINE
  8
_0-0_
  6
CONTINUOUS
 62
    7
 10
776.42899596303846
 20
440.89983522130359
 11
776.42899596303846
 21
428.49983522130321
  0
LINE
  8
_0-0_
  6
CONTINUOUS
 62
    7
 10
776.42899596303846
 20
428.39983522130359
 11
776.42899596303846
 21
415.99983522130321
  0
LINE
  8
_0-0_
  6
CONTINUOUS
 62
    7
 10
776.42899596303846
 20
415.89983522130359
 11
776.42899596303846
 21
403.49983522130321
  0
LINE
  8
_0-0_
  6
CONTINUOUS
 62
    7
 10
776.42899596303846
 20
403.39983522130359
 11
776.42899596303846
 21
390.99983522130321
  0
LINE
  8
_0-0_
  6
CONTINUOUS
 62
    7
 10
776.42899596303846
 20
390.89983522130359
 11
776.42899596303846
 21
378.49983522130321
  0
LINE
  8
_0-0_
  6
CONTINUOUS
 62
    7
 10
776.42899596303846
 20
378.39983522130365
 11
776.42899596303846
 21
365.99983522130321
  0
LINE
  8
_0-0_
  6
CONTINUOUS
 62
    7
 10
776.42899596303846
 20
365.89983522130365
 11
776.42899596303846
 21
353.49983522130367
  0
LINE
  8
_0-0_
  6
CONTINUOUS
 62
    7
 10
776.42899596303846
 20
353.39983522130365
 11
776.42899596303846
 21
340.99983522130367
  0
LINE
  8
_0-0_
  6
CONTINUOUS
 62
    7
 10
776.42899596303846
 20
340.89983522130365
 11
776.42899596303846
 21
328.49983522130361
  0
LINE
  8
_0-0_
  6
CONTINUOUS
 62
    7
 10
776.42899596303846
 20
328.39983522130359
 11
776.42899596303846
 21
315.99983522130361
  0
LINE
  8
_0-0_
  6
CONTINUOUS
 62
    7
 10
776.42899596303846
 20
315.89983522130359
 11
776.42899596303846
 21
303.49983522130361
  0
LINE
  8
_0-0_
  6
CONTINUOUS
 62
    7
 10
776.42899596303846
 20
303.39983522130359
 11
776.42899596303846
 21
290.99983522130367
  0
LINE
  8
_0-0_
  6
CONTINUOUS
 62
    7
 10
776.42899596303846
 20
290.89983522130365
 11
776.42899596303846
 21
278.49983522130367
  0
LINE
  8
_0-0_
  6
CONTINUOUS
 62
    7
 10
776.42899596303846
 20
278.39983522130365
 11
776.42899596303846
 21
265.99983522130367
  0
LINE
  8
_0-0_
  6
CONTINUOUS
 62
    7
 10
776.42899596303846
 20
265.89983522130365
 11
776.42899596303846
 21
253.49983522130364
  0
LINE
  8
_0-0_
  6
CONTINUOUS
 62
    7
 10
776.42899596303846
 20
253.39983522130362
 11
776.42899596303846
 21
240.99983522130364
  0
LINE
  8
_0-0_
  6
CONTINUOUS
 62
    7
 10
776.42899596303846
 20
240.89983522130362
 11
776.42899596303846
 21
228.49983522130364
  0
LINE
  8
_0-0_
  6
CONTINUOUS
 62
    7
 10
776.44945410943808
 20
213.39983522130362
 11
776.44945410943808
 21
222.39983522130362
  0
LINE
  8
_0-0_
  6
CONTINUOUS
 62
    7
 10
776.44945410943808
 20
568.19983522130315
 11
776.44945410943808
 21
577.19983522130315
  0
LINE
  8
_0-0_
  6
CONTINUOUS
 62
    7
 10
776.46605371183853
 20
222.39983522130362
 11
776.46605371183853
 21
213.39983522130362
  0
LINE
  8
_0-0_
  6
CONTINUOUS
 62
    7
 10
776.46605371183853
 20
568.19983522130315
 11
776.46605371183853
 21
577.19983522130315
  0
LINE
  8
_0-0_
  6
CONTINUOUS
 62
    7
 10
776.55247134583851
 20
222.39983522130362
 11
776.55247134583851
 21
213.39983522130362
  0
LINE
  8
_0-0_
  6
CONTINUOUS
 62
    7
 10
776.55247134583851
 20
568.19983522130315
 11
776.55247134583851
 21
577.19983522130315
  0
LINE
  8
_0-0_
  6
CONTINUOUS
 62
    7
 10
776.92899596303846
 20
210.39983522130362
 11
776.92899596303846
 21
210.19983522130363
  0
LINE
  8
_0-0_
  6
CONTINUOUS
 62
    7
 10
777.2182640514385
 20
208.83380981770361
 11
777.2182640514385
 21
199.06586062490362
  0
LINE
  8
_0-0_
  6
CONTINUOUS
 62
    7
 10
777.39109356463848
 20
580.1998352213036
 11
777.39109356463848
 21
580.77983522130364
  0
LINE
  8
_0-0_
  6
CONTINUOUS
 62
    7
 10
777.42899596303812
 20
228.39983522130362
 11
777.42899596303812
 21
225.39983522130362
  0
LINE
  8
_0-0_
  6
CONTINUOUS
 62
    7
 10
777.42899596303812
 20
210.19983522130363
 11
777.42899596303812
 21
209.69983522130363
  0
LINE
  8
_0-0_
  6
CONTINUOUS
 62
    7
 10
777.42899596303812
 20
562.1998352213036
 11
777.42899596303812
 21
565.19983522130315
  0
LINE
  8
_0-0_
  6
CONTINUOUS
 62
    7
 10
777.42899596303812
 20
580.1998352213036
 11
777.42899596303812
 21
580.77983522130364
  0
LINE
  8
_0-0_
  6
CONTINUOUS
 62
    7
 10
778.49365406223808
 20
208.83380981770361
 11
778.49365406223808
 21
199.06586062490362
  0
LINE
  8
_0-0_
  6
CONTINUOUS
 62
    7
 10
780.17899596303812
 20
193.69983522130366
 11
780.17899596303812
 21
190.69983522130363
  0
LINE
  8
_0-0_
  6
CONTINUOUS
 62
    2
 10
780.72899596303853
 20
198.19983522130363
 11
780.72899596303853
 21
193.69983522130366
  0
LINE
  8
_0-0_
  6
CONTINUOUS
 62
    7
 10
781.67899596303846
 20
198.19983522130363
 11
781.67899596303846
 21
194.69983522130363
  0
LINE
  8
_0-0_
  6
CONTINUOUS
 62
    7
 10
782.14431317343849
 20
184.63173722330362
 11
782.14431317343849
 21
173.76793321930359
  0
LINE
  8
_0-0_
  6
CONTINUOUS
 62
    7
 10
782.42899596303812
 20
190.39983522130362
 11
782.42899596303812
 21
185.69983522130363
  0
LINE
  8
_0-0_
  6
CONTINUOUS
 62
    7
 10
782.92899596303846
 20
172.98851610610362
 11
782.92899596303846
 21
185.41115433650361
  0
LINE
  8
_0-0_
  6
CONTINUOUS
 62
    7
 10
784.25501533463853
 20
184.63173722330362
 11
784.25501533463853
 21
173.76793321930359
  0
LINE
  8
_0-0_
  6
CONTINUOUS
 62
    7
 10
784.27899596303848
 20
184.63173722330362
 11
784.27899596303848
 21
173.76793321930359
  0
LINE
  8
_0-0_
  6
CONTINUOUS
 62
    7
 10
784.28292215063846
 20
208.83380981770361
 11
784.28292215063846
 21
199.06586062490362
  0
LINE
  8
_0-0_
  6
CONTINUOUS
 62
    7
 10
784.30399596303846
 20
208.83380981770361
 11
784.30399596303846
 21
199.06586062490362
  0
LINE
  8
_0-0_
  6
CONTINUOUS
 62
    7
 10
786.52899596303848
 20
674.29983522130328
 11
786.52899596303848
 21
674.1998352213036
  0
LINE
  8
_0-0_
  6
CONTINUOUS
 62
    7
 10
789.8289959630381
 20
673.19983522130315
 11
789.8289959630381
 21
674.1998352213036
  0
LINE
  8
_0-0_
  6
CONTINUOUS
 62
    7
 10
789.92899596303812
 20
702.92314229690373
 11
789.92899596303812
 21
701.59619820250373
  0
LINE
  8
_0-0_
  6
CONTINUOUS
 62
    7
 10
789.92899596303812
 20
691.20347224010334
 11
789.92899596303812
 21
674.89983522130319
  0
LINE
  8
_0-0_
  6
CONTINUOUS
 62
    9
 10
791.0345759346385
 20
538.6998352213036
 11
791.0345759346385
 21
541.1998352213036
  0
LINE
  8
_0-0_
  6
CONTINUOUS
 62
    7
 10
791.78162733943805
 20
541.1998352213036
 11
791.78162733943805
 21
538.6998352213036
  0
LINE
  8
_0-0_
  6
CONTINUOUS
 62
    7
 10
793.8289959630381
 20
584.1998352213036
 11
793.8289959630381
 21
581.1998352213036
  0
LINE
  8
_0-0_
  6
CONTINUOUS
 62
    7
 10
774.96452986903853
 20
484.74983522130321
 11
774.93159195143846
 21
484.72294152410359
  0
LINE
  8
_0-0_
  6
CONTINUOUS
 62
    7
 10
767.89346205703851
 20
472.14983522130359
 11
767.92640002103849
 21
472.17672895650361
  0
LINE
  8
_0-0_
  6
CONTINUOUS
 62
    7
 10
774.96452986903853
 20
472.24983522130321
 11
774.93159189503808
 21
472.22294147810356
  0
LINE
  8
_0-0_
  6
CONTINUOUS
 62
    7
 10
767.89346205703851
 20
459.64983522130365
 11
767.92639998143852
 21
459.67672892410326
  0
LINE
  8
_0-0_
  6
CONTINUOUS
 62
    7
 10
774.96452986903853
 20
459.74983522130321
 11
774.93159183183809
 21
459.72294142650367
  0
LINE
  8
_0-0_
  6
CONTINUOUS
 62
    7
 10
743.1096946434385
 20
355.98948886490371
 11
743.03680289823808
 21
355.98221795970358
  0
LINE
  8
_0-0_
  6
CONTINUOUS
 62
    7
 10
743.03680289823808
 20
355.98221795970358
 11
742.86576430903847
 21
355.98888868690358
  0
LINE
  8
_0-0_
  6
CONTINUOUS
 62
    7
 10
742.86576430903847
 20
355.98888868690358
 11
742.59830374423802
 21
356.00969499450366
  0
LINE
  8
_0-0_
  6
CONTINUOUS
 62
    7
 10
742.59830374423802
 20
356.00969499450366
 11
742.25438283543849
 21
356.04308402490358
  0
LINE
  8
_0-0_
  6
CONTINUOUS
 62
    7
 10
742.25438283543849
 20
356.04308402490358
 11
741.83672079103803
 21
356.08879178890356
  0
LINE
  8
_0-0_
  6
CONTINUOUS
 62
    7
 10
741.83672079103803
 20
356.08879178890356
 11
741.37648937023812
 21
356.14340693610359
  0
LINE
  8
_0-0_
  6
CONTINUOUS
 62
    7
 10
741.37648937023812
 20
356.14340693610359
 11
740.8773273890381
 21
356.20649765210362
  0
LINE
  8
_0-0_
  6
CONTINUOUS
 62
    7
 10
740.8773273890381
 20
356.20649765210362
 11
740.37648926703844
 21
356.27335522930366
  0
LINE
  8
_0-0_
  6
CONTINUOUS
 62
    7
 10
740.37648926703844
 20
356.27335522930366
 11
739.87793487703811
 21
356.34345105850366
  0
LINE
  8
_0-0_
  6
CONTINUOUS
 62
    7
 10
739.87793487703811
 20
356.34345105850366
 11
739.41197411023802
 21
356.41260755130361
  0
LINE
  8
_0-0_
  6
CONTINUOUS
 62
    7
 10
1058.8289959630379
 20
361.22317321170362
 11
1057.9497083578381
 21
361.22317321170362
  0
LINE
  8
_0-0_
  6
CONTINUOUS
 62
    7
 10
1044.7789959630386
 20
361.22317321170362
 11
1033.0789959630379
 21
361.22317321170362
  0
LINE
  8
_0-0_
  6
CONTINUOUS
 62
    7
 10
1019.9082835682385
 20
361.22317321170362
 11
1019.0289959630385
 21
361.22317321170362
  0
LINE
  8
_0-0_
  6
CONTINUOUS
 62
    9
 10
1019.0289959630385
 20
368.72317321170317
 11
1058.8289959630379
 21
368.72317321170317
  0
LINE
  8
_0-0_
  6
CONTINUOUS
 62
    7
 10
767.89346205703851
 20
409.74983522130321
 11
767.92640003783845
 21
409.72294147290359
  0
LINE
  8
_0-0_
  6
CONTINUOUS
 62
    7
 10
774.96452986903853
 20
409.64983522130359
 11
774.93159191823804
 21
409.67672894530358
  0
LINE
  8
_0-0_
  6
CONTINUOUS
 62
    7
 10
767.89346205703851
 20
422.24983522130321
 11
767.92640003823851
 21
422.22294147250318
  0
LINE
  8
_0-0_
  6
CONTINUOUS
 62
    7
 10
774.96452986903853
 20
422.14983522130359
 11
774.93159188783852
 21
422.17672897010317
  0
LINE
  8
_0-0_
  6
CONTINUOUS
 62
    7
 10
767.89346205703851
 20
434.74983522130321
 11
767.92640003823851
 21
434.72294147250318
  0
LINE
  8
_0-0_
  6
CONTINUOUS
 62
    7
 10
774.96452986903853
 20
434.64983522130359
 11
774.93159188783852
 21
434.67672897010317
  0
LINE
  8
_0-0_
  6
CONTINUOUS
 62
    7
 10
767.89346205703851
 20
447.14983522130359
 11
767.9264000886385
 21
447.17672901170317
  0
LINE
  8
_0-0_
  6
CONTINUOUS
 62
    7
 10
774.96452986903853
 20
447.24983522130321
 11
774.93159192063808
 21
447.2229414993036
  0
LINE
  8
_0-0_
  6
CONTINUOUS
 62
    7
 10
767.89346205703851
 20
434.64983522130359
 11
767.92640010823845
 21
434.67672902730357
  0
LINE
  8
_0-0_
  6
CONTINUOUS
 62
    7
 10
774.96452986903853
 20
434.74983522130321
 11
774.93159194903808
 21
434.72294152250316
  0
LINE
  8
_0-0_
  6
CONTINUOUS
 62
    7
 10
767.89346205703851
 20
422.14983522130359
 11
767.92639997863807
 21
422.17672892170361
  0
LINE
  8
_0-0_
  6
CONTINUOUS
 62
    9
 10
1010.8284480150385
 20
378.43408500890359
 11
1067.0295439110387
 21
378.43408500890359
  0
LINE
  8
_0-0_
  6
CONTINUOUS
 62
    9
 10
1007.8952674326384
 20
378.93230194570322
 11
1069.9627244934381
 21
378.93230194570322
  0
LINE
  8
_0-0_
  6
CONTINUOUS
 62
    9
 10
1007.4789959630385
 20
379.4252416309032
 11
1070.3789959630383
 21
379.4252416309032
  0
LINE
  8
_0-0_
  6
CONTINUOUS
 62
    7
 10
1007.4789959630385
 20
380.02317321170358
 11
1070.3789959630383
 21
380.02317321170358
  0
LINE
  8
_0-0_
  6
CONTINUOUS
 62
    7
 10
1008.9789959630381
 20
332.49983522130361
 11
1016.8289959630381
 21
329.89983522130359
  0
LINE
  8
_0-0_
  6
CONTINUOUS
 62
    7
 10
1018.0935165626381
 20
285.46976391290355
 11
1018.5610467706384
 21
285.1998352213036
  0
LINE
  8
_0-0_
  6
CONTINUOUS
 62
    7
 10
1018.4744442302381
 20
296.14983522130359
 11
1016.8289959630381
 21
297.09983522130358
  0
LINE
  8
_0-0_
  6
CONTINUOUS
 62
    7
 10
767.89346205703851
 20
447.24983522130321
 11
767.92640004783811
 21
447.22294146450361
  0
LINE
  8
_0-0_
  6
CONTINUOUS
 62
    7
 10
774.96452986903853
 20
447.14983522130359
 11
774.93159188823847
 21
447.17672896970316
  0
LINE
  8
_0-0_
  6
CONTINUOUS
 62
    7
 10
767.89346205703851
 20
459.74983522130321
 11
767.92640003783845
 21
459.72294147290359
  0
LINE
  8
_0-0_
  6
CONTINUOUS
 62
    7
 10
774.96452986903853
 20
459.64983522130365
 11
774.93159192863845
 21
459.6767289369036
  0
LINE
  8
_0-0_
  6
CONTINUOUS
 62
    7
 10
741.79219752783808
 20
631.0707706273032
 11
746.46901799423813
 21
615.48910905450316
  0
LINE
  8
_0-0_
  6
CONTINUOUS
 62
    7
 10
762.92899596303846
 20
565.86753480810364
 11
763.79465400303809
 21
562.98344064250364
  0
LINE
  8
_0-0_
  6
CONTINUOUS
 62
    7
 10
766.30552057983812
 20
572.01062050210362
 11
763.67344936743848
 21
580.77983522130364
  0
LINE
  8
_0-0_
  6
CONTINUOUS
 62
    7
 10
774.96452986903853
 20
422.24983522130321
 11
774.9315918290381
 21
422.22294142450318
  0
LINE
  8
_0-0_
  6
CONTINUOUS
 62
    7
 10
767.89346205703851
 20
409.64983522130359
 11
767.92640004943848
 21
409.67672897930356
  0
LINE
  8
_0-0_
  6
CONTINUOUS
 62
    7
 10
774.96452986903853
 20
409.74983522130321
 11
774.93159185063848
 21
409.7229414417032
  0
LINE
  8
_0-0_
  6
CONTINUOUS
 62
    7
 10
767.89346205703851
 20
397.14983522130359
 11
767.92637028703803
 21
397.1767046785036
  0
LINE
  8
_0-0_
  6
CONTINUOUS
 62
    7
 10
774.96452986903853
 20
397.24983522130321
 11
774.93159192863845
 21
397.2229415057032
  0
LINE
  8
_0-0_
  6
CONTINUOUS
 62
    7
 10
1007.8952674326384
 20
378.93230194570322
 11
1010.8284480150385
 21
378.43408500890359
  0
LINE
  8
_0-0_
  6
CONTINUOUS
 62
    7
 10
1060.6480682954384
 20
295.41976391290365
 11
1059.3835476958384
 21
296.14983522130359
  0
LINE
  8
_0-0_
  6
CONTINUOUS
 62
    7
 10
767.89346205703851
 20
472.24983522130321
 11
767.92640003823851
 21
472.22294147250318
  0
LINE
  8
_0-0_
  6
CONTINUOUS
 62
    7
 10
774.96452986903853
 20
472.14983522130359
 11
774.93159188783852
 21
472.17672897010317
  0
LINE
  8
_0-0_
  6
CONTINUOUS
 62
    7
 10
767.89346205703851
 20
484.74983522130321
 11
767.92640003823851
 21
484.72294147250363
  0
LINE
  8
_0-0_
  6
CONTINUOUS
 62
    7
 10
774.96452986903853
 20
484.64983522130319
 11
774.93159188783852
 21
484.67672897010323
  0
LINE
  8
_0-0_
  6
CONTINUOUS
 62
    7
 10
767.89346205703851
 20
497.24983522130321
 11
767.92640008783849
 21
497.22294143170313
  0
LINE
  8
_0-0_
  6
CONTINUOUS
 62
    7
 10
767.89346205703851
 20
384.64983522130365
 11
767.92640005103851
 21
384.67672898050364
  0
LINE
  8
_0-0_
  6
CONTINUOUS
 62
    7
 10
774.96452986903853
 20
384.74983522130321
 11
774.93159192103849
 21
384.72294149970321
  0
LINE
  8
_0-0_
  6
CONTINUOUS
 62
    7
 10
767.89346205703851
 20
372.14983522130365
 11
767.92639997463846
 21
372.17672891810321
  0
LINE
  8
_0-0_
  6
CONTINUOUS
 62
    7
 10
774.96452986903853
 20
372.24983522130321
 11
774.93159182943805
 21
372.22294142450323
  0
LINE
  8
_0-0_
  6
CONTINUOUS
 62
    7
 10
737.30355985303811
 20
356.23971510210356
 11
737.89635263183811
 21
356.69229847970371
  0
LINE
  8
_0-0_
  6
CONTINUOUS
 62
    7
 10
774.96452986903853
 20
497.14983522130319
 11
774.93159188823847
 21
497.17672896970362
  0
LINE
  8
_0-0_
  6
CONTINUOUS
 62
    7
 10
767.89346205703851
 20
509.74983522130321
 11
767.92640003783845
 21
509.72294147290359
  0
LINE
  8
_0-0_
  6
CONTINUOUS
 62
    7
 10
774.96452986903853
 20
509.64983522130319
 11
774.93159191663847
 21
509.6767289465032
  0
LINE
  8
_0-0_
  6
CONTINUOUS
 62
    7
 10
767.89346205703851
 20
522.24983522130321
 11
767.92640003823851
 21
522.22294147250363
  0
LINE
  8
_0-0_
  6
CONTINUOUS
 62
    7
 10
774.96452986903853
 20
522.14983522130319
 11
774.93159188783852
 21
522.17672897010323
  0
LINE
  8
_0-0_
  6
CONTINUOUS
 62
    7
 10
767.89346205703851
 20
359.64983522130365
 11
767.92640008623846
 21
359.67672900970365
  0
LINE
  8
_0-0_
  6
CONTINUOUS
 62
    7
 10
774.96452986903853
 20
359.74983522130367
 11
774.93159188103846
 21
359.72294146690365
  0
LINE
  8
_0-0_
  6
CONTINUOUS
 62
    7
 10
767.89346205703851
 20
347.14983522130365
 11
767.9264001106385
 21
347.1767290293036
  0
LINE
  8
_0-0_
  6
CONTINUOUS
 62
    7
 10
774.96452986903853
 20
347.24983522130367
 11
774.93159192623853
 21
347.22294150370362
  0
LINE
  8
_0-0_
  6
CONTINUOUS
 62
    7
 10
767.89346205703851
 20
334.64983522130359
 11
767.92639998703851
 21
334.67672892850356
  0
LINE
  8
_0-0_
  6
CONTINUOUS
 62
    7
 10
741.78442872983806
 20
344.06707216410359
 11
742.37722150863851
 21
344.51965554210358
  0
LINE
  8
_0-0_
  6
CONTINUOUS
 62
    7
 10
1066.2599433598386
 20
339.31752160850363
 11
1070.3261079558386
 21
336.98794814210362
  0
LINE
  8
_0-0_
  6
CONTINUOUS
 62
    7
 10
767.89346205703851
 20
534.74983522130356
 11
767.92640003823851
 21
534.72294147250363
  0
LINE
  8
_0-0_
  6
CONTINUOUS
 62
    7
 10
774.96452986903853
 20
534.64983522130319
 11
774.93159188783852
 21
534.67672897010323
  0
LINE
  8
_0-0_
  6
CONTINUOUS
 62
    7
 10
767.89346205703851
 20
547.24983522130356
 11
767.92640011103811
 21
547.2229414129032
  0
LINE
  8
_0-0_
  6
CONTINUOUS
 62
    7
 10
774.96452986903853
 20
547.14983522130319
 11
774.93159188783852
 21
547.17672897010323
  0
LINE
  8
_0-0_
  6
CONTINUOUS
 62
    7
 10
767.89346205703851
 20
559.74983522130356
 11
767.92639262983812
 21
559.72294752130358
  0
LINE
  8
_0-0_
  6
CONTINUOUS
 62
    7
 10
1016.8358697578385
 20
288.6317533713036
 11
1016.8289959630381
 21
288.63969260410363
  0
LINE
  8
_0-0_
  6
CONTINUOUS
 62
    7
 10
1016.8358697578385
 20
290.6317533713036
 11
1016.8289959630381
 21
290.63969260410363
  0
LINE
  8
_0-0_
  6
CONTINUOUS
 62
    7
 10
1016.8358697578385
 20
292.6317533713036
 11
1016.8289959630381
 21
292.63969260410357
  0
LINE
  8
_0-0_
  6
CONTINUOUS
 62
    7
 10
1016.8289959630381
 20
294.63969260450352
 11
1016.8358697578385
 21
294.6317533713036
  0
LINE
  8
_0-0_
  6
CONTINUOUS
 62
    7
 10
715.92562737663843
 20
152.41657135890358
 11
715.92384265503847
 21
152.41394434730358
  0
LINE
  8
_0-0_
  6
CONTINUOUS
 62
    7
 10
774.96452986903853
 20
334.74983522130361
 11
774.93159183303851
 21
334.72294142770357
  0
LINE
  8
_0-0_
  6
CONTINUOUS
 62
    7
 10
767.89346205703851
 20
322.14983522130359
 11
767.9264000278381
 21
322.17672896170353
  0
LINE
  8
_0-0_
  6
CONTINUOUS
 62
    7
 10
774.96452986903853
 20
322.24983522130361
 11
774.93159184463809
 21
322.22294143690357
  0
LINE
  8
_0-0_
  6
CONTINUOUS
 62
    7
 10
767.89346205703851
 20
309.64983522130359
 11
767.92640010823845
 21
309.67672902730357
  0
LINE
  8
_0-0_
  6
CONTINUOUS
 62
    7
 10
774.96452986903853
 20
309.74983522130361
 11
774.93159193783811
 21
309.72294151290356
  0
LINE
  8
_0-0_
  6
CONTINUOUS
 62
    7
 10
753.47899596303853
 20
474.6998352213036
 11
764.37899596303851
 21
474.6998352213036
  0
LINE
  8
_0-0_
  6
CONTINUOUS
 62
    7
 10
753.47899596303853
 20
482.6998352213036
 11
764.37899596303851
 21
482.6998352213036
  0
LINE
  8
_0-0_
  6
CONTINUOUS
 62
    9
 10
753.97899596303853
 20
483.1998352213036
 11
763.87899596303851
 21
483.1998352213036
  0
LINE
  8
_0-0_
  6
CONTINUOUS
 62
    7
 10
774.96452986903853
 20
559.64983522130319
 11
774.93160962823811
 21
559.67671448530359
  0
LINE
  8
_0-0_
  6
CONTINUOUS
 62
    7
 10
1061.0221221682382
 20
287.74763183690357
 11
1061.0289959630386
 21
287.73969260410365
  0
LINE
  8
_0-0_
  6
CONTINUOUS
 62
    7
 10
1061.0221221682382
 20
289.74763183690357
 11
1061.0289959630386
 21
289.73969260410354
  0
LINE
  8
_0-0_
  6
CONTINUOUS
 62
    7
 10
1061.0221221682382
 20
291.74763183690357
 11
1061.0289959630386
 21
291.73969260410365
  0
LINE
  8
_0-0_
  6
CONTINUOUS
 62
    7
 10
1061.0289959630386
 20
293.73969260410365
 11
1061.0221221682382
 21
293.74763183690357
  0
LINE
  8
_0-0_
  6
CONTINUOUS
 62
    7
 10
767.89346205703851
 20
297.14983522130359
 11
767.92640006383851
 21
297.1767289909036
  0
LINE
  8
_0-0_
  6
CONTINUOUS
 62
    7
 10
774.96452986903853
 20
297.24983522130361
 11
774.93159190503843
 21
297.22294148610359
  0
LINE
  8
_0-0_
  6
CONTINUOUS
 62
    7
 10
767.89346205703851
 20
284.64983522130365
 11
767.92639997223853
 21
284.67672891650363
  0
LINE
  8
_0-0_
  6
CONTINUOUS
 62
    7
 10
774.96452986903853
 20
284.74983522130367
 11
774.93159182703812
 21
284.72294142290366
  0
LINE
  8
_0-0_
  6
CONTINUOUS
 62
    7
 10
767.89346205703851
 20
272.14983522130365
 11
767.92640007543844
 21
272.17672900050366
  0
LINE
  8
_0-0_
  6
CONTINUOUS
 62
    7
 10
774.96452986903853
 20
272.24983522130367
 11
774.9315918738381
 21
272.2229414609036
  0
LINE
  8
_0-0_
  6
CONTINUOUS
 62
    7
 10
767.89346205703851
 20
259.64983522130365
 11
767.92640011503852
 21
259.67672903290361
  0
LINE
  8
_0-0_
  6
CONTINUOUS
 62
    7
 10
774.96452986903853
 20
259.74983522130367
 11
774.93159195423812
 21
259.72294152650363
  0
LINE
  8
_0-0_
  6
CONTINUOUS
 62
    7
 10
767.89346205703851
 20
247.14983522130362
 11
767.92639999263849
 21
247.17672893330362
  0
LINE
  8
_0-0_
  6
CONTINUOUS
 62
    7
 10
774.96452986903853
 20
247.24983522130364
 11
774.93159192223811
 21
247.22294150050359
  0
LINE
  8
_0-0_
  6
CONTINUOUS
 62
    7
 10
728.73429180183848
 20
313.99480322490365
 11
729.33456053903808
 21
314.1998352213036
  0
LINE
  8
_0-0_
  6
CONTINUOUS
 62
    7
 10
749.67899596303846
 20
537.1998352213036
 11
789.56682342063812
 21
537.1998352213036
  0
LINE
  8
_0-0_
  6
CONTINUOUS
 62
    7
 10
791.78162421303853
 20
538.6998352213036
 11
745.42899596303812
 21
538.6998352213036
  0
LINE
  8
_0-0_
  6
CONTINUOUS
 62
    7
 10
745.42899596303812
 20
541.1998352213036
 11
791.78162237783852
 21
541.1998352213036
  0
LINE
  8
_0-0_
  6
CONTINUOUS
 62
    7
 10
749.67899596303846
 20
543.9498352213036
 11
791.17899596303812
 21
543.9498352213036
  0
LINE
  8
_0-0_
  6
CONTINUOUS
 62
    7
 10
878.5447374930385
 20
680.83491151290332
 11
878.00865609463813
 21
682.16175953490324
  0
LINE
  8
_0-0_
  6
CONTINUOUS
 62
    7
 10
871.80351556383846
 20
697.52002128650361
 11
870.78072994623847
 21
700.05150452250314
  0
LINE
  8
_0-0_
  6
CONTINUOUS
 62
    7
 10
760.72899596303853
 20
190.69983522130363
 11
760.42899596303812
 21
190.39983522130362
  0
LINE
  8
_0-0_
  6
CONTINUOUS
 62
    7
 10
781.67899596303846
 20
194.69983522130363
 11
780.67899596303812
 21
193.69983522130366
  0
LINE
  8
_0-0_
  6
CONTINUOUS
 62
    7
 10
767.89346205703851
 20
234.64983522130362
 11
767.92640001583811
 21
234.67672895210362
  0
LINE
  8
_0-0_
  6
CONTINUOUS
 62
    7
 10
774.96452986903853
 20
234.74983522130364
 11
774.9315918386385
 21
234.72294143210362
  0
LINE
  8
_0-0_
  6
CONTINUOUS
 62
    7
 10
737.13456053903849
 20
296.59983522130358
 11
737.73492229823853
 21
296.80490051770357
  0
LINE
  8
_0-0_
  6
CONTINUOUS
 62
    7
 10
765.42899596303812
 20
562.1998352213036
 11
777.42899596303812
 21
562.1998352213036
  0
LINE
  8
_0-0_
  6
CONTINUOUS
 62
    9
 10
765.42899596303812
 20
565.19983522130315
 11
777.42899596303812
 21
565.19983522130315
  0
LINE
  8
_0-0_
  6
CONTINUOUS
 62
    7
 10
765.92899596303812
 20
568.19983522130315
 11
776.92899596303846
 21
568.19983522130315
  0
LINE
  8
_0-0_
  6
CONTINUOUS
 62
    9
 10
809.80366660063851
 20
716.38501640730374
 11
814.61818678583847
 21
709.99593232690358
  0
LINE
  8
_0-0_
  6
CONTINUOUS
 62
    7
 10
809.90207684423808
 20
717.08524167410314
 11
815.31841205263811
 21
709.89752208370373
  0
LINE
  8
_0-0_
  6
CONTINUOUS
 62
    9
 10
810.0004870874385
 20
717.78546694050374
 11
816.01863731903848
 21
709.79911184010371
  0
LINE
  8
_0-0_
  6
CONTINUOUS
 62
    7
 10
881.8844658954381
 20
681.64498200330331
 11
883.42035292863852
 21
677.84352819930359
  0
LINE
  8
_0-0_
  6
CONTINUOUS
 62
    7
 10
889.49712529543808
 20
682.77933351250363
 11
890.35872046023849
 21
680.6468106469033
  0
LINE
  8
_0-0_
  6
CONTINUOUS
 62
    7
 10
897.68736597023849
 20
686.08840554090375
 11
898.5489611350381
 21
683.9558826753032
  0
LINE
  8
_0-0_
  6
CONTINUOUS
 62
    7
 10
994.68286250543804
 20
311.4498352213036
 11
994.68286250543804
 21
305.9498352213036
  0
LINE
  8
_0-0_
  6
CONTINUOUS
 62
    7
 10
994.8289959630381
 20
320.1998352213036
 11
994.8289959630381
 21
297.1998352213036
  0
LINE
  8
_0-0_
  6
CONTINUOUS
 62
    7
 10
1005.8289959630384
 20
320.1998352213036
 11
1005.8289959630384
 21
297.1998352213036
  0
LINE
  8
_0-0_
  6
CONTINUOUS
 62
    7
 10
1007.0289959630385
 20
336.12026175490359
 11
1007.0289959630385
 21
333.79983522130357
  0
LINE
  8
_0-0_
  6
CONTINUOUS
 62
    7
 10
1007.4789959630385
 20
380.02317321170358
 11
1007.4789959630385
 21
379.4252416309032
  0
LINE
  8
_0-0_
  6
CONTINUOUS
 62
    7
 10
1008.0289959630385
 20
339.4498352213036
 11
1008.0289959630385
 21
345.24983522130367
  0
LINE
  8
_0-0_
  6
CONTINUOUS
 62
    7
 10
1008.9789959630381
 20
333.79983522130357
 11
1008.9789959630381
 21
332.49983522130361
  0
LINE
  8
_0-0_
  6
CONTINUOUS
 62
    7
 10
715.92384265503847
 20
152.41394434730358
 11
715.36245211463802
 21
151.9853358417036
  0
LINE
  8
_0-0_
  6
CONTINUOUS
 62
    7
 10
765.92899596303812
 20
577.19983522130315
 11
776.92899596303846
 21
577.19983522130315
  0
LINE
  8
_0-0_
  6
CONTINUOUS
 62
    7
 10
765.42900054623806
 20
580.1998352213036
 11
777.42899137983852
 21
580.1998352213036
  0
LINE
  8
_0-0_
  6
CONTINUOUS
 62
    7
 10
790.71399596303809
 20
580.77983522130364
 11
747.14399596303849
 21
580.77983522130364
  0
LINE
  8
_0-0_
  6
CONTINUOUS
 62
    7
 10
744.02899596303848
 20
581.1998352213036
 11
793.8289959630381
 21
581.1998352213036
  0
LINE
  8
_0-0_
  6
CONTINUOUS
 62
    9
 10
744.02899596303848
 20
584.1998352213036
 11
793.8289959630381
 21
584.1998352213036
  0
LINE
  8
_0-0_
  6
CONTINUOUS
 62
    7
 10
745.02899596303848
 20
585.1998352213036
 11
792.8289959630381
 21
585.1998352213036
  0
LINE
  8
_0-0_
  6
CONTINUOUS
 62
    9
 10
858.42282435503853
 20
667.40277670250362
 11
858.41446008783805
 21
667.41387646010321
  0
LINE
  8
_0-0_
  6
CONTINUOUS
 62
    7
 10
858.88402637383808
 20
666.87382295850375
 11
858.46275365023803
 21
667.43287074490331
  0
LINE
  8
_0-0_
  6
CONTINUOUS
 62
    7
 10
862.31815931423853
 20
669.4616272301032
 11
861.89688565743802
 21
670.02067625490372
  0
LINE
  8
_0-0_
  6
CONTINUOUS
 62
    9
 10
861.92845633063803
 20
670.0618625637037
 11
861.93682059903813
 21
670.05076280450362
  0
LINE
  8
_0-0_
  6
CONTINUOUS
 62
    7
 10
863.52860914463804
 20
691.28443204050313
 11
873.15764951543804
 21
678.50626387970374
  0
LINE
  8
_0-0_
  6
CONTINUOUS
 62
    7
 10
903.95144163423811
 20
690.56061892650314
 11
905.48732866703847
 21
686.7591651229036
  0
LINE
  8
_0-0_
  6
CONTINUOUS
 62
    7
 10
906.91656344303806
 20
692.29787327130362
 11
899.15255589583808
 21
711.51446628090321
  0
LINE
  8
_0-0_
  6
CONTINUOUS
 62
    7
 10
1018.0935165626381
 20
285.46976391290355
 11
1018.0935144378385
 21
285.47397286650357
  0
LINE
  8
_0-0_
  6
CONTINUOUS
 62
    7
 10
1016.8289959630381
 20
329.89983522130359
 11
1016.8289959630381
 21
320.1998352213036
  0
LINE
  8
_0-0_
  6
CONTINUOUS
 62
    7
 10
1016.8289959630381
 20
297.1998352213036
 11
1016.8289959630381
 21
297.09983522130358
  0
LINE
  8
_0-0_
  6
CONTINUOUS
 62
    7
 10
1016.8289959630381
 20
294.73969260410354
 11
1016.8289959630381
 21
294.63969260410357
  0
LINE
  8
_0-0_
  6
CONTINUOUS
 62
    7
 10
1016.8289959630381
 20
292.7396926041036
 11
1016.8289959630381
 21
292.63969260410357
  0
LINE
  8
_0-0_
  6
CONTINUOUS
 62
    7
 10
1016.8289959630381
 20
290.73969260410365
 11
1016.8289959630381
 21
290.63969260410363
  0
LINE
  8
_0-0_
  6
CONTINUOUS
 62
    7
 10
1016.8289959630381
 20
288.73969260410365
 11
1016.8289959630381
 21
288.63969260410363
  0
LINE
  8
_0-0_
  6
CONTINUOUS
 62
    7
 10
1016.8289959630381
 20
286.73969260410365
 11
1016.8289959630381
 21
286.63969260410363
  0
LINE
  8
_0-0_
  6
CONTINUOUS
 62
    7
 10
1019.0289959630385
 20
368.72317321170317
 11
1019.0289959630385
 21
361.22317321170362
  0
LINE
  8
_0-0_
  6
CONTINUOUS
 62
    7
 10
1019.0289959630385
 20
349.52317321170369
 11
1019.0289959630385
 21
345.24983522130367
  0
LINE
  8
_0-0_
  6
CONTINUOUS
 62
    7
 10
1020.4360919186381
 20
359.72317321170362
 11
1020.4360919186381
 21
351.02317321170358
  0
LINE
  8
_0-0_
  6
CONTINUOUS
 62
    7
 10
1031.5789959630379
 20
359.72317321170362
 11
1031.5789959630379
 21
351.02317321170358
  0
LINE
  8
_0-0_
  6
CONTINUOUS
 62
    7
 10
1034.9789959630384
 20
350.22217754250357
 11
1034.9789959630384
 21
349.52317321170369
  0
LINE
  8
_0-0_
  6
CONTINUOUS
 62
    7
 10
1036.3089998150385
 20
361.22317321170362
 11
1036.3089998150385
 21
350.72217754250357
  0
LINE
  8
_0-0_
  6
CONTINUOUS
 62
    7
 10
1018.0759491594381
 20
295.91976398490357
 11
1018.0759469150385
 21
295.91555850050361
  0
LINE
  8
_0-0_
  6
CONTINUOUS
 62
    7
 10
760.05399596303846
 20
209.69983522130363
 11
758.55399596303846
 21
208.83380981770361
  0
LINE
  8
_0-0_
  6
CONTINUOUS
 62
    7
 10
1011.598048566238
 20
339.31752160850363
 11
1007.531883970238
 21
336.98794814210362
  0
LINE
  8
_0-0_
  6
CONTINUOUS
 62
    7
 10
768.92899596303812
 20
674.89983522130319
 11
748.07833650103851
 21
684.62265740610314
  0
LINE
  8
_0-0_
  6
CONTINUOUS
 62
    9
 10
841.14727197943853
 20
741.25625284370358
 11
847.1654222110385
 21
733.26989774290359
  0
LINE
  8
_0-0_
  6
CONTINUOUS
 62
    7
 10
841.8474972462385
 20
741.15784260010355
 11
847.26383245423847
 21
733.97012300970323
  0
LINE
  8
_0-0_
  6
CONTINUOUS
 62
    7
 10
1041.5489921110379
 20
361.22317321170362
 11
1041.5489921110379
 21
350.72217754250357
  0
LINE
  8
_0-0_
  6
CONTINUOUS
 62
    7
 10
1042.8789959630381
 20
350.22217754250357
 11
1042.8789959630381
 21
349.52317321170369
  0
LINE
  8
_0-0_
  6
CONTINUOUS
 62
    7
 10
1046.2789959630386
 20
359.72317321170362
 11
1046.2789959630386
 21
351.02317321170358
  0
LINE
  8
_0-0_
  6
CONTINUOUS
 62
    7
 10
1057.4219000074386
 20
359.72317321170362
 11
1057.4219000074386
 21
351.02317321170358
  0
LINE
  8
_0-0_
  6
CONTINUOUS
 62
    7
 10
1058.8289959630379
 20
368.72317321170317
 11
1058.8289959630379
 21
361.22317321170362
  0
LINE
  8
_0-0_
  6
CONTINUOUS
 62
    7
 10
1058.8289959630379
 20
349.52317321170369
 11
1058.8289959630379
 21
345.24983522130367
  0
LINE
  8
_0-0_
  6
CONTINUOUS
 62
    7
 10
1061.0289959630386
 20
329.89983522130359
 11
1061.0289959630386
 21
297.09983522130358
  0
LINE
  8
_0-0_
  6
CONTINUOUS
 62
    7
 10
1061.0289959630386
 20
293.73969260410365
 11
1061.0289959630386
 21
293.63969260410357
  0
LINE
  8
_0-0_
  6
CONTINUOUS
 62
    7
 10
1061.0289959630386
 20
291.73969260410365
 11
1061.0289959630386
 21
291.63969260410363
  0
LINE
  8
_0-0_
  6
CONTINUOUS
 62
    7
 10
1061.0289959630386
 20
289.73969260410354
 11
1061.0289959630386
 21
289.63969260410363
  0
LINE
  8
_0-0_
  6
CONTINUOUS
 62
    7
 10
1061.0289959630386
 20
287.73969260410365
 11
1061.0289959630386
 21
287.63969260410363
  0
LINE
  8
_0-0_
  6
CONTINUOUS
 62
    7
 10
1060.630500767038
 20
285.96976391290366
 11
1060.6305026478381
 21
285.9738050873035
  0
LINE
  8
_0-0_
  6
CONTINUOUS
 62
    7
 10
758.5789959630381
 20
184.63173722330362
 11
760.42899596303812
 21
185.69983522130363
  0
LINE
  8
_0-0_
  6
CONTINUOUS
 62
    7
 10
784.30399596303846
 20
199.06586062490362
 11
782.80399596303846
 21
198.19983522130363
  0
LINE
  8
_0-0_
  6
CONTINUOUS
 62
    7
 10
782.42899596303812
 20
172.69983522130363
 11
784.27899596303848
 21
173.76793321930359
  0
LINE
  8
_0-0_
  6
CONTINUOUS
 62
    7
 10
1068.8789959630385
 20
332.49983522130361
 11
1061.0289959630386
 21
329.89983522130359
  0
LINE
  8
_0-0_
  6
CONTINUOUS
 62
    7
 10
1068.8789959630385
 20
333.79983522130357
 11
1068.8789959630385
 21
332.49983522130361
  0
LINE
  8
_0-0_
  6
CONTINUOUS
 62
    7
 10
1069.8289959630381
 20
339.4498352213036
 11
1069.8289959630381
 21
345.24983522130367
  0
LINE
  8
_0-0_
  6
CONTINUOUS
 62
    7
 10
1070.3789959630383
 20
380.02317321170358
 11
1070.3789959630383
 21
379.4252416309032
  0
LINE
  8
_0-0_
  6
CONTINUOUS
 62
    7
 10
1070.8289959630381
 20
336.12026175490359
 11
1070.8289959630381
 21
333.79983522130357
  0
LINE
  8
_0-0_
  6
CONTINUOUS
 62
    9
 10
1036.1689554966383
 20
295.1998352213036
 11
1036.3744534062384
 21
296.14983522130359
  0
LINE
  8
_0-0_
  6
CONTINUOUS
 62
    7
 10
1016.8358697578385
 20
292.74763183690357
 11
1016.8289959630381
 21
292.7396926041036
  0
LINE
  8
_0-0_
  6
CONTINUOUS
 62
    7
 10
1016.8358697578385
 20
290.74763183690357
 11
1016.8289959630381
 21
290.73969260410365
  0
LINE
  8
_0-0_
  6
CONTINUOUS
 62
    7
 10
1016.8358697578385
 20
288.74763183690357
 11
1016.8289959630381
 21
288.73969260410365
  0
LINE
  8
_0-0_
  6
CONTINUOUS
 62
    7
 10
1018.4818704018385
 20
285.6982702037036
 11
1018.0935144378385
 21
285.47397286650357
  0
LINE
  8
_0-0_
  6
CONTINUOUS
 62
    7
 10
1018.0759490342381
 20
295.91976391290359
 11
1018.4744442302381
 21
296.14983522130359
  0
LINE
  8
_0-0_
  6
CONTINUOUS
 62
    2
 10
775.79015411703813
 20
191.27031168770361
 11
805.2714178886381
 21
204.42509951490362
  0
LINE
  8
_0-0_
  6
CONTINUOUS
 62
    7
 10
1059.3835476958384
 20
296.14983522130359
 11
1061.0289959630386
 21
297.09983522130358
  0
LINE
  8
_0-0_
  6
CONTINUOUS
 62
    7
 10
1060.630500767038
 20
285.96976391290366
 11
1059.2969451554382
 21
285.1998352213036
  0
LINE
  8
_0-0_
  6
CONTINUOUS
 62
    7
 10
789.97899596303853
 20
673.19983522130315
 11
747.87899596303851
 21
673.19983522130315
  0
LINE
  8
_0-0_
  6
CONTINUOUS
 62
    7
 10
748.02899596303848
 20
674.1998352213036
 11
789.8289959630381
 21
674.1998352213036
  0
LINE
  8
_0-0_
  6
CONTINUOUS
 62
    7
 10
750.65086695583807
 20
674.29983522130328
 11
787.42899596303846
 21
674.29983522130328
  0
LINE
  8
_0-0_
  6
CONTINUOUS
 62
    7
 10
789.92899596303812
 20
674.89983522130319
 11
768.92899596303812
 21
674.89983522130319
  0
LINE
  8
_0-0_
  6
CONTINUOUS
 62
    7
 10
753.02899596303848
 20
681.29983522130374
 11
755.20415167183808
 21
681.29983522130374
  0
LINE
  8
_0-0_
  6
CONTINUOUS
 62
    7
 10
883.42035292863852
 20
677.84352819930359
 11
884.8067282246385
 21
677.64868585810359
  0
LINE
  8
_0-0_
  6
CONTINUOUS
 62
    7
 10
1061.0221221682382
 20
293.6317533713036
 11
1061.0289959630386
 21
293.63969260410357
  0
LINE
  8
_0-0_
  6
CONTINUOUS
 62
    7
 10
1061.0221221682382
 20
291.6317533713036
 11
1061.0289959630386
 21
291.63969260410363
  0
LINE
  8
_0-0_
  6
CONTINUOUS
 62
    7
 10
1061.0221221682382
 20
289.6317533713036
 11
1061.0289959630386
 21
289.63969260410363
  0
LINE
  8
_0-0_
  6
CONTINUOUS
 62
    7
 10
1061.0289959630386
 20
287.63969260410363
 11
1061.0221221682382
 21
287.6317533713036
  0
LINE
  8
_0-0_
  6
CONTINUOUS
 62
    9
 10
747.92899596303812
 20
702.92314229690373
 11
789.92899596303812
 21
702.92314229690373
  0
LINE
  8
_0-0_
  6
CONTINUOUS
 62
    9
 10
748.40542381503849
 20
703.42258634170321
 11
789.45256811063848
 21
703.42258634170321
  0
LINE
  8
_0-0_
  6
CONTINUOUS
 62
    7
 10
769.21352201743809
 20
703.89992950850319
 11
768.64446990863848
 21
703.89992950850319
  0
LINE
  8
_0-0_
  6
CONTINUOUS
 62
    7
 10
254.89970660343846
 20
172.69983522130363
 11
291.9078891610385
 21
172.69983522130363
  0
LINE
  8
_0-0_
  6
CONTINUOUS
 62
    7
 10
292.4078952830385
 20
173.76793321930359
 11
291.62321249343847
 21
173.76793321930359
  0
LINE
  8
_0-0_
  6
CONTINUOUS
 62
    7
 10
281.69257807263847
 20
173.76793321930359
 11
280.12321249343847
 21
173.76793321930359
  0
LINE
  8
_0-0_
  6
CONTINUOUS
 62
    7
 10
270.19257807263847
 20
173.76793321930359
 11
269.4078952830385
 21
173.76793321930359
  0
LINE
  8
_0-0_
  6
CONTINUOUS
 62
    7
 10
253.07368723183845
 20
173.76793321930359
 11
253.04970660343844
 21
173.76793321930359
  0
LINE
  8
_0-0_
  6
CONTINUOUS
 62
    7
 10
292.4078952830385
 20
184.63173722330362
 11
291.62321249343847
 21
184.63173722330362
  0
LINE
  8
_0-0_
  6
CONTINUOUS
 62
    7
 10
281.69257807263847
 20
184.63173722330362
 11
280.12321249343847
 21
184.63173722330362
  0
LINE
  8
_0-0_
  6
CONTINUOUS
 62
    7
 10
270.19257807263847
 20
184.63173722330362
 11
269.4078952830385
 21
184.63173722330362
  0
LINE
  8
_0-0_
  6
CONTINUOUS
 62
    7
 10
253.07368723183845
 20
184.63173722330362
 11
253.04970660343844
 21
184.63173722330362
  0
LINE
  8
_0-0_
  6
CONTINUOUS
 62
    7
 10
291.9078952830385
 20
185.69983522130363
 11
254.89970660343846
 21
185.69983522130363
  0
LINE
  8
_0-0_
  6
CONTINUOUS
 62
    7
 10
254.89970660343846
 20
190.39983522130362
 11
291.9078952830385
 21
190.39983522130362
  0
LINE
  8
_0-0_
  6
CONTINUOUS
 62
    7
 10
255.19970660343841
 20
190.69983522130363
 11
291.60788814063847
 21
190.69983522130363
  0
LINE
  8
_0-0_
  6
CONTINUOUS
 62
    7
 10
290.20789528303845
 20
193.69983522130366
 11
256.59970660343845
 21
193.69983522130366
  0
LINE
  8
_0-0_
  6
CONTINUOUS
 62
    7
 10
291.1578952830385
 20
194.69983522130363
 11
255.64970660343846
 21
194.69983522130363
  0
LINE
  8
_0-0_
  6
CONTINUOUS
 62
    7
 10
254.52470660343846
 20
198.19983522130363
 11
292.27470660343846
 21
198.19983522130363
  0
LINE
  8
_0-0_
  6
CONTINUOUS
 62
    7
 10
254.39970660343846
 20
199.06586062490362
 11
255.13605336943846
 21
199.06586062490362
  0
LINE
  8
_0-0_
  6
CONTINUOUS
 62
    7
 10
265.16335983743841
 20
199.06586062490362
 11
266.63605336943846
 21
199.06586062490362
  0
LINE
  8
_0-0_
  6
CONTINUOUS
 62
    7
 10
269.39970660343846
 20
199.06586062490362
 11
270.13605336943846
 21
199.06586062490362
  0
LINE
  8
_0-0_
  6
CONTINUOUS
 62
    7
 10
276.66335983743846
 20
199.06586062490362
 11
277.39970660343846
 21
199.06586062490362
  0
LINE
  8
_0-0_
  6
CONTINUOUS
 62
    7
 10
280.16335983743841
 20
199.06586062490362
 11
281.63605336943846
 21
199.06586062490362
  0
LINE
  8
_0-0_
  6
CONTINUOUS
 62
    7
 10
291.66335983743846
 20
199.06586062490362
 11
292.39970660343846
 21
199.06586062490362
  0
LINE
  8
_0-0_
  6
CONTINUOUS
 62
    7
 10
254.39970660343846
 20
208.83380981770361
 11
255.13605336943846
 21
208.83380981770361
  0
LINE
  8
_0-0_
  6
CONTINUOUS
 62
    7
 10
265.16335983743841
 20
208.83380981770361
 11
266.63605336943846
 21
208.83380981770361
  0
LINE
  8
_0-0_
  6
CONTINUOUS
 62
    7
 10
269.39970660343846
 20
208.83380981770361
 11
270.13605336943846
 21
208.83380981770361
  0
LINE
  8
_0-0_
  6
CONTINUOUS
 62
    7
 10
276.66335983743846
 20
208.83380981770361
 11
277.39970660343846
 21
208.83380981770361
  0
LINE
  8
_0-0_
  6
CONTINUOUS
 62
    7
 10
280.16335983743841
 20
208.83380981770361
 11
281.63605336943846
 21
208.83380981770361
  0
LINE
  8
_0-0_
  6
CONTINUOUS
 62
    7
 10
291.66335983743846
 20
208.83380981770361
 11
292.39970660343846
 21
208.83380981770361
  0
LINE
  8
_0-0_
  6
CONTINUOUS
 62
    7
 10
254.52470660343846
 20
209.69983522130363
 11
292.27470660343846
 21
209.69983522130363
  0
LINE
  8
_0-0_
  6
CONTINUOUS
 62
    7
 10
259.89970737063845
 20
210.19983522130363
 11
271.89970583623847
 21
210.19983522130363
  0
LINE
  8
_0-0_
  6
CONTINUOUS
 62
    7
 10
274.89970737063845
 20
210.19983522130363
 11
286.89970583623847
 21
210.19983522130363
  0
LINE
  8
_0-0_
  6
CONTINUOUS
 62
    7
 10
260.39970660343846
 20
210.39983522130362
 11
271.39970660343846
 21
210.39983522130362
  0
LINE
  8
_0-0_
  6
CONTINUOUS
 62
    7
 10
275.39970660343846
 20
210.39983522130362
 11
286.39970660343846
 21
210.39983522130362
  0
LINE
  8
_0-0_
  6
CONTINUOUS
 62
    7
 10
254.89970660343846
 20
172.69983522130363
 11
253.04970660343844
 21
173.76793321930359
  0
LINE
  8
_0-0_
  6
CONTINUOUS
 62
    7
 10
260.39970660343846
 20
213.39983522130362
 11
271.39970660343846
 21
213.39983522130362
  0
LINE
  8
_0-0_
  6
CONTINUOUS
 62
    7
 10
275.39970660343846
 20
213.39983522130362
 11
286.39970660343846
 21
213.39983522130362
  0
LINE
  8
_0-0_
  6
CONTINUOUS
 62
    7
 10
260.39970660343846
 20
222.39983522130362
 11
271.39970660343846
 21
222.39983522130362
  0
LINE
  8
_0-0_
  6
CONTINUOUS
 62
    7
 10
275.39970660343846
 20
222.39983522130362
 11
286.39970660343846
 21
222.39983522130362
  0
LINE
  8
_0-0_
  6
CONTINUOUS
 62
    9
 10
259.89970660343846
 20
225.39983522130362
 11
271.89970660343846
 21
225.39983522130362
  0
LINE
  8
_0-0_
  6
CONTINUOUS
 62
    9
 10
274.89970660343846
 20
225.39983522130362
 11
286.89970660343846
 21
225.39983522130362
  0
LINE
  8
_0-0_
  6
CONTINUOUS
 62
    7
 10
259.89970737063845
 20
228.39983522130362
 11
271.89970583623847
 21
228.39983522130362
  0
LINE
  8
_0-0_
  6
CONTINUOUS
 62
    7
 10
274.89970737063845
 20
228.39983522130362
 11
286.89970583623847
 21
228.39983522130362
  0
LINE
  8
_0-0_
  6
CONTINUOUS
 62
    7
 10
254.39970660343846
 20
198.27200400490361
 11
254.52470660343846
 21
198.19983522130363
  0
LINE
  8
_0-0_
  6
CONTINUOUS
 62
    7
 10
292.41273804863846
 20
185.40836411450363
 11
291.9078952830385
 21
185.69983522130363
  0
LINE
  8
_0-0_
  6
CONTINUOUS
 62
    7
 10
281.90040916703845
 20
679.18179226810366
 11
281.03431218263847
 21
678.85060043490375
  0
LINE
  8
_0-0_
  6
CONTINUOUS
 62
    7
 10
292.27470660343846
 20
209.69983522130363
 11
292.39970660343846
 21
209.62766643770362
  0
LINE
  8
_0-0_
  6
CONTINUOUS
 62
    7
 10
285.99480845463842
 20
152.61915231850355
 11
286.50659643183849
 21
152.14950221890359
  0
LINE
  8
_0-0_
  6
CONTINUOUS
 62
    7
 10
255.64970660343846
 20
194.69983522130363
 11
256.64970660343846
 21
193.69983522130366
  0
LINE
  8
_0-0_
  6
CONTINUOUS
 62
    7
 10
293.76765579583849
 20
285.1998352213036
 11
253.03175741103848
 21
285.1998352213036
  0
LINE
  8
_0-0_
  6
CONTINUOUS
 62
    7
 10
295.49970660343848
 20
286.1998352213036
 11
295.32668032583848
 21
286.1998352213036
  0
LINE
  8
_0-0_
  6
CONTINUOUS
 62
    7
 10
262.36417269743845
 20
234.74983522130364
 11
262.3971106810385
 21
234.72294147010362
  0
LINE
  8
_0-0_
  6
CONTINUOUS
 62
    7
 10
269.43524050943847
 20
234.64983522130362
 11
269.40230247703846
 21
234.67672901210355
  0
LINE
  8
_0-0_
  6
CONTINUOUS
 62
    7
 10
277.36417269743845
 20
234.74983522130364
 11
277.3971106810385
 21
234.72294147010362
  0
LINE
  8
_0-0_
  6
CONTINUOUS
 62
    7
 10
262.36417269743845
 20
247.24983522130364
 11
262.39711067863846
 21
247.22294147250361
  0
LINE
  8
_0-0_
  6
CONTINUOUS
 62
    7
 10
284.43524050943847
 20
234.64983522130362
 11
284.40230247703846
 21
234.67672901210355
  0
LINE
  8
_0-0_
  6
CONTINUOUS
 62
    7
 10
269.43524050943847
 20
247.14983522130362
 11
269.40230252783846
 21
247.1767289705036
  0
LINE
  8
_0-0_
  6
CONTINUOUS
 62
    7
 10
291.60789528303849
 20
190.69983522130363
 11
291.9078952830385
 21
190.39983522130362
  0
LINE
  8
_0-0_
  6
CONTINUOUS
 62
    7
 10
251.69301595303847
 20
295.1998352213036
 11
251.29970660343844
 21
295.1998352213036
  0
LINE
  8
_0-0_
  6
CONTINUOUS
 62
    7
 10
252.94515487063848
 20
296.14983522130359
 11
293.8542583362385
 21
296.14983522130359
  0
LINE
  8
_0-0_
  6
CONTINUOUS
 62
    7
 10
295.49970660343848
 20
297.09983522130358
 11
251.29970660343844
 21
297.09983522130358
  0
LINE
  8
_0-0_
  6
CONTINUOUS
 62
    7
 10
252.13121450103847
 20
285.71976391290366
 11
253.03175741103848
 21
285.1998352213036
  0
LINE
  8
_0-0_
  6
CONTINUOUS
 62
    7
 10
252.94515487063848
 20
296.14983522130359
 11
251.29970660343844
 21
297.09983522130358
  0
LINE
  8
_0-0_
  6
CONTINUOUS
 62
    7
 10
277.36417269743845
 20
247.24983522130364
 11
277.39711067863846
 21
247.22294147250361
  0
LINE
  8
_0-0_
  6
CONTINUOUS
 62
    7
 10
262.36417269743845
 20
259.74983522130367
 11
262.39711061343849
 21
259.72294152530367
  0
LINE
  8
_0-0_
  6
CONTINUOUS
 62
    7
 10
284.43524050943847
 20
247.14983522130362
 11
284.40230252783846
 21
247.1767289705036
  0
LINE
  8
_0-0_
  6
CONTINUOUS
 62
    7
 10
269.43524050943847
 20
259.64983522130365
 11
269.40230252823847
 21
259.67672897010357
  0
LINE
  8
_0-0_
  6
CONTINUOUS
 62
    7
 10
277.36417269743845
 20
259.74983522130367
 11
277.39711061343849
 21
259.72294152530367
  0
LINE
  8
_0-0_
  6
CONTINUOUS
 62
    7
 10
262.36417269743845
 20
272.24983522130367
 11
262.39711067863846
 21
272.22294147210357
  0
LINE
  8
_0-0_
  6
CONTINUOUS
 62
    7
 10
284.43524050943847
 20
259.64983522130365
 11
284.40230252823847
 21
259.67672897010357
  0
LINE
  8
_0-0_
  6
CONTINUOUS
 62
    7
 10
269.43524050943847
 20
272.14983522130365
 11
269.40230251383849
 21
272.17672898210367
  0
LINE
  8
_0-0_
  6
CONTINUOUS
 62
    7
 10
251.29970660343844
 20
329.89983522130359
 11
295.49970660343848
 21
329.89983522130359
  0
LINE
  8
_0-0_
  6
CONTINUOUS
 62
    7
 10
243.44970660343847
 20
332.49983522130361
 11
251.29970660343844
 21
329.89983522130359
  0
LINE
  8
_0-0_
  6
CONTINUOUS
 62
    7
 10
294.68576623383848
 20
295.66976391290359
 11
293.8542583362385
 21
296.14983522130359
  0
LINE
  8
_0-0_
  6
CONTINUOUS
 62
    7
 10
277.36417269743845
 20
272.24983522130367
 11
277.39711067863846
 21
272.22294147210357
  0
LINE
  8
_0-0_
  6
CONTINUOUS
 62
    7
 10
262.36417269743845
 20
284.74983522130367
 11
262.39711067863846
 21
284.72294147210357
  0
LINE
  8
_0-0_
  6
CONTINUOUS
 62
    7
 10
284.43524050943847
 20
272.14983522130365
 11
284.40230251383849
 21
272.17672898210367
  0
LINE
  8
_0-0_
  6
CONTINUOUS
 62
    7
 10
269.43524050943847
 20
284.64983522130365
 11
269.40230252823847
 21
284.67672897010357
  0
LINE
  8
_0-0_
  6
CONTINUOUS
 62
    7
 10
277.36417269743845
 20
284.74983522130367
 11
277.39711067863846
 21
284.72294147210357
  0
LINE
  8
_0-0_
  6
CONTINUOUS
 62
    7
 10
284.43524050943847
 20
284.64983522130365
 11
284.40230252823847
 21
284.67672897010357
  0
LINE
  8
_0-0_
  6
CONTINUOUS
 62
    7
 10
251.30658039823845
 20
289.1317533713036
 11
251.29970660343844
 21
289.13969260410363
  0
LINE
  8
_0-0_
  6
CONTINUOUS
 62
    7
 10
251.30658039823845
 20
291.1317533713036
 11
251.29970660343844
 21
291.13969272810357
  0
LINE
  8
_0-0_
  6
CONTINUOUS
 62
    7
 10
251.30658039823845
 20
293.1317533713036
 11
251.29970660343844
 21
293.13969260370357
  0
LINE
  8
_0-0_
  6
CONTINUOUS
 62
    7
 10
243.44970660343847
 20
332.49983522130361
 11
303.34970660343845
 21
332.49983522130361
  0
LINE
  8
_0-0_
  6
CONTINUOUS
 62
    7
 10
241.49971122543843
 20
333.79983522130357
 11
305.29970198103848
 21
333.79983522130357
  0
LINE
  8
_0-0_
  6
CONTINUOUS
 62
    9
 10
241.49970660343848
 20
336.12026175490359
 11
305.29970660343849
 21
336.12026175490359
  0
LINE
  8
_0-0_
  6
CONTINUOUS
 62
    9
 10
242.00259461063848
 20
336.98794814210362
 11
304.7968185962385
 21
336.98794814210362
  0
LINE
  8
_0-0_
  6
CONTINUOUS
 62
    9
 10
246.06875920663845
 20
339.31752160850363
 11
300.73065400023847
 21
339.31752160850363
  0
LINE
  8
_0-0_
  6
CONTINUOUS
 62
    7
 10
242.49971010343847
 20
339.4498352213036
 11
304.29970310343845
 21
339.4498352213036
  0
LINE
  8
_0-0_
  6
CONTINUOUS
 62
    7
 10
242.49971010343847
 20
345.24983522130367
 11
304.29970310343845
 21
345.24983522130367
  0
LINE
  8
_0-0_
  6
CONTINUOUS
 62
    7
 10
293.2997045270385
 20
349.52317321170369
 11
292.42041899823846
 21
349.52317321170369
  0
LINE
  8
_0-0_
  6
CONTINUOUS
 62
    7
 10
279.24970660343848
 20
349.52317321170369
 11
267.54970660343849
 21
349.52317321170369
  0
LINE
  8
_0-0_
  6
CONTINUOUS
 62
    7
 10
254.37899420863846
 20
349.52317321170369
 11
253.49970867983848
 21
349.52317321170369
  0
LINE
  8
_0-0_
  6
CONTINUOUS
 62
    7
 10
280.51635442023849
 20
350.22217754250357
 11
277.27785048943849
 21
350.22217754250357
  0
LINE
  8
_0-0_
  6
CONTINUOUS
 62
    7
 10
272.11015371343848
 20
350.22217754250357
 11
266.28290721263846
 21
350.22217754250357
  0
LINE
  8
_0-0_
  6
CONTINUOUS
 62
    7
 10
262.36417269743845
 20
559.64983522130319
 11
262.3971106714385
 21
559.67672896450358
  0
LINE
  8
_0-0_
  6
CONTINUOUS
 62
    7
 10
269.43524050943847
 20
559.74983522130356
 11
269.40230995583846
 21
559.72294753690323
  0
LINE
  8
_0-0_
  6
CONTINUOUS
 62
    7
 10
277.36417269743845
 20
559.64983522130319
 11
277.3971106714385
 21
559.67672896450358
  0
LINE
  8
_0-0_
  6
CONTINUOUS
 62
    7
 10
262.36417269743845
 20
547.14983522130319
 11
262.39711063423846
 21
547.17672893410361
  0
LINE
  8
_0-0_
  6
CONTINUOUS
 62
    7
 10
284.43524050943847
 20
559.74983522130356
 11
284.40230995583846
 21
559.72294753690323
  0
LINE
  8
_0-0_
  6
CONTINUOUS
 62
    7
 10
269.43524050943847
 20
547.24983522130356
 11
269.40230241783848
 21
547.22294138210361
  0
LINE
  8
_0-0_
  6
CONTINUOUS
 62
    9
 10
280.71796537743847
 20
350.72217754250357
 11
277.14670540263847
 21
350.72217754250357
  0
LINE
  8
_0-0_
  6
CONTINUOUS
 62
    9
 10
272.60873895863847
 20
350.72217754250357
 11
266.08152603223846
 21
350.72217754250357
  0
LINE
  8
_0-0_
  6
CONTINUOUS
 62
    7
 10
293.2997045270385
 20
361.22317321170362
 11
292.42041899823846
 21
361.22317321170362
  0
LINE
  8
_0-0_
  6
CONTINUOUS
 62
    7
 10
279.24970660343848
 20
361.22317321170362
 11
267.54970660343849
 21
361.22317321170362
  0
LINE
  8
_0-0_
  6
CONTINUOUS
 62
    7
 10
254.37899420863846
 20
361.22317321170362
 11
253.49970867983848
 21
361.22317321170362
  0
LINE
  8
_0-0_
  6
CONTINUOUS
 62
    9
 10
253.49970660343848
 20
368.72317321170317
 11
293.29970660343849
 21
368.72317321170317
  0
LINE
  8
_0-0_
  6
CONTINUOUS
 62
    7
 10
300.73065400023847
 20
339.31752160850363
 11
304.7968185962385
 21
336.98794814210362
  0
LINE
  8
_0-0_
  6
CONTINUOUS
 62
    7
 10
295.49283280863847
 20
288.24763183690357
 11
295.49970660343848
 21
288.23969260410365
  0
LINE
  8
_0-0_
  6
CONTINUOUS
 62
    7
 10
295.49283280863847
 20
290.24763183690357
 11
295.49970660343848
 21
290.23969260250362
  0
LINE
  8
_0-0_
  6
CONTINUOUS
 62
    7
 10
295.49283280863847
 20
292.24763183690357
 11
295.49970660343848
 21
292.23969260570357
  0
LINE
  8
_0-0_
  6
CONTINUOUS
 62
    7
 10
277.36417269743845
 20
547.14983522130319
 11
277.39711063423846
 21
547.17672893410361
  0
LINE
  8
_0-0_
  6
CONTINUOUS
 62
    7
 10
262.36417269743845
 20
534.64983522130319
 11
262.39711065303845
 21
534.67672894930354
  0
LINE
  8
_0-0_
  6
CONTINUOUS
 62
    7
 10
284.43524050943847
 20
547.24983522130356
 11
284.40230241783848
 21
547.22294138210361
  0
LINE
  8
_0-0_
  6
CONTINUOUS
 62
    7
 10
269.43524050943847
 20
534.74983522130356
 11
269.40230254823848
 21
534.72294148890364
  0
LINE
  8
_0-0_
  6
CONTINUOUS
 62
    7
 10
277.36417269743845
 20
534.64983522130319
 11
277.39711065303845
 21
534.67672894930354
  0
LINE
  8
_0-0_
  6
CONTINUOUS
 62
    7
 10
262.36417269743845
 20
522.14983522130319
 11
262.3971106586385
 21
522.17672895410362
  0
LINE
  8
_0-0_
  6
CONTINUOUS
 62
    7
 10
284.43524050943847
 20
534.74983522130356
 11
284.40230254823848
 21
534.72294148890364
  0
LINE
  8
_0-0_
  6
CONTINUOUS
 62
    7
 10
269.43524050943847
 20
522.24983522130321
 11
269.40230258543846
 21
522.22294151930362
  0
LINE
  8
_0-0_
  6
CONTINUOUS
 62
    7
 10
304.43343513383849
 20
378.93230194570322
 11
301.5002545514385
 21
378.43408500890359
  0
LINE
  8
_0-0_
  6
CONTINUOUS
 62
    9
 10
245.29915865543848
 20
378.43408500890359
 11
301.5002545514385
 21
378.43408500890359
  0
LINE
  8
_0-0_
  6
CONTINUOUS
 62
    9
 10
242.36597807303849
 20
378.93230194570322
 11
304.43343513383849
 21
378.93230194570322
  0
LINE
  8
_0-0_
  6
CONTINUOUS
 62
    9
 10
241.94970660343847
 20
379.4252416309032
 11
304.84970660343845
 21
379.4252416309032
  0
LINE
  8
_0-0_
  6
CONTINUOUS
 62
    7
 10
241.94970660343847
 20
380.02317321170358
 11
304.84970660343845
 21
380.02317321170358
  0
LINE
  8
_0-0_
  6
CONTINUOUS
 62
    7
 10
242.36597807303849
 20
378.93230194570322
 11
245.29915865543848
 21
378.43408500890359
  0
LINE
  8
_0-0_
  6
CONTINUOUS
 62
    7
 10
277.36417269743845
 20
522.14983522130319
 11
277.3971106586385
 21
522.17672895410362
  0
LINE
  8
_0-0_
  6
CONTINUOUS
 62
    7
 10
262.36417269743845
 20
509.64983522130319
 11
262.39711063223848
 21
509.67672893250358
  0
LINE
  8
_0-0_
  6
CONTINUOUS
 62
    7
 10
284.43524050943847
 20
522.24983522130321
 11
284.40230258543846
 21
522.22294151930362
  0
LINE
  8
_0-0_
  6
CONTINUOUS
 62
    7
 10
269.43524050943847
 20
509.74983522130321
 11
269.40230250583846
 21
509.72294145410319
  0
LINE
  8
_0-0_
  6
CONTINUOUS
 62
    7
 10
277.36417269743845
 20
509.64983522130319
 11
277.39711063223848
 21
509.67672893250358
  0
LINE
  8
_0-0_
  6
CONTINUOUS
 62
    7
 10
262.36417269743845
 20
497.14983522130319
 11
262.3971106970385
 21
497.17672898530361
  0
LINE
  8
_0-0_
  6
CONTINUOUS
 62
    7
 10
284.43524050943847
 20
509.74983522130321
 11
284.40230250583846
 21
509.72294145410319
  0
LINE
  8
_0-0_
  6
CONTINUOUS
 62
    7
 10
269.43524050943847
 20
497.24983522130321
 11
269.40230242143849
 21
497.22294138530322
  0
LINE
  8
_0-0_
  6
CONTINUOUS
 62
    7
 10
262.36417269743845
 20
384.74983522130321
 11
262.39711067863846
 21
384.72294147250318
  0
LINE
  8
_0-0_
  6
CONTINUOUS
 62
    7
 10
269.43524050943847
 20
384.64983522130365
 11
269.40230252823847
 21
384.67672897010323
  0
LINE
  8
_0-0_
  6
CONTINUOUS
 62
    7
 10
277.36417269743845
 20
384.74983522130321
 11
277.39711067863846
 21
384.72294147250318
  0
LINE
  8
_0-0_
  6
CONTINUOUS
 62
    7
 10
262.36417269743845
 20
397.24983522130321
 11
262.39711067863846
 21
397.22294147250318
  0
LINE
  8
_0-0_
  6
CONTINUOUS
 62
    7
 10
284.43524050943847
 20
384.64983522130365
 11
284.40230252823847
 21
384.67672897010323
  0
LINE
  8
_0-0_
  6
CONTINUOUS
 62
    7
 10
269.43524050943847
 20
397.14983522130359
 11
269.4023323018385
 21
397.17670466010361
  0
LINE
  8
_0-0_
  6
CONTINUOUS
 62
    7
 10
241.49970660343848
 20
336.12026175490359
 11
241.49970660343848
 21
333.79983522130357
  0
LINE
  8
_0-0_
  6
CONTINUOUS
 62
    7
 10
241.94970660343847
 20
380.02317321170358
 11
241.94970660343847
 21
379.4252416309032
  0
LINE
  8
_0-0_
  6
CONTINUOUS
 62
    7
 10
242.49970660343848
 20
339.4498352213036
 11
242.49970660343848
 21
345.24983522130367
  0
LINE
  8
_0-0_
  6
CONTINUOUS
 62
    7
 10
243.44970660343847
 20
333.79983522130357
 11
243.44970660343847
 21
332.49983522130361
  0
LINE
  8
_0-0_
  6
CONTINUOUS
 62
    7
 10
244.39970660343846
 20
538.6998352213036
 11
244.39970660343846
 21
541.1998352213036
  0
LINE
  8
_0-0_
  6
CONTINUOUS
 62
    7
 10
248.49970660343848
 20
584.1998352213036
 11
248.49970660343848
 21
581.1998352213036
  0
LINE
  8
_0-0_
  6
CONTINUOUS
 62
    7
 10
251.29970660343844
 20
329.89983522130359
 11
251.29970660343844
 21
297.09983522130358
  0
LINE
  8
_0-0_
  6
CONTINUOUS
 62
    7
 10
251.29970660343844
 20
295.1998352213036
 11
251.29970660343844
 21
295.13969260410357
  0
LINE
  8
_0-0_
  6
CONTINUOUS
 62
    7
 10
251.29970660343844
 20
293.2396926041036
 11
251.29970660343844
 21
293.13969260410357
  0
LINE
  8
_0-0_
  6
CONTINUOUS
 62
    7
 10
251.29970660343844
 20
291.23969260410365
 11
251.29970660343844
 21
291.13969260410363
  0
LINE
  8
_0-0_
  6
CONTINUOUS
 62
    7
 10
251.29970660343844
 20
289.23969260410365
 11
251.29970660343844
 21
289.13969260410363
  0
LINE
  8
_0-0_
  6
CONTINUOUS
 62
    7
 10
251.29970660343844
 20
287.23969260410354
 11
251.29970660343844
 21
287.13969260410363
  0
LINE
  8
_0-0_
  6
CONTINUOUS
 62
    7
 10
252.3997066034384
 20
702.92314229690373
 11
252.3997066034384
 21
674.89983522130319
  0
LINE
  8
_0-0_
  6
CONTINUOUS
 62
    7
 10
252.49970660343848
 20
673.19983522130315
 11
252.49970660343848
 21
674.1998352213036
  0
LINE
  8
_0-0_
  6
CONTINUOUS
 62
    7
 10
253.04970660343844
 20
184.63173722330362
 11
253.04970660343844
 21
173.76793321930359
  0
LINE
  8
_0-0_
  6
CONTINUOUS
 62
    7
 10
253.49970660343848
 20
368.72317321170317
 11
253.49970660343848
 21
361.22317321170362
  0
LINE
  8
_0-0_
  6
CONTINUOUS
 62
    7
 10
253.49970660343848
 20
349.52317321170369
 11
253.49970660343848
 21
345.24983522130367
  0
LINE
  8
_0-0_
  6
CONTINUOUS
 62
    7
 10
254.39970660343846
 20
198.27200400490361
 11
254.39970660343846
 21
209.62766643770362
  0
LINE
  8
_0-0_
  6
CONTINUOUS
 62
    7
 10
254.89970660343846
 20
190.39983522130362
 11
254.89970660343846
 21
185.69983522130363
  0
LINE
  8
_0-0_
  6
CONTINUOUS
 62
    7
 10
254.90680255903845
 20
359.72317321170362
 11
254.90680255903845
 21
351.02317321170358
  0
LINE
  8
_0-0_
  6
CONTINUOUS
 62
    7
 10
255.13605336943846
 20
208.83380981770361
 11
255.13605336943846
 21
199.06586062490362
  0
LINE
  8
_0-0_
  6
CONTINUOUS
 62
    9
 10
255.24308009743845
 20
538.6998352213036
 11
255.24308009743845
 21
541.1998352213036
  0
LINE
  8
_0-0_
  6
CONTINUOUS
 62
    7
 10
255.64970660343846
 20
198.19983522130363
 11
255.64970660343846
 21
194.69983522130363
  0
LINE
  8
_0-0_
  6
CONTINUOUS
 62
    7
 10
255.79970660343849
 20
674.29983522130328
 11
255.79970660343849
 21
674.1998352213036
  0
LINE
  8
_0-0_
  6
CONTINUOUS
 62
    7
 10
252.34970660343845
 20
673.19983522130315
 11
250.19970660343847
 21
585.1998352213036
  0
LINE
  8
_0-0_
  6
CONTINUOUS
 62
    7
 10
275.77623122063841
 20
571.18782868610356
 11
273.74513116503846
 21
564.42085657130315
  0
LINE
  8
_0-0_
  6
CONTINUOUS
 62
    7
 10
300.5365050386385
 20
631.0707706273032
 11
295.85968457223845
 21
615.48910905450316
  0
LINE
  8
_0-0_
  6
CONTINUOUS
 62
    7
 10
277.36417269743845
 20
497.14983522130319
 11
277.3971106970385
 21
497.17672898530361
  0
LINE
  8
_0-0_
  6
CONTINUOUS
 62
    7
 10
262.36417269743845
 20
484.64983522130319
 11
262.39711065583845
 21
484.67672895170358
  0
LINE
  8
_0-0_
  6
CONTINUOUS
 62
    7
 10
284.43524050943847
 20
497.24983522130321
 11
284.40230242143849
 21
497.22294138530322
  0
LINE
  8
_0-0_
  6
CONTINUOUS
 62
    7
 10
269.43524050943847
 20
484.74983522130321
 11
269.40230259183846
 21
484.7229415245032
  0
LINE
  8
_0-0_
  6
CONTINUOUS
 62
    7
 10
277.36417269743845
 20
484.64983522130319
 11
277.39711065583845
 21
484.67672895170358
  0
LINE
  8
_0-0_
  6
CONTINUOUS
 62
    7
 10
262.36417269743845
 20
472.14983522130359
 11
262.3971106682385
 21
472.17672896170359
  0
LINE
  8
_0-0_
  6
CONTINUOUS
 62
    7
 10
284.43524050943847
 20
484.74983522130321
 11
284.40230259183846
 21
484.7229415245032
  0
LINE
  8
_0-0_
  6
CONTINUOUS
 62
    7
 10
269.43524050943847
 20
472.24983522130321
 11
269.40230255783848
 21
472.22294149650361
  0
LINE
  8
_0-0_
  6
CONTINUOUS
 62
    7
 10
277.36417269743845
 20
472.14983522130359
 11
277.3971106682385
 21
472.17672896170359
  0
LINE
  8
_0-0_
  6
CONTINUOUS
 62
    7
 10
277.36417269743845
 20
397.24983522130321
 11
277.39711067863846
 21
397.22294147250318
  0
LINE
  8
_0-0_
  6
CONTINUOUS
 62
    7
 10
262.36417269743845
 20
409.74983522130321
 11
262.39711073943846
 21
409.7229414225036
  0
LINE
  8
_0-0_
  6
CONTINUOUS
 62
    7
 10
284.43524050943847
 20
397.14983522130359
 11
284.4023323018385
 21
397.17670466010361
  0
LINE
  8
_0-0_
  6
CONTINUOUS
 62
    7
 10
269.43524050943847
 20
409.64983522130359
 11
269.40230252823847
 21
409.67672897010317
  0
LINE
  8
_0-0_
  6
CONTINUOUS
 62
    7
 10
277.36417269743845
 20
409.74983522130321
 11
277.39711073943846
 21
409.7229414225036
  0
LINE
  8
_0-0_
  6
CONTINUOUS
 62
    7
 10
262.36417269743845
 20
422.24983522130321
 11
262.39711067863846
 21
422.22294147250318
  0
LINE
  8
_0-0_
  6
CONTINUOUS
 62
    7
 10
284.43524050943847
 20
409.64983522130359
 11
284.40230252823847
 21
409.67672897010317
  0
LINE
  8
_0-0_
  6
CONTINUOUS
 62
    7
 10
269.43524050943847
 20
422.14983522130359
 11
269.40230258663848
 21
422.17672892250357
  0
LINE
  8
_0-0_
  6
CONTINUOUS
 62
    7
 10
285.28939797103845
 20
172.69983522130363
 11
285.97095368583848
 21
152.66250906290355
  0
LINE
  8
_0-0_
  6
CONTINUOUS
 62
    7
 10
272.34099165863847
 20
553.37540771290321
 11
272.66159595183848
 21
543.9498352213036
  0
LINE
  8
_0-0_
  6
CONTINUOUS
 62
    7
 10
272.84017105103845
 20
538.6998352213036
 11
274.74455673943845
 21
482.71204676130321
  0
LINE
  8
_0-0_
  6
CONTINUOUS
 62
    7
 10
275.01708654303849
 20
474.6998352213036
 11
275.89970660343846
 21
448.75133879570319
  0
LINE
  8
_0-0_
  6
CONTINUOUS
 62
    2
 10
256.59970660343845
 20
198.19983522130363
 11
256.59970660343845
 21
193.69983522130366
  0
LINE
  8
_0-0_
  6
CONTINUOUS
 62
    7
 10
257.14970660343846
 20
193.69983522130366
 11
257.14970660343846
 21
190.69983522130363
  0
LINE
  8
_0-0_
  6
CONTINUOUS
 62
    7
 10
258.09970660343845
 20
686.56639239210335
 11
258.09970660343845
 21
705.78298540170363
  0
LINE
  8
_0-0_
  6
CONTINUOUS
 62
    7
 10
259.89970660343846
 20
228.39983522130362
 11
259.89970660343846
 21
225.39983522130362
  0
LINE
  8
_0-0_
  6
CONTINUOUS
 62
    7
 10
259.89970660343846
 20
210.19983522130363
 11
259.89970660343846
 21
209.69983522130363
  0
LINE
  8
_0-0_
  6
CONTINUOUS
 62
    7
 10
259.89970660343846
 20
562.1998352213036
 11
259.89970660343846
 21
565.19983522130315
  0
LINE
  8
_0-0_
  6
CONTINUOUS
 62
    7
 10
260.39970660343846
 20
210.39983522130362
 11
260.39970660343846
 21
210.19983522130363
  0
LINE
  8
_0-0_
  6
CONTINUOUS
 62
    7
 10
260.39970660343846
 20
580.1998352213036
 11
260.39970660343846
 21
580.77983522130364
  0
LINE
  8
_0-0_
  6
CONTINUOUS
 62
    7
 10
260.77623122063841
 20
222.39983522130362
 11
260.77623122063841
 21
213.39983522130362
  0
LINE
  8
_0-0_
  6
CONTINUOUS
 62
    7
 10
260.77623122063841
 20
568.19983522130315
 11
260.77623122063841
 21
577.19983522130315
  0
LINE
  8
_0-0_
  6
CONTINUOUS
 62
    7
 10
260.86264885463845
 20
222.39983522130362
 11
260.86264885463845
 21
213.39983522130362
  0
LINE
  8
_0-0_
  6
CONTINUOUS
 62
    7
 10
260.86264885463845
 20
568.19983522130315
 11
260.86264885463845
 21
577.19983522130315
  0
LINE
  8
_0-0_
  6
CONTINUOUS
 62
    7
 10
260.8792484570385
 20
577.19983522130315
 11
260.8792484570385
 21
568.19983522130315
  0
LINE
  8
_0-0_
  6
CONTINUOUS
 62
    7
 10
260.8792484570385
 20
222.39983522130362
 11
260.8792484570385
 21
213.39983522130362
  0
LINE
  8
_0-0_
  6
CONTINUOUS
 62
    7
 10
260.89970660343846
 20
562.1998352213036
 11
260.89970660343846
 21
553.49983522130356
  0
LINE
  8
_0-0_
  6
CONTINUOUS
 62
    7
 10
260.89970660343846
 20
553.39983522130319
 11
260.89970660343846
 21
543.9498352213036
  0
LINE
  8
_0-0_
  6
CONTINUOUS
 62
    7
 10
260.89970660343846
 20
537.1998352213036
 11
260.89970660343846
 21
528.49983522130356
  0
LINE
  8
_0-0_
  6
CONTINUOUS
 62
    7
 10
260.89970660343846
 20
528.39983522130319
 11
260.89970660343846
 21
515.99983522130321
  0
LINE
  8
_0-0_
  6
CONTINUOUS
 62
    7
 10
260.89970660343846
 20
515.89983522130319
 11
260.89970660343846
 21
503.49983522130321
  0
LINE
  8
_0-0_
  6
CONTINUOUS
 62
    7
 10
260.89970660343846
 20
503.39983522130319
 11
260.89970660343846
 21
490.99983522130321
  0
LINE
  8
_0-0_
  6
CONTINUOUS
 62
    7
 10
260.89970660343846
 20
490.89983522130319
 11
260.89970660343846
 21
478.49983522130321
  0
LINE
  8
_0-0_
  6
CONTINUOUS
 62
    7
 10
260.89970660343846
 20
478.39983522130319
 11
260.89970660343846
 21
465.99983522130321
  0
LINE
  8
_0-0_
  6
CONTINUOUS
 62
    7
 10
260.89970660343846
 20
465.89983522130359
 11
260.89970660343846
 21
453.49983522130321
  0
LINE
  8
_0-0_
  6
CONTINUOUS
 62
    7
 10
260.89970660343846
 20
453.39983522130365
 11
260.89970660343846
 21
440.99983522130321
  0
LINE
  8
_0-0_
  6
CONTINUOUS
 62
    7
 10
260.89970660343846
 20
440.89983522130359
 11
260.89970660343846
 21
428.49983522130321
  0
LINE
  8
_0-0_
  6
CONTINUOUS
 62
    7
 10
260.89970660343846
 20
428.39983522130359
 11
260.89970660343846
 21
415.99983522130321
  0
LINE
  8
_0-0_
  6
CONTINUOUS
 62
    7
 10
260.89970660343846
 20
415.89983522130359
 11
260.89970660343846
 21
403.49983522130321
  0
LINE
  8
_0-0_
  6
CONTINUOUS
 62
    7
 10
260.89970660343846
 20
403.39983522130359
 11
260.89970660343846
 21
390.99983522130321
  0
LINE
  8
_0-0_
  6
CONTINUOUS
 62
    7
 10
260.89970660343846
 20
390.89983522130359
 11
260.89970660343846
 21
380.23436456050365
  0
LINE
  8
_0-0_
  6
CONTINUOUS
 62
    7
 10
260.89970660343846
 20
285.1998352213036
 11
260.89970660343846
 21
278.49983522130367
  0
LINE
  8
_0-0_
  6
CONTINUOUS
 62
    7
 10
260.89970660343846
 20
278.39983522130365
 11
260.89970660343846
 21
265.99983522130367
  0
LINE
  8
_0-0_
  6
CONTINUOUS
 62
    7
 10
260.89970660343846
 20
265.89983522130365
 11
260.89970660343846
 21
253.49983522130364
  0
LINE
  8
_0-0_
  6
CONTINUOUS
 62
    7
 10
260.89970660343846
 20
253.39983522130362
 11
260.89970660343846
 21
240.99983522130364
  0
LINE
  8
_0-0_
  6
CONTINUOUS
 62
    7
 10
260.89970660343846
 20
240.89983522130362
 11
260.89970660343846
 21
228.49983522130364
  0
LINE
  8
_0-0_
  6
CONTINUOUS
 62
    7
 10
261.07305063783849
 20
580.1998352213036
 11
261.07305063783849
 21
580.77983522130364
  0
LINE
  8
_0-0_
  6
CONTINUOUS
 62
    7
 10
261.49970660343848
 20
687.64700255330354
 11
261.49970660343848
 21
684.43386952650371
  0
LINE
  8
_0-0_
  6
CONTINUOUS
 62
    7
 10
261.89970660343846
 20
540.4498352213036
 11
261.89970660343846
 21
538.10510839730364
  0
LINE
  8
_0-0_
  6
CONTINUOUS
 62
    7
 10
262.34970660343845
 20
686.08840554090375
 11
262.34970660343845
 21
680.6468106469033
  0
LINE
  8
_0-0_
  6
CONTINUOUS
 62
    7
 10
263.69107597943849
 20
222.39983522130362
 11
263.69107597943849
 21
213.39983522130362
  0
LINE
  8
_0-0_
  6
CONTINUOUS
 62
    7
 10
263.69107597943849
 20
568.19983522130315
 11
263.69107597943849
 21
577.19983522130315
  0
LINE
  8
_0-0_
  6
CONTINUOUS
 62
    7
 10
263.89970660343846
 20
222.39983522130362
 11
263.89970660343846
 21
213.39983522130362
  0
LINE
  8
_0-0_
  6
CONTINUOUS
 62
    7
 10
263.89970660343846
 20
568.19983522130315
 11
263.89970660343846
 21
577.19983522130315
  0
LINE
  8
_0-0_
  6
CONTINUOUS
 62
    7
 10
264.04970660343849
 20
683.02488523490319
 11
264.04970660343849
 21
682.30134666130357
  0
LINE
  8
_0-0_
  6
CONTINUOUS
 62
    7
 10
265.16335983743841
 20
208.83380981770361
 11
265.16335983743841
 21
199.06586062490362
  0
LINE
  8
_0-0_
  6
CONTINUOUS
 62
    7
 10
265.22636256903849
 20
580.1998352213036
 11
265.22636256903849
 21
580.77983522130364
  0
LINE
  8
_0-0_
  6
CONTINUOUS
 62
    7
 10
265.39970660343846
 20
624.49753316530359
 11
265.39970660343846
 21
678.99032572010333
  0
LINE
  8
_0-0_
  6
CONTINUOUS
 62
    7
 10
265.89970660343846
 20
228.49983522130364
 11
265.89970660343846
 21
228.39983522130362
  0
LINE
  8
_0-0_
  6
CONTINUOUS
 62
    7
 10
265.89970660343846
 20
240.89983522130362
 11
265.89970660343846
 21
240.99983522130364
  0
LINE
  8
_0-0_
  6
CONTINUOUS
 62
    7
 10
265.89970660343846
 20
253.39983522130362
 11
265.89970660343846
 21
253.49983522130364
  0
LINE
  8
_0-0_
  6
CONTINUOUS
 62
    7
 10
265.89970660343846
 20
265.89983522130365
 11
265.89970660343846
 21
265.99983522130367
  0
LINE
  8
_0-0_
  6
CONTINUOUS
 62
    7
 10
265.89970660343846
 20
278.39983522130365
 11
265.89970660343846
 21
278.49983522130367
  0
LINE
  8
_0-0_
  6
CONTINUOUS
 62
    7
 10
265.89970660343846
 20
390.89983522130359
 11
265.89970660343846
 21
390.99983522130321
  0
LINE
  8
_0-0_
  6
CONTINUOUS
 62
    7
 10
265.89970660343846
 20
403.39983522130359
 11
265.89970660343846
 21
403.49983522130321
  0
LINE
  8
_0-0_
  6
CONTINUOUS
 62
    7
 10
265.89970660343846
 20
415.89983522130359
 11
265.89970660343846
 21
415.99983522130321
  0
LINE
  8
_0-0_
  6
CONTINUOUS
 62
    7
 10
265.89970660343846
 20
428.39983522130359
 11
265.89970660343846
 21
428.49983522130321
  0
LINE
  8
_0-0_
  6
CONTINUOUS
 62
    7
 10
265.89970660343846
 20
440.89983522130359
 11
265.89970660343846
 21
440.99983522130321
  0
LINE
  8
_0-0_
  6
CONTINUOUS
 62
    7
 10
265.89970660343846
 20
453.39983522130365
 11
265.89970660343846
 21
453.49983522130321
  0
LINE
  8
_0-0_
  6
CONTINUOUS
 62
    7
 10
265.89970660343846
 20
465.89983522130359
 11
265.89970660343846
 21
465.99983522130321
  0
LINE
  8
_0-0_
  6
CONTINUOUS
 62
    7
 10
265.89970660343846
 20
478.39983522130319
 11
265.89970660343846
 21
478.49983522130321
  0
LINE
  8
_0-0_
  6
CONTINUOUS
 62
    7
 10
265.89970660343846
 20
490.89983522130319
 11
265.89970660343846
 21
490.99983522130321
  0
LINE
  8
_0-0_
  6
CONTINUOUS
 62
    7
 10
265.89970660343846
 20
503.39983522130319
 11
265.89970660343846
 21
503.49983522130321
  0
LINE
  8
_0-0_
  6
CONTINUOUS
 62
    7
 10
265.89970660343846
 20
515.89983522130319
 11
265.89970660343846
 21
515.99983522130321
  0
LINE
  8
_0-0_
  6
CONTINUOUS
 62
    7
 10
265.89970660343846
 20
528.39983522130319
 11
265.89970660343846
 21
528.49983522130356
  0
LINE
  8
_0-0_
  6
CONTINUOUS
 62
    7
 10
265.89970660343846
 20
553.39983522130319
 11
265.89970660343846
 21
553.49983522130356
  0
LINE
  8
_0-0_
  6
CONTINUOUS
 62
    7
 10
266.04970660343849
 20
359.72317321170362
 11
266.04970660343849
 21
351.02317321170358
  0
LINE
  8
_0-0_
  6
CONTINUOUS
 62
    7
 10
266.57305063783849
 20
580.1998352213036
 11
266.57305063783849
 21
580.77983522130364
  0
LINE
  8
_0-0_
  6
CONTINUOUS
 62
    7
 10
266.63605336943846
 20
208.83380981770361
 11
266.63605336943846
 21
199.06586062490362
  0
LINE
  8
_0-0_
  6
CONTINUOUS
 62
    7
 10
267.89970660343846
 20
222.39983522130362
 11
267.89970660343846
 21
213.39983522130362
  0
LINE
  8
_0-0_
  6
CONTINUOUS
 62
    7
 10
267.89970660343846
 20
568.19983522130315
 11
267.89970660343846
 21
577.19983522130315
  0
LINE
  8
_0-0_
  6
CONTINUOUS
 62
    7
 10
268.10833722743848
 20
222.39983522130362
 11
268.10833722743848
 21
213.39983522130362
  0
LINE
  8
_0-0_
  6
CONTINUOUS
 62
    7
 10
268.10833722743848
 20
568.19983522130315
 11
268.10833722743848
 21
577.19983522130315
  0
LINE
  8
_0-0_
  6
CONTINUOUS
 62
    7
 10
268.39970660343846
 20
713.79228939050336
 11
268.39970660343846
 21
737.2630752933037
  0
LINE
  8
_0-0_
  6
CONTINUOUS
 62
    7
 10
269.44970660343847
 20
350.22217754250357
 11
269.44970660343847
 21
349.52317321170369
  0
LINE
  8
_0-0_
  6
CONTINUOUS
 62
    7
 10
270.13605336943846
 20
208.83380981770361
 11
270.13605336943846
 21
199.06586062490362
  0
LINE
  8
_0-0_
  6
CONTINUOUS
 62
    7
 10
270.19257807263847
 20
184.63173722330362
 11
270.19257807263847
 21
173.76793321930359
  0
LINE
  8
_0-0_
  6
CONTINUOUS
 62
    7
 10
270.72636256903849
 20
580.1998352213036
 11
270.72636256903849
 21
580.77983522130364
  0
LINE
  8
_0-0_
  6
CONTINUOUS
 62
    7
 10
270.89970660343846
 20
562.1998352213036
 11
270.89970660343846
 21
553.49983522130356
  0
LINE
  8
_0-0_
  6
CONTINUOUS
 62
    7
 10
270.89970660343846
 20
553.39983522130319
 11
270.89970660343846
 21
543.9498352213036
  0
LINE
  8
_0-0_
  6
CONTINUOUS
 62
    7
 10
270.89970660343846
 20
540.4498352213036
 11
270.89970660343846
 21
528.49983522130356
  0
LINE
  8
_0-0_
  6
CONTINUOUS
 62
    7
 10
270.89970660343846
 20
528.39983522130319
 11
270.89970660343846
 21
515.99983522130321
  0
LINE
  8
_0-0_
  6
CONTINUOUS
 62
    7
 10
270.89970660343846
 20
515.89983522130319
 11
270.89970660343846
 21
503.49983522130321
  0
LINE
  8
_0-0_
  6
CONTINUOUS
 62
    7
 10
270.89970660343846
 20
503.39983522130319
 11
270.89970660343846
 21
490.99983522130321
  0
LINE
  8
_0-0_
  6
CONTINUOUS
 62
    7
 10
270.89970660343846
 20
490.89983522130319
 11
270.89970660343846
 21
478.49983522130321
  0
LINE
  8
_0-0_
  6
CONTINUOUS
 62
    7
 10
270.89970660343846
 20
478.39983522130319
 11
270.89970660343846
 21
465.99983522130321
  0
LINE
  8
_0-0_
  6
CONTINUOUS
 62
    7
 10
270.89970660343846
 20
465.89983522130359
 11
270.89970660343846
 21
453.49983522130321
  0
LINE
  8
_0-0_
  6
CONTINUOUS
 62
    7
 10
270.89970660343846
 20
453.39983522130365
 11
270.89970660343846
 21
440.99983522130321
  0
LINE
  8
_0-0_
  6
CONTINUOUS
 62
    7
 10
270.89970660343846
 20
440.89983522130359
 11
270.89970660343846
 21
428.49983522130321
  0
LINE
  8
_0-0_
  6
CONTINUOUS
 62
    7
 10
270.89970660343846
 20
428.39983522130359
 11
270.89970660343846
 21
415.99983522130321
  0
LINE
  8
_0-0_
  6
CONTINUOUS
 62
    7
 10
270.89970660343846
 20
415.89983522130359
 11
270.89970660343846
 21
403.49983522130321
  0
LINE
  8
_0-0_
  6
CONTINUOUS
 62
    7
 10
270.89970660343846
 20
403.39983522130359
 11
270.89970660343846
 21
390.99983522130321
  0
LINE
  8
_0-0_
  6
CONTINUOUS
 62
    7
 10
270.89970660343846
 20
390.89983522130359
 11
270.89970660343846
 21
381.18205052930364
  0
LINE
  8
_0-0_
  6
CONTINUOUS
 62
    7
 10
270.89970660343846
 20
285.1998352213036
 11
270.89970660343846
 21
278.49983522130367
  0
LINE
  8
_0-0_
  6
CONTINUOUS
 62
    7
 10
270.89970660343846
 20
278.39983522130365
 11
270.89970660343846
 21
265.99983522130367
  0
LINE
  8
_0-0_
  6
CONTINUOUS
 62
    7
 10
270.89970660343846
 20
265.89983522130365
 11
270.89970660343846
 21
253.49983522130364
  0
LINE
  8
_0-0_
  6
CONTINUOUS
 62
    7
 10
270.89970660343846
 20
253.39983522130362
 11
270.89970660343846
 21
240.99983522130364
  0
LINE
  8
_0-0_
  6
CONTINUOUS
 62
    7
 10
270.89970660343846
 20
240.89983522130362
 11
270.89970660343846
 21
228.49983522130364
  0
LINE
  8
_0-0_
  6
CONTINUOUS
 62
    7
 10
270.92016474983848
 20
213.39983522130362
 11
270.92016474983848
 21
222.39983522130362
  0
LINE
  8
_0-0_
  6
CONTINUOUS
 62
    7
 10
270.92016474983848
 20
568.19983522130315
 11
270.92016474983848
 21
577.19983522130315
  0
LINE
  8
_0-0_
  6
CONTINUOUS
 62
    7
 10
270.93676435223847
 20
222.39983522130362
 11
270.93676435223847
 21
213.39983522130362
  0
LINE
  8
_0-0_
  6
CONTINUOUS
 62
    7
 10
270.93676435223847
 20
568.19983522130315
 11
270.93676435223847
 21
577.19983522130315
  0
LINE
  8
_0-0_
  6
CONTINUOUS
 62
    7
 10
271.02318198623846
 20
222.39983522130362
 11
271.02318198623846
 21
213.39983522130362
  0
LINE
  8
_0-0_
  6
CONTINUOUS
 62
    7
 10
271.02318198623846
 20
568.19983522130315
 11
271.02318198623846
 21
577.19983522130315
  0
LINE
  8
_0-0_
  6
CONTINUOUS
 62
    7
 10
271.24970660343848
 20
668.32662992330324
 11
271.24970660343848
 21
669.16349296810358
  0
LINE
  8
_0-0_
  6
CONTINUOUS
 62
    7
 10
271.39970660343846
 20
210.39983522130362
 11
271.39970660343846
 21
210.19983522130363
  0
LINE
  8
_0-0_
  6
CONTINUOUS
 62
    7
 10
271.39970660343846
 20
580.1998352213036
 11
271.39970660343846
 21
580.77983522130364
  0
LINE
  8
_0-0_
  6
CONTINUOUS
 62
    7
 10
271.89970660343846
 20
228.39983522130362
 11
271.89970660343846
 21
225.39983522130362
  0
LINE
  8
_0-0_
  6
CONTINUOUS
 62
    7
 10
271.89970660343846
 20
210.19983522130363
 11
271.89970660343846
 21
209.69983522130363
  0
LINE
  8
_0-0_
  6
CONTINUOUS
 62
    7
 10
271.89970660343846
 20
562.1998352213036
 11
271.89970660343846
 21
565.19983522130315
  0
LINE
  8
_0-0_
  6
CONTINUOUS
 62
    7
 10
272.54626557063841
 20
474.6998352213036
 11
272.54626557063841
 21
482.6998352213036
  0
LINE
  8
_0-0_
  6
CONTINUOUS
 62
    7
 10
272.60873895863847
 20
361.22317321170362
 11
272.60873895863847
 21
350.72217754250357
  0
LINE
  8
_0-0_
  6
CONTINUOUS
 62
    2
 10
272.99970660343848
 20
580.77983522130364
 11
272.99970660343848
 21
561.42467767650362
  0
LINE
  8
_0-0_
  6
CONTINUOUS
 62
    7
 10
273.39970660343846
 20
580.77983522130364
 11
273.39970660343846
 21
563.17129251050324
  0
LINE
  8
_0-0_
  6
CONTINUOUS
 62
    7
 10
274.34970660343845
 20
483.1998352213036
 11
274.34970660343845
 21
494.32040216050359
  0
LINE
  8
_0-0_
  6
CONTINUOUS
 62
    7
 10
274.89970660343846
 20
228.39983522130362
 11
274.89970660343846
 21
225.39983522130362
  0
LINE
  8
_0-0_
  6
CONTINUOUS
 62
    7
 10
274.89970660343846
 20
210.19983522130363
 11
274.89970660343846
 21
209.69983522130363
  0
LINE
  8
_0-0_
  6
CONTINUOUS
 62
    7
 10
274.89970660343846
 20
562.1998352213036
 11
274.89970660343846
 21
565.19983522130315
  0
LINE
  8
_0-0_
  6
CONTINUOUS
 62
    7
 10
275.39970660343846
 20
210.39983522130362
 11
275.39970660343846
 21
210.19983522130363
  0
LINE
  8
_0-0_
  6
CONTINUOUS
 62
    7
 10
275.39970660343846
 20
580.1998352213036
 11
275.39970660343846
 21
580.77983522130364
  0
LINE
  8
_0-0_
  6
CONTINUOUS
 62
    7
 10
275.54970660343849
 20
668.32662992330324
 11
275.54970660343849
 21
669.16349296810358
  0
LINE
  8
_0-0_
  6
CONTINUOUS
 62
    7
 10
275.77623122063841
 20
222.39983522130362
 11
275.77623122063841
 21
213.39983522130362
  0
LINE
  8
_0-0_
  6
CONTINUOUS
 62
    7
 10
275.77623122063841
 20
568.19983522130315
 11
275.77623122063841
 21
577.19983522130315
  0
LINE
  8
_0-0_
  6
CONTINUOUS
 62
    7
 10
275.86264885463845
 20
222.39983522130362
 11
275.86264885463845
 21
213.39983522130362
  0
LINE
  8
_0-0_
  6
CONTINUOUS
 62
    7
 10
275.86264885463845
 20
568.19983522130315
 11
275.86264885463845
 21
577.19983522130315
  0
LINE
  8
_0-0_
  6
CONTINUOUS
 62
    7
 10
275.8792484570385
 20
577.19983522130315
 11
275.8792484570385
 21
568.19983522130315
  0
LINE
  8
_0-0_
  6
CONTINUOUS
 62
    7
 10
275.8792484570385
 20
222.39983522130362
 11
275.8792484570385
 21
213.39983522130362
  0
LINE
  8
_0-0_
  6
CONTINUOUS
 62
    7
 10
275.89970660343846
 20
562.1998352213036
 11
275.89970660343846
 21
553.49983522130356
  0
LINE
  8
_0-0_
  6
CONTINUOUS
 62
    7
 10
275.89970660343846
 20
553.39983522130319
 11
275.89970660343846
 21
543.9498352213036
  0
LINE
  8
_0-0_
  6
CONTINUOUS
 62
    7
 10
275.89970660343846
 20
540.4498352213036
 11
275.89970660343846
 21
528.49983522130356
  0
LINE
  8
_0-0_
  6
CONTINUOUS
 62
    7
 10
275.89970660343846
 20
528.39983522130319
 11
275.89970660343846
 21
515.99983522130321
  0
LINE
  8
_0-0_
  6
CONTINUOUS
 62
    7
 10
275.89970660343846
 20
515.89983522130319
 11
275.89970660343846
 21
503.49983522130321
  0
LINE
  8
_0-0_
  6
CONTINUOUS
 62
    7
 10
275.89970660343846
 20
503.39983522130319
 11
275.89970660343846
 21
490.99983522130321
  0
LINE
  8
_0-0_
  6
CONTINUOUS
 62
    7
 10
275.89970660343846
 20
490.89983522130319
 11
275.89970660343846
 21
478.49983522130321
  0
LINE
  8
_0-0_
  6
CONTINUOUS
 62
    7
 10
275.89970660343846
 20
478.39983522130319
 11
275.89970660343846
 21
465.99983522130321
  0
LINE
  8
_0-0_
  6
CONTINUOUS
 62
    7
 10
275.89970660343846
 20
465.89983522130359
 11
275.89970660343846
 21
453.49983522130321
  0
LINE
  8
_0-0_
  6
CONTINUOUS
 62
    7
 10
275.89970660343846
 20
453.39983522130365
 11
275.89970660343846
 21
440.99983522130321
  0
LINE
  8
_0-0_
  6
CONTINUOUS
 62
    7
 10
275.89970660343846
 20
440.89983522130359
 11
275.89970660343846
 21
428.49983522130321
  0
LINE
  8
_0-0_
  6
CONTINUOUS
 62
    7
 10
275.89970660343846
 20
428.39983522130359
 11
275.89970660343846
 21
415.99983522130321
  0
LINE
  8
_0-0_
  6
CONTINUOUS
 62
    7
 10
275.89970660343846
 20
415.89983522130359
 11
275.89970660343846
 21
403.49983522130321
  0
LINE
  8
_0-0_
  6
CONTINUOUS
 62
    7
 10
275.89970660343846
 20
403.39983522130359
 11
275.89970660343846
 21
390.99983522130321
  0
LINE
  8
_0-0_
  6
CONTINUOUS
 62
    7
 10
275.89970660343846
 20
390.89983522130359
 11
275.89970660343846
 21
381.18205052930364
  0
LINE
  8
_0-0_
  6
CONTINUOUS
 62
    7
 10
275.89970660343846
 20
285.1998352213036
 11
275.89970660343846
 21
278.49983522130367
  0
LINE
  8
_0-0_
  6
CONTINUOUS
 62
    7
 10
275.89970660343846
 20
278.39983522130365
 11
275.89970660343846
 21
265.99983522130367
  0
LINE
  8
_0-0_
  6
CONTINUOUS
 62
    7
 10
275.89970660343846
 20
265.89983522130365
 11
275.89970660343846
 21
253.49983522130364
  0
LINE
  8
_0-0_
  6
CONTINUOUS
 62
    7
 10
275.89970660343846
 20
253.39983522130362
 11
275.89970660343846
 21
240.99983522130364
  0
LINE
  8
_0-0_
  6
CONTINUOUS
 62
    7
 10
275.89970660343846
 20
240.89983522130362
 11
275.89970660343846
 21
228.49983522130364
  0
LINE
  8
_0-0_
  6
CONTINUOUS
 62
    7
 10
262.36417269743845
 20
459.64983522130365
 11
262.39711062903848
 21
459.6767289301032
  0
LINE
  8
_0-0_
  6
CONTINUOUS
 62
    7
 10
284.43524050943847
 20
472.24983522130321
 11
284.40230255783848
 21
472.22294149650361
  0
LINE
  8
_0-0_
  6
CONTINUOUS
 62
    7
 10
269.43524050943847
 20
459.74983522130321
 11
269.40230251943848
 21
459.72294146530317
  0
LINE
  8
_0-0_
  6
CONTINUOUS
 62
    7
 10
277.36417269743845
 20
459.64983522130365
 11
277.39711062903848
 21
459.6767289301032
  0
LINE
  8
_0-0_
  6
CONTINUOUS
 62
    7
 10
262.36417269743845
 20
447.14983522130359
 11
262.39711073463849
 21
447.1767290161032
  0
LINE
  8
_0-0_
  6
CONTINUOUS
 62
    7
 10
284.43524050943847
 20
459.74983522130321
 11
284.40230251943848
 21
459.72294146530317
  0
LINE
  8
_0-0_
  6
CONTINUOUS
 62
    7
 10
269.43524050943847
 20
447.24983522130321
 11
269.40230244063849
 21
447.22294140090321
  0
LINE
  8
_0-0_
  6
CONTINUOUS
 62
    7
 10
277.36417269743845
 20
447.14983522130359
 11
277.39711073463849
 21
447.1767290161032
  0
LINE
  8
_0-0_
  6
CONTINUOUS
 62
    7
 10
262.36417269743845
 20
434.64983522130359
 11
262.39711065823849
 21
434.67672895370362
  0
LINE
  8
_0-0_
  6
CONTINUOUS
 62
    7
 10
277.36417269743845
 20
422.24983522130321
 11
277.39711067863846
 21
422.22294147250318
  0
LINE
  8
_0-0_
  6
CONTINUOUS
 62
    7
 10
262.36417269743845
 20
434.74983522130321
 11
262.39711067863846
 21
434.72294147210357
  0
LINE
  8
_0-0_
  6
CONTINUOUS
 62
    7
 10
284.43524050943847
 20
422.14983522130359
 11
284.40230258663848
 21
422.17672892250357
  0
LINE
  8
_0-0_
  6
CONTINUOUS
 62
    7
 10
269.43524050943847
 20
434.64983522130359
 11
269.40230252823847
 21
434.67672897010317
  0
LINE
  8
_0-0_
  6
CONTINUOUS
 62
    7
 10
277.36417269743845
 20
434.74983522130321
 11
277.39711067863846
 21
434.72294147210357
  0
LINE
  8
_0-0_
  6
CONTINUOUS
 62
    7
 10
262.36417269743845
 20
447.24983522130321
 11
262.39711067863846
 21
447.22294147250318
  0
LINE
  8
_0-0_
  6
CONTINUOUS
 62
    7
 10
284.43524050943847
 20
434.64983522130359
 11
284.40230252823847
 21
434.67672897010317
  0
LINE
  8
_0-0_
  6
CONTINUOUS
 62
    7
 10
269.43524050943847
 20
447.14983522130359
 11
269.40230252823847
 21
447.17672897010317
  0
LINE
  8
_0-0_
  6
CONTINUOUS
 62
    7
 10
286.4656803038385
 20
285.1998352213036
 11
289.03376029863847
 21
209.69983522130363
  0
LINE
  8
_0-0_
  6
CONTINUOUS
 62
    7
 10
289.6578952830385
 20
191.35064383250361
 11
289.68003208503848
 21
190.69983522130363
  0
LINE
  8
_0-0_
  6
CONTINUOUS
 62
    7
 10
290.2922895674385
 20
172.69983522130363
 11
290.96806376103848
 21
152.8324822869036
  0
LINE
  8
_0-0_
  6
CONTINUOUS
 62
    7
 10
276.07305063783849
 20
580.1998352213036
 11
276.07305063783849
 21
580.77983522130364
  0
LINE
  8
_0-0_
  6
CONTINUOUS
 62
    7
 10
276.66335983743846
 20
208.83380981770361
 11
276.66335983743846
 21
199.06586062490362
  0
LINE
  8
_0-0_
  6
CONTINUOUS
 62
    7
 10
276.89970660343846
 20
540.4498352213036
 11
276.89970660343846
 21
538.10510609610355
  0
LINE
  8
_0-0_
  6
CONTINUOUS
 62
    7
 10
277.14670540263847
 20
361.22317321170362
 11
277.14670540263847
 21
350.72217754250357
  0
LINE
  8
_0-0_
  6
CONTINUOUS
 62
    7
 10
277.34970660343845
 20
350.22217754250357
 11
277.34970660343845
 21
349.52317321170369
  0
LINE
  8
_0-0_
  6
CONTINUOUS
 62
    7
 10
278.39970660343846
 20
713.79228939050336
 11
278.39970660343846
 21
737.2630752933037
  0
LINE
  8
_0-0_
  6
CONTINUOUS
 62
    7
 10
278.69107597943849
 20
222.39983522130362
 11
278.69107597943849
 21
213.39983522130362
  0
LINE
  8
_0-0_
  6
CONTINUOUS
 62
    7
 10
278.69107597943849
 20
568.19983522130315
 11
278.69107597943849
 21
577.19983522130315
  0
LINE
  8
_0-0_
  6
CONTINUOUS
 62
    7
 10
278.89970660343846
 20
222.39983522130362
 11
278.89970660343846
 21
213.39983522130362
  0
LINE
  8
_0-0_
  6
CONTINUOUS
 62
    7
 10
278.89970660343846
 20
568.19983522130315
 11
278.89970660343846
 21
577.19983522130315
  0
LINE
  8
_0-0_
  6
CONTINUOUS
 62
    7
 10
280.12321249343847
 20
184.63173722330362
 11
280.12321249343847
 21
173.76793321930359
  0
LINE
  8
_0-0_
  6
CONTINUOUS
 62
    7
 10
280.16335983743841
 20
208.83380981770361
 11
280.16335983743841
 21
199.06586062490362
  0
LINE
  8
_0-0_
  6
CONTINUOUS
 62
    7
 10
280.22636256903849
 20
580.1998352213036
 11
280.22636256903849
 21
580.77983522130364
  0
LINE
  8
_0-0_
  6
CONTINUOUS
 62
    7
 10
280.74970660343848
 20
359.72317321170362
 11
280.74970660343848
 21
351.02317321170358
  0
LINE
  8
_0-0_
  6
CONTINUOUS
 62
    7
 10
280.89970660343846
 20
228.49983522130364
 11
280.89970660343846
 21
228.39983522130362
  0
LINE
  8
_0-0_
  6
CONTINUOUS
 62
    7
 10
280.89970660343846
 20
240.89983522130362
 11
280.89970660343846
 21
240.99983522130364
  0
LINE
  8
_0-0_
  6
CONTINUOUS
 62
    7
 10
280.89970660343846
 20
253.39983522130362
 11
280.89970660343846
 21
253.49983522130364
  0
LINE
  8
_0-0_
  6
CONTINUOUS
 62
    7
 10
280.89970660343846
 20
265.89983522130365
 11
280.89970660343846
 21
265.99983522130367
  0
LINE
  8
_0-0_
  6
CONTINUOUS
 62
    7
 10
280.89970660343846
 20
278.39983522130365
 11
280.89970660343846
 21
278.49983522130367
  0
LINE
  8
_0-0_
  6
CONTINUOUS
 62
    7
 10
280.89970660343846
 20
390.89983522130359
 11
280.89970660343846
 21
390.99983522130321
  0
LINE
  8
_0-0_
  6
CONTINUOUS
 62
    7
 10
280.89970660343846
 20
403.39983522130359
 11
280.89970660343846
 21
403.49983522130321
  0
LINE
  8
_0-0_
  6
CONTINUOUS
 62
    7
 10
280.89970660343846
 20
415.89983522130359
 11
280.89970660343846
 21
415.99983522130321
  0
LINE
  8
_0-0_
  6
CONTINUOUS
 62
    7
 10
280.89970660343846
 20
428.39983522130359
 11
280.89970660343846
 21
428.49983522130321
  0
LINE
  8
_0-0_
  6
CONTINUOUS
 62
    7
 10
280.89970660343846
 20
440.89983522130359
 11
280.89970660343846
 21
440.99983522130321
  0
LINE
  8
_0-0_
  6
CONTINUOUS
 62
    7
 10
280.89970660343846
 20
453.39983522130365
 11
280.89970660343846
 21
453.49983522130321
  0
LINE
  8
_0-0_
  6
CONTINUOUS
 62
    7
 10
280.89970660343846
 20
465.89983522130359
 11
280.89970660343846
 21
465.99983522130321
  0
LINE
  8
_0-0_
  6
CONTINUOUS
 62
    7
 10
280.89970660343846
 20
478.39983522130319
 11
280.89970660343846
 21
478.49983522130321
  0
LINE
  8
_0-0_
  6
CONTINUOUS
 62
    7
 10
280.89970660343846
 20
490.89983522130319
 11
280.89970660343846
 21
490.99983522130321
  0
LINE
  8
_0-0_
  6
CONTINUOUS
 62
    7
 10
280.89970660343846
 20
503.39983522130319
 11
280.89970660343846
 21
503.49983522130321
  0
LINE
  8
_0-0_
  6
CONTINUOUS
 62
    7
 10
280.89970660343846
 20
515.89983522130319
 11
280.89970660343846
 21
515.99983522130321
  0
LINE
  8
_0-0_
  6
CONTINUOUS
 62
    7
 10
280.89970660343846
 20
528.39983522130319
 11
280.89970660343846
 21
528.49983522130356
  0
LINE
  8
_0-0_
  6
CONTINUOUS
 62
    7
 10
280.89970660343846
 20
553.39983522130319
 11
280.89970660343846
 21
553.49983522130356
  0
LINE
  8
_0-0_
  6
CONTINUOUS
 62
    7
 10
281.39970660343846
 20
624.49754688530356
 11
281.39970660343846
 21
678.99032572010333
  0
LINE
  8
_0-0_
  6
CONTINUOUS
 62
    7
 10
281.57305063783849
 20
580.1998352213036
 11
281.57305063783849
 21
580.77983522130364
  0
LINE
  8
_0-0_
  6
CONTINUOUS
 62
    7
 10
281.63605336943846
 20
208.83380981770361
 11
281.63605336943846
 21
199.06586062490362
  0
LINE
  8
_0-0_
  6
CONTINUOUS
 62
    7
 10
281.69257807263847
 20
184.63173722330362
 11
281.69257807263847
 21
173.76793321930359
  0
LINE
  8
_0-0_
  6
CONTINUOUS
 62
    7
 10
282.74970660343848
 20
683.02488523490319
 11
282.74970660343848
 21
682.30134666130357
  0
LINE
  8
_0-0_
  6
CONTINUOUS
 62
    7
 10
282.89970660343846
 20
222.39983522130362
 11
282.89970660343846
 21
213.39983522130362
  0
LINE
  8
_0-0_
  6
CONTINUOUS
 62
    7
 10
282.89970660343846
 20
568.19983522130315
 11
282.89970660343846
 21
577.19983522130315
  0
LINE
  8
_0-0_
  6
CONTINUOUS
 62
    7
 10
283.10833722743848
 20
222.39983522130362
 11
283.10833722743848
 21
213.39983522130362
  0
LINE
  8
_0-0_
  6
CONTINUOUS
 62
    7
 10
283.10833722743848
 20
568.19983522130315
 11
283.10833722743848
 21
577.19983522130315
  0
LINE
  8
_0-0_
  6
CONTINUOUS
 62
    9
 10
283.55633310943841
 20
538.6998352213036
 11
283.55633310943841
 21
541.1998352213036
  0
LINE
  8
_0-0_
  6
CONTINUOUS
 62
    7
 10
284.44970660343847
 20
680.6468106469033
 11
284.44970660343847
 21
686.08840554090375
  0
LINE
  8
_0-0_
  6
CONTINUOUS
 62
    7
 10
285.29970660343849
 20
687.64700255330354
 11
285.29970660343849
 21
684.43386952650371
  0
LINE
  8
_0-0_
  6
CONTINUOUS
 62
    7
 10
285.72636256903849
 20
580.1998352213036
 11
285.72636256903849
 21
580.77983522130364
  0
LINE
  8
_0-0_
  6
CONTINUOUS
 62
    7
 10
285.89970660343846
 20
562.1998352213036
 11
285.89970660343846
 21
553.49983522130356
  0
LINE
  8
_0-0_
  6
CONTINUOUS
 62
    7
 10
285.89970660343846
 20
553.39983522130319
 11
285.89970660343846
 21
543.9498352213036
  0
LINE
  8
_0-0_
  6
CONTINUOUS
 62
    7
 10
285.89970660343846
 20
537.1998352213036
 11
285.89970660343846
 21
528.49983522130356
  0
LINE
  8
_0-0_
  6
CONTINUOUS
 62
    7
 10
285.89970660343846
 20
528.39983522130319
 11
285.89970660343846
 21
515.99983522130321
  0
LINE
  8
_0-0_
  6
CONTINUOUS
 62
    7
 10
285.89970660343846
 20
515.89983522130319
 11
285.89970660343846
 21
503.49983522130321
  0
LINE
  8
_0-0_
  6
CONTINUOUS
 62
    7
 10
285.89970660343846
 20
503.39983522130319
 11
285.89970660343846
 21
490.99983522130321
  0
LINE
  8
_0-0_
  6
CONTINUOUS
 62
    7
 10
285.89970660343846
 20
490.89983522130319
 11
285.89970660343846
 21
478.49983522130321
  0
LINE
  8
_0-0_
  6
CONTINUOUS
 62
    7
 10
285.89970660343846
 20
478.39983522130319
 11
285.89970660343846
 21
465.99983522130321
  0
LINE
  8
_0-0_
  6
CONTINUOUS
 62
    7
 10
285.89970660343846
 20
465.89983522130359
 11
285.89970660343846
 21
453.49983522130321
  0
LINE
  8
_0-0_
  6
CONTINUOUS
 62
    7
 10
285.89970660343846
 20
453.39983522130365
 11
285.89970660343846
 21
440.99983522130321
  0
LINE
  8
_0-0_
  6
CONTINUOUS
 62
    7
 10
285.89970660343846
 20
440.89983522130359
 11
285.89970660343846
 21
428.49983522130321
  0
LINE
  8
_0-0_
  6
CONTINUOUS
 62
    7
 10
285.89970660343846
 20
428.39983522130359
 11
285.89970660343846
 21
415.99983522130321
  0
LINE
  8
_0-0_
  6
CONTINUOUS
 62
    7
 10
285.89970660343846
 20
415.89983522130359
 11
285.89970660343846
 21
403.49983522130321
  0
LINE
  8
_0-0_
  6
CONTINUOUS
 62
    7
 10
285.89970660343846
 20
403.39983522130359
 11
285.89970660343846
 21
390.99983522130321
  0
LINE
  8
_0-0_
  6
CONTINUOUS
 62
    7
 10
285.89970660343846
 20
390.89983522130359
 11
285.89970660343846
 21
380.23436456050365
  0
LINE
  8
_0-0_
  6
CONTINUOUS
 62
    7
 10
285.89970660343846
 20
285.1998352213036
 11
285.89970660343846
 21
278.49983522130367
  0
LINE
  8
_0-0_
  6
CONTINUOUS
 62
    7
 10
285.89970660343846
 20
278.39983522130365
 11
285.89970660343846
 21
265.99983522130367
  0
LINE
  8
_0-0_
  6
CONTINUOUS
 62
    7
 10
285.89970660343846
 20
265.89983522130365
 11
285.89970660343846
 21
253.49983522130364
  0
LINE
  8
_0-0_
  6
CONTINUOUS
 62
    7
 10
285.89970660343846
 20
253.39983522130362
 11
285.89970660343846
 21
240.99983522130364
  0
LINE
  8
_0-0_
  6
CONTINUOUS
 62
    7
 10
285.89970660343846
 20
240.89983522130362
 11
285.89970660343846
 21
228.49983522130364
  0
LINE
  8
_0-0_
  6
CONTINUOUS
 62
    7
 10
285.92016474983848
 20
213.39983522130362
 11
285.92016474983848
 21
222.39983522130362
  0
LINE
  8
_0-0_
  6
CONTINUOUS
 62
    7
 10
285.92016474983848
 20
568.19983522130315
 11
285.92016474983848
 21
577.19983522130315
  0
LINE
  8
_0-0_
  6
CONTINUOUS
 62
    7
 10
285.93676435223847
 20
222.39983522130362
 11
285.93676435223847
 21
213.39983522130362
  0
LINE
  8
_0-0_
  6
CONTINUOUS
 62
    7
 10
285.93676435223847
 20
568.19983522130315
 11
285.93676435223847
 21
577.19983522130315
  0
LINE
  8
_0-0_
  6
CONTINUOUS
 62
    7
 10
286.02318198623846
 20
222.39983522130362
 11
286.02318198623846
 21
213.39983522130362
  0
LINE
  8
_0-0_
  6
CONTINUOUS
 62
    7
 10
286.02318198623846
 20
568.19983522130315
 11
286.02318198623846
 21
577.19983522130315
  0
LINE
  8
_0-0_
  6
CONTINUOUS
 62
    7
 10
286.39970660343846
 20
210.39983522130362
 11
286.39970660343846
 21
210.19983522130363
  0
LINE
  8
_0-0_
  6
CONTINUOUS
 62
    7
 10
286.39970660343846
 20
580.1998352213036
 11
286.39970660343846
 21
580.77983522130364
  0
LINE
  8
_0-0_
  6
CONTINUOUS
 62
    7
 10
286.89970660343846
 20
228.39983522130362
 11
286.89970660343846
 21
225.39983522130362
  0
LINE
  8
_0-0_
  6
CONTINUOUS
 62
    7
 10
286.89970660343846
 20
210.19983522130363
 11
286.89970660343846
 21
209.69983522130363
  0
LINE
  8
_0-0_
  6
CONTINUOUS
 62
    7
 10
286.89970660343846
 20
562.1998352213036
 11
286.89970660343846
 21
565.19983522130315
  0
LINE
  8
_0-0_
  6
CONTINUOUS
 62
    7
 10
288.69970660343847
 20
686.56639239210335
 11
288.69970660343847
 21
705.78298540170363
  0
LINE
  8
_0-0_
  6
CONTINUOUS
 62
    7
 10
289.6578952830385
 20
193.69983522130366
 11
289.6578952830385
 21
190.69983522130363
  0
LINE
  8
_0-0_
  6
CONTINUOUS
 62
    2
 10
290.20789528303845
 20
198.19983522130363
 11
290.20789528303845
 21
193.69983522130366
  0
LINE
  8
_0-0_
  6
CONTINUOUS
 62
    7
 10
290.99970660343848
 20
674.29983522130328
 11
290.99970660343848
 21
674.1998352213036
  0
LINE
  8
_0-0_
  6
CONTINUOUS
 62
    7
 10
291.1578952830385
 20
198.19983522130363
 11
291.1578952830385
 21
194.69983522130363
  0
LINE
  8
_0-0_
  6
CONTINUOUS
 62
    7
 10
291.62321249343847
 20
184.63173722330362
 11
291.62321249343847
 21
173.76793321930359
  0
LINE
  8
_0-0_
  6
CONTINUOUS
 62
    7
 10
291.66335983743846
 20
208.83380981770361
 11
291.66335983743846
 21
199.06586062490362
  0
LINE
  8
_0-0_
  6
CONTINUOUS
 62
    7
 10
291.89261064783847
 20
359.72317321170362
 11
291.89261064783847
 21
351.02317321170358
  0
LINE
  8
_0-0_
  6
CONTINUOUS
 62
    7
 10
291.9078952830385
 20
190.39983522130362
 11
291.9078952830385
 21
185.69983522130363
  0
LINE
  8
_0-0_
  6
CONTINUOUS
 62
    7
 10
292.39970660343846
 20
198.27200400490361
 11
292.39970660343846
 21
209.62766643770362
  0
LINE
  8
_0-0_
  6
CONTINUOUS
 62
    7
 10
292.4078952830385
 20
172.98851610610362
 11
292.4078952830385
 21
185.41115433650361
  0
LINE
  8
_0-0_
  6
CONTINUOUS
 62
    7
 10
293.29970660343849
 20
368.72317321170317
 11
293.29970660343849
 21
361.22317321170362
  0
LINE
  8
_0-0_
  6
CONTINUOUS
 62
    7
 10
293.29970660343849
 20
349.52317321170369
 11
293.29970660343849
 21
345.24983522130367
  0
LINE
  8
_0-0_
  6
CONTINUOUS
 62
    7
 10
294.29970660343849
 20
673.19983522130315
 11
294.29970660343849
 21
674.1998352213036
  0
LINE
  8
_0-0_
  6
CONTINUOUS
 62
    7
 10
294.39970660343846
 20
702.92314229690373
 11
294.39970660343846
 21
674.89983522130319
  0
LINE
  8
_0-0_
  6
CONTINUOUS
 62
    7
 10
294.39970660343846
 20
538.6998352213036
 11
294.39970660343846
 21
541.1998352213036
  0
LINE
  8
_0-0_
  6
CONTINUOUS
 62
    7
 10
295.49970660343848
 20
329.89983522130359
 11
295.49970660343848
 21
297.09983522130358
  0
LINE
  8
_0-0_
  6
CONTINUOUS
 62
    7
 10
295.49970660343848
 20
294.2396926041036
 11
295.49970660343848
 21
294.13969260410357
  0
LINE
  8
_0-0_
  6
CONTINUOUS
 62
    7
 10
295.49970660343848
 20
292.23969260410354
 11
295.49970660343848
 21
292.13969260410357
  0
LINE
  8
_0-0_
  6
CONTINUOUS
 62
    7
 10
295.49970660343848
 20
290.23969260410365
 11
295.49970660343848
 21
290.13969260410363
  0
LINE
  8
_0-0_
  6
CONTINUOUS
 62
    7
 10
295.49970660343848
 20
288.23969260410365
 11
295.49970660343848
 21
288.13969260410363
  0
LINE
  8
_0-0_
  6
CONTINUOUS
 62
    7
 10
295.49970660343848
 20
286.23969260410365
 11
295.49970660343848
 21
286.1998352213036
  0
LINE
  8
_0-0_
  6
CONTINUOUS
 62
    7
 10
284.43524050943847
 20
447.24983522130321
 11
284.40230244063849
 21
447.22294140090321
  0
LINE
  8
_0-0_
  6
CONTINUOUS
 62
    7
 10
269.43524050943847
 20
434.74983522130321
 11
269.40230258983848
 21
434.72294152250316
  0
LINE
  8
_0-0_
  6
CONTINUOUS
 62
    7
 10
277.36417269743845
 20
434.64983522130359
 11
277.39711065823849
 21
434.67672895370362
  0
LINE
  8
_0-0_
  6
CONTINUOUS
 62
    7
 10
262.36417269743845
 20
422.14983522130359
 11
262.39711064343845
 21
422.17672894170357
  0
LINE
  8
_0-0_
  6
CONTINUOUS
 62
    7
 10
284.43524050943847
 20
434.74983522130321
 11
284.40230258983848
 21
434.72294152250316
  0
LINE
  8
_0-0_
  6
CONTINUOUS
 62
    7
 10
269.43524050943847
 20
422.24983522130321
 11
269.4023024982385
 21
422.2229414481036
  0
LINE
  8
_0-0_
  6
CONTINUOUS
 62
    7
 10
277.36417269743845
 20
422.14983522130359
 11
277.39711064343845
 21
422.17672894170357
  0
LINE
  8
_0-0_
  6
CONTINUOUS
 62
    7
 10
262.36417269743845
 20
409.64983522130359
 11
262.39711063903849
 21
409.67672893810317
  0
LINE
  8
_0-0_
  6
CONTINUOUS
 62
    7
 10
277.36417269743845
 20
447.24983522130321
 11
277.39711067863846
 21
447.22294147250318
  0
LINE
  8
_0-0_
  6
CONTINUOUS
 62
    7
 10
262.36417269743845
 20
459.74983522130321
 11
262.39711075023848
 21
459.72294141370367
  0
LINE
  8
_0-0_
  6
CONTINUOUS
 62
    7
 10
284.43524050943847
 20
447.14983522130359
 11
284.40230252823847
 21
447.17672897010317
  0
LINE
  8
_0-0_
  6
CONTINUOUS
 62
    7
 10
269.43524050943847
 20
459.64983522130365
 11
269.40230252823847
 21
459.67672897010323
  0
LINE
  8
_0-0_
  6
CONTINUOUS
 62
    7
 10
277.36417269743845
 20
459.74983522130321
 11
277.39711075023848
 21
459.72294141370367
  0
LINE
  8
_0-0_
  6
CONTINUOUS
 62
    7
 10
262.36417269743845
 20
472.24983522130321
 11
262.39711067863846
 21
472.22294147250318
  0
LINE
  8
_0-0_
  6
CONTINUOUS
 62
    7
 10
284.43524050943847
 20
459.64983522130365
 11
284.40230252823847
 21
459.67672897010323
  0
LINE
  8
_0-0_
  6
CONTINUOUS
 62
    7
 10
269.43524050943847
 20
472.14983522130359
 11
269.40230254503848
 21
472.17672895690316
  0
LINE
  8
_0-0_
  6
CONTINUOUS
 62
    7
 10
277.36417269743845
 20
472.24983522130321
 11
277.39711067863846
 21
472.22294147250318
  0
LINE
  8
_0-0_
  6
CONTINUOUS
 62
    7
 10
294.44970660343847
 20
673.19983522130315
 11
296.59970660343845
 21
585.1998352213036
  0
LINE
  8
_0-0_
  6
CONTINUOUS
 62
    7
 10
298.29970660343849
 20
584.1998352213036
 11
298.29970660343849
 21
581.1998352213036
  0
LINE
  8
_0-0_
  6
CONTINUOUS
 62
    7
 10
303.34970660343845
 20
333.79983522130357
 11
303.34970660343845
 21
332.49983522130361
  0
LINE
  8
_0-0_
  6
CONTINUOUS
 62
    7
 10
304.29970660343849
 20
339.4498352213036
 11
304.29970660343849
 21
345.24983522130367
  0
LINE
  8
_0-0_
  6
CONTINUOUS
 62
    7
 10
304.84970660343845
 20
380.02317321170358
 11
304.84970660343845
 21
379.4252416309032
  0
LINE
  8
_0-0_
  6
CONTINUOUS
 62
    7
 10
305.29970660343849
 20
336.12026175490359
 11
305.29970660343849
 21
333.79983522130357
  0
LINE
  8
_0-0_
  6
CONTINUOUS
 62
    7
 10
284.43524050943847
 20
422.24983522130321
 11
284.4023024982385
 21
422.2229414481036
  0
LINE
  8
_0-0_
  6
CONTINUOUS
 62
    7
 10
269.43524050943847
 20
409.74983522130321
 11
269.40230253383845
 21
409.7229414769036
  0
LINE
  8
_0-0_
  6
CONTINUOUS
 62
    7
 10
277.36417269743845
 20
409.64983522130359
 11
277.39711063903849
 21
409.67672893810317
  0
LINE
  8
_0-0_
  6
CONTINUOUS
 62
    7
 10
262.36417269743845
 20
397.14983522130359
 11
262.39708093303847
 21
397.17670468330317
  0
LINE
  8
_0-0_
  6
CONTINUOUS
 62
    7
 10
284.43524050943847
 20
409.74983522130321
 11
284.40230253383845
 21
409.7229414769036
  0
LINE
  8
_0-0_
  6
CONTINUOUS
 62
    7
 10
269.43524050943847
 20
397.24983522130321
 11
269.40230251543846
 21
397.22294146210356
  0
LINE
  8
_0-0_
  6
CONTINUOUS
 62
    7
 10
277.36417269743845
 20
397.14983522130359
 11
277.39708093303847
 21
397.17670468330317
  0
LINE
  8
_0-0_
  6
CONTINUOUS
 62
    7
 10
262.36417269743845
 20
384.64983522130365
 11
262.39711066463849
 21
384.6767289589036
  0
LINE
  8
_0-0_
  6
CONTINUOUS
 62
    7
 10
270.89970660343846
 20
474.6998352213036
 11
275.69282453743847
 21
474.6998352213036
  0
LINE
  8
_0-0_
  6
CONTINUOUS
 62
    7
 10
270.89970660343846
 20
482.6998352213036
 11
275.69282453743847
 21
482.6998352213036
  0
LINE
  8
_0-0_
  6
CONTINUOUS
 62
    9
 10
270.89970660343846
 20
483.1998352213036
 11
274.34970660343845
 21
483.1998352213036
  0
LINE
  8
_0-0_
  6
CONTINUOUS
 62
    7
 10
262.36417269743845
 20
484.74983522130321
 11
262.39711067863846
 21
484.72294147210357
  0
LINE
  8
_0-0_
  6
CONTINUOUS
 62
    7
 10
284.43524050943847
 20
472.14983522130359
 11
284.40230254503848
 21
472.17672895690316
  0
LINE
  8
_0-0_
  6
CONTINUOUS
 62
    7
 10
269.43524050943847
 20
484.64983522130319
 11
269.40230252823847
 21
484.67672897010323
  0
LINE
  8
_0-0_
  6
CONTINUOUS
 62
    7
 10
277.36417269743845
 20
484.74983522130321
 11
277.39711067863846
 21
484.72294147210357
  0
LINE
  8
_0-0_
  6
CONTINUOUS
 62
    7
 10
262.36417269743845
 20
497.24983522130321
 11
262.39711067863846
 21
497.22294147250363
  0
LINE
  8
_0-0_
  6
CONTINUOUS
 62
    7
 10
284.43524050943847
 20
484.64983522130319
 11
284.40230252823847
 21
484.67672897010323
  0
LINE
  8
_0-0_
  6
CONTINUOUS
 62
    7
 10
269.43524050943847
 20
497.14983522130319
 11
269.40230252823847
 21
497.17672897010323
  0
LINE
  8
_0-0_
  6
CONTINUOUS
 62
    7
 10
277.36417269743845
 20
497.24983522130321
 11
277.39711067863846
 21
497.22294147250363
  0
LINE
  8
_0-0_
  6
CONTINUOUS
 62
    7
 10
262.36417269743845
 20
509.74983522130321
 11
262.39711075023848
 21
509.72294141410362
  0
LINE
  8
_0-0_
  6
CONTINUOUS
 62
    7
 10
284.43524050943847
 20
397.24983522130321
 11
284.40230251543846
 21
397.22294146210356
  0
LINE
  8
_0-0_
  6
CONTINUOUS
 62
    7
 10
269.43524050943847
 20
384.74983522130321
 11
269.40230255783848
 21
384.72294149650361
  0
LINE
  8
_0-0_
  6
CONTINUOUS
 62
    7
 10
277.36417269743845
 20
384.64983522130365
 11
277.39711066463849
 21
384.6767289589036
  0
LINE
  8
_0-0_
  6
CONTINUOUS
 62
    7
 10
284.43524050943847
 20
384.74983522130321
 11
284.40230255783848
 21
384.72294149650361
  0
LINE
  8
_0-0_
  6
CONTINUOUS
 62
    7
 10
284.43524050943847
 20
497.14983522130319
 11
284.40230252823847
 21
497.17672897010323
  0
LINE
  8
_0-0_
  6
CONTINUOUS
 62
    7
 10
269.43524050943847
 20
509.64983522130319
 11
269.40230252823847
 21
509.67672897010323
  0
LINE
  8
_0-0_
  6
CONTINUOUS
 62
    7
 10
277.36417269743845
 20
509.74983522130321
 11
277.39711075023848
 21
509.72294141410362
  0
LINE
  8
_0-0_
  6
CONTINUOUS
 62
    7
 10
262.36417269743845
 20
522.24983522130321
 11
262.39711067863846
 21
522.22294147250363
  0
LINE
  8
_0-0_
  6
CONTINUOUS
 62
    7
 10
284.43524050943847
 20
509.64983522130319
 11
284.40230252823847
 21
509.67672897010323
  0
LINE
  8
_0-0_
  6
CONTINUOUS
 62
    7
 10
269.43524050943847
 20
522.14983522130319
 11
269.4023024790385
 21
522.17672901050321
  0
LINE
  8
_0-0_
  6
CONTINUOUS
 62
    7
 10
277.36417269743845
 20
522.24983522130321
 11
277.39711067863846
 21
522.22294147250363
  0
LINE
  8
_0-0_
  6
CONTINUOUS
 62
    7
 10
262.36417269743845
 20
534.74983522130356
 11
262.39711067863846
 21
534.72294147250363
  0
LINE
  8
_0-0_
  6
CONTINUOUS
 62
    7
 10
246.06875920663845
 20
339.31752160850363
 11
242.00259461063848
 21
336.98794814210362
  0
LINE
  8
_0-0_
  6
CONTINUOUS
 62
    7
 10
284.43524050943847
 20
522.14983522130319
 11
284.4023024790385
 21
522.17672901050321
  0
LINE
  8
_0-0_
  6
CONTINUOUS
 62
    7
 10
269.43524050943847
 20
534.64983522130319
 11
269.40230252823847
 21
534.67672897010323
  0
LINE
  8
_0-0_
  6
CONTINUOUS
 62
    7
 10
277.36417269743845
 20
534.74983522130356
 11
277.39711067863846
 21
534.72294147250363
  0
LINE
  8
_0-0_
  6
CONTINUOUS
 62
    7
 10
262.36417269743845
 20
547.24983522130356
 11
262.3971107258385
 21
547.22294143370323
  0
LINE
  8
_0-0_
  6
CONTINUOUS
 62
    7
 10
284.43524050943847
 20
534.64983522130319
 11
284.40230252823847
 21
534.67672897010323
  0
LINE
  8
_0-0_
  6
CONTINUOUS
 62
    7
 10
269.43524050943847
 20
547.14983522130319
 11
269.40230252823847
 21
547.17672897010323
  0
LINE
  8
_0-0_
  6
CONTINUOUS
 62
    7
 10
277.36417269743845
 20
547.24983522130356
 11
277.3971107258385
 21
547.22294143370323
  0
LINE
  8
_0-0_
  6
CONTINUOUS
 62
    7
 10
262.36417269743845
 20
559.74983522130356
 11
262.39710319943845
 21
559.72294757890313
  0
LINE
  8
_0-0_
  6
CONTINUOUS
 62
    7
 10
251.30658039823845
 20
293.24763183690357
 11
251.29970660343844
 21
293.23969260290357
  0
LINE
  8
_0-0_
  6
CONTINUOUS
 62
    7
 10
251.30658039823845
 20
291.24763183690357
 11
251.29970660343844
 21
291.23969260370359
  0
LINE
  8
_0-0_
  6
CONTINUOUS
 62
    7
 10
251.29970660343844
 20
287.23969260410354
 11
251.30658039823845
 21
287.24763183690357
  0
LINE
  8
_0-0_
  6
CONTINUOUS
 62
    7
 10
248.65433754183846
 20
537.1998352213036
 11
261.38060065583841
 21
537.1998352213036
  0
LINE
  8
_0-0_
  6
CONTINUOUS
 62
    7
 10
277.41881887423841
 20
537.1998352213036
 11
290.14878992983847
 21
537.1998352213036
  0
LINE
  8
_0-0_
  6
CONTINUOUS
 62
    7
 10
294.39970349303849
 20
538.6998352213036
 11
279.41478258063847
 21
538.6998352213036
  0
LINE
  8
_0-0_
  6
CONTINUOUS
 62
    7
 10
274.40345337103849
 20
538.6998352213036
 11
270.89970660343846
 21
538.6998352213036
  0
LINE
  8
_0-0_
  6
CONTINUOUS
 62
    7
 10
259.3846306258385
 20
538.6998352213036
 11
244.3997096666385
 21
538.6998352213036
  0
LINE
  8
_0-0_
  6
CONTINUOUS
 62
    7
 10
260.82924943583845
 20
540.4498352213036
 11
277.97016233103847
 21
540.4498352213036
  0
LINE
  8
_0-0_
  6
CONTINUOUS
 62
    7
 10
244.3997096666385
 20
541.1998352213036
 11
257.75422819023845
 21
541.1998352213036
  0
LINE
  8
_0-0_
  6
CONTINUOUS
 62
    7
 10
281.04518501663847
 20
541.1998352213036
 11
294.39970349303849
 21
541.1998352213036
  0
LINE
  8
_0-0_
  6
CONTINUOUS
 62
    7
 10
248.6497066034384
 20
543.9498352213036
 11
290.14970660343846
 21
543.9498352213036
  0
LINE
  8
_0-0_
  6
CONTINUOUS
 62
    7
 10
284.43524050943847
 20
547.14983522130319
 11
284.40230252823847
 21
547.17672897010323
  0
LINE
  8
_0-0_
  6
CONTINUOUS
 62
    7
 10
269.43524050943847
 20
559.64983522130319
 11
269.40230252823847
 21
559.67672897010323
  0
LINE
  8
_0-0_
  6
CONTINUOUS
 62
    7
 10
277.36417269743845
 20
559.74983522130356
 11
277.39710319943845
 21
559.72294757890313
  0
LINE
  8
_0-0_
  6
CONTINUOUS
 62
    7
 10
284.43524050943847
 20
559.64983522130319
 11
284.40230252823847
 21
559.67672897010323
  0
LINE
  8
_0-0_
  6
CONTINUOUS
 62
    7
 10
295.49970660343848
 20
294.13969260410357
 11
295.49283280863847
 21
294.1317533713036
  0
LINE
  8
_0-0_
  6
CONTINUOUS
 62
    7
 10
295.49283280863847
 20
292.1317533713036
 11
295.49970660343848
 21
292.1396926025036
  0
LINE
  8
_0-0_
  6
CONTINUOUS
 62
    7
 10
295.49283280863847
 20
290.1317533713036
 11
295.49970660343848
 21
290.13969260410363
  0
LINE
  8
_0-0_
  6
CONTINUOUS
 62
    7
 10
295.49283280863847
 20
288.1317533713036
 11
295.49970660343848
 21
288.13969260650367
  0
LINE
  8
_0-0_
  6
CONTINUOUS
 62
    7
 10
262.36417269743845
 20
284.64983522130365
 11
262.39711062343849
 21
284.67672892530356
  0
LINE
  8
_0-0_
  6
CONTINUOUS
 62
    7
 10
251.29970660343844
 20
295.1998352213036
 11
252.94515487063848
 21
296.14983522130359
  0
LINE
  8
_0-0_
  6
CONTINUOUS
 62
    7
 10
303.34970660343845
 20
332.49983522130361
 11
295.49970660343848
 21
329.89983522130359
  0
LINE
  8
_0-0_
  6
CONTINUOUS
 62
    7
 10
259.89970660343846
 20
562.1998352213036
 11
271.89970660343846
 21
562.1998352213036
  0
LINE
  8
_0-0_
  6
CONTINUOUS
 62
    7
 10
274.89970660343846
 20
562.1998352213036
 11
286.89970660343846
 21
562.1998352213036
  0
LINE
  8
_0-0_
  6
CONTINUOUS
 62
    9
 10
259.89970660343846
 20
565.19983522130315
 11
271.89970660343846
 21
565.19983522130315
  0
LINE
  8
_0-0_
  6
CONTINUOUS
 62
    9
 10
274.89970660343846
 20
565.19983522130315
 11
286.89970660343846
 21
565.19983522130315
  0
LINE
  8
_0-0_
  6
CONTINUOUS
 62
    7
 10
269.43524050943847
 20
284.74983522130367
 11
269.40230247103847
 21
284.72294142570365
  0
LINE
  8
_0-0_
  6
CONTINUOUS
 62
    7
 10
277.36417269743845
 20
284.64983522130365
 11
277.39711062343849
 21
284.67672892530356
  0
LINE
  8
_0-0_
  6
CONTINUOUS
 62
    7
 10
262.36417269743845
 20
272.14983522130365
 11
262.39711064263849
 21
272.17672894090367
  0
LINE
  8
_0-0_
  6
CONTINUOUS
 62
    7
 10
284.43524050943847
 20
284.74983522130367
 11
284.40230247103847
 21
284.72294142570365
  0
LINE
  8
_0-0_
  6
CONTINUOUS
 62
    7
 10
269.43524050943847
 20
272.24983522130367
 11
269.40230242543845
 21
272.22294138850361
  0
LINE
  8
_0-0_
  6
CONTINUOUS
 62
    7
 10
277.36417269743845
 20
272.14983522130365
 11
277.39711064263849
 21
272.17672894090367
  0
LINE
  8
_0-0_
  6
CONTINUOUS
 62
    7
 10
262.36417269743845
 20
259.64983522130365
 11
262.39711065423847
 21
259.67672895010367
  0
LINE
  8
_0-0_
  6
CONTINUOUS
 62
    7
 10
293.8542583362385
 20
296.14983522130359
 11
295.49970660343848
 21
297.09983522130358
  0
LINE
  8
_0-0_
  6
CONTINUOUS
 62
    7
 10
260.39970660343846
 20
568.19983522130315
 11
271.39970660343846
 21
568.19983522130315
  0
LINE
  8
_0-0_
  6
CONTINUOUS
 62
    7
 10
275.39970660343846
 20
568.19983522130315
 11
286.39970660343846
 21
568.19983522130315
  0
LINE
  8
_0-0_
  6
CONTINUOUS
 62
    7
 10
260.39970660343846
 20
577.19983522130315
 11
271.39970660343846
 21
577.19983522130315
  0
LINE
  8
_0-0_
  6
CONTINUOUS
 62
    7
 10
275.39970660343846
 20
577.19983522130315
 11
286.39970660343846
 21
577.19983522130315
  0
LINE
  8
_0-0_
  6
CONTINUOUS
 62
    7
 10
260.39970660343846
 20
580.1998352213036
 11
271.39970660343846
 21
580.1998352213036
  0
LINE
  8
_0-0_
  6
CONTINUOUS
 62
    7
 10
275.39970660343846
 20
580.1998352213036
 11
286.39970660343846
 21
580.1998352213036
  0
LINE
  8
_0-0_
  6
CONTINUOUS
 62
    7
 10
295.18470660343849
 20
580.77983522130364
 11
251.61470660343844
 21
580.77983522130364
  0
LINE
  8
_0-0_
  6
CONTINUOUS
 62
    7
 10
248.4997444602385
 20
581.1998352213036
 11
298.29966874623847
 21
581.1998352213036
  0
LINE
  8
_0-0_
  6
CONTINUOUS
 62
    9
 10
248.49970660343848
 20
584.1998352213036
 11
298.29970660343849
 21
584.1998352213036
  0
LINE
  8
_0-0_
  6
CONTINUOUS
 62
    7
 10
297.29970660343849
 20
585.1998352213036
 11
249.49970660343848
 21
585.1998352213036
  0
LINE
  8
_0-0_
  6
CONTINUOUS
 62
    7
 10
284.43524050943847
 20
272.24983522130367
 11
284.40230242543845
 21
272.22294138850361
  0
LINE
  8
_0-0_
  6
CONTINUOUS
 62
    7
 10
269.43524050943847
 20
259.74983522130367
 11
269.40230259543847
 21
259.72294152690358
  0
LINE
  8
_0-0_
  6
CONTINUOUS
 62
    7
 10
277.36417269743845
 20
259.64983522130365
 11
277.39711065423847
 21
259.67672895010367
  0
LINE
  8
_0-0_
  6
CONTINUOUS
 62
    7
 10
262.36417269743845
 20
247.14983522130362
 11
262.39711063423846
 21
247.17672893370363
  0
LINE
  8
_0-0_
  6
CONTINUOUS
 62
    7
 10
284.43524050943847
 20
259.74983522130367
 11
284.40230259543847
 21
259.72294152690358
  0
LINE
  8
_0-0_
  6
CONTINUOUS
 62
    7
 10
269.43524050943847
 20
247.24983522130364
 11
269.40230252623849
 21
247.22294147090363
  0
LINE
  8
_0-0_
  6
CONTINUOUS
 62
    7
 10
277.36417269743845
 20
247.14983522130362
 11
277.39711063423846
 21
247.17672893370363
  0
LINE
  8
_0-0_
  6
CONTINUOUS
 62
    7
 10
262.36417269743845
 20
234.64983522130362
 11
262.39711063823847
 21
234.67672893730364
  0
LINE
  8
_0-0_
  6
CONTINUOUS
 62
    7
 10
295.49970660343848
 20
286.1998352213036
 11
293.76765579583849
 21
285.1998352213036
  0
LINE
  8
_0-0_
  6
CONTINUOUS
 62
    7
 10
255.19970660343841
 20
190.69983522130363
 11
254.89970660343846
 21
190.39983522130362
  0
LINE
  8
_0-0_
  6
CONTINUOUS
 62
    7
 10
284.43524050943847
 20
247.24983522130364
 11
284.40230252623849
 21
247.22294147090363
  0
LINE
  8
_0-0_
  6
CONTINUOUS
 62
    7
 10
269.43524050943847
 20
234.74983522130364
 11
269.40230248583845
 21
234.72294143770361
  0
LINE
  8
_0-0_
  6
CONTINUOUS
 62
    7
 10
277.36417269743845
 20
234.64983522130362
 11
277.39711063823847
 21
234.67672893730364
  0
LINE
  8
_0-0_
  6
CONTINUOUS
 62
    7
 10
284.43524050943847
 20
234.74983522130364
 11
284.40230248583845
 21
234.72294143770361
  0
LINE
  8
_0-0_
  6
CONTINUOUS
 62
    7
 10
291.1578952830385
 20
194.69983522130363
 11
290.1578952830385
 21
193.69983522130366
  0
LINE
  8
_0-0_
  6
CONTINUOUS
 62
    7
 10
254.52470660343846
 20
209.69983522130363
 11
254.39970660343846
 21
209.62766643770362
  0
LINE
  8
_0-0_
  6
CONTINUOUS
 62
    7
 10
290.94721021743845
 20
152.78760482050359
 11
290.4685178422385
 21
152.28426422050359
  0
LINE
  8
_0-0_
  6
CONTINUOUS
 62
    7
 10
253.04970660343844
 20
184.63173722330362
 11
254.89970660343846
 21
185.69983522130363
  0
LINE
  8
_0-0_
  6
CONTINUOUS
 62
    7
 10
264.89900403943847
 20
679.18179226810366
 11
265.76510102423845
 21
678.85060043490375
  0
LINE
  8
_0-0_
  6
CONTINUOUS
 62
    7
 10
292.39970660343846
 20
198.27200400490361
 11
292.27470660343846
 21
198.19983522130363
  0
LINE
  8
_0-0_
  6
CONTINUOUS
 62
    7
 10
265.39970660343846
 20
673.19983522130315
 11
252.34970965343848
 21
673.19983522130315
  0
LINE
  8
_0-0_
  6
CONTINUOUS
 62
    7
 10
281.39970660343846
 20
673.19983522130315
 11
294.4497035534385
 21
673.19983522130315
  0
LINE
  8
_0-0_
  6
CONTINUOUS
 62
    7
 10
294.29969955263846
 20
674.1998352213036
 11
281.39970660343846
 21
674.1998352213036
  0
LINE
  8
_0-0_
  6
CONTINUOUS
 62
    7
 10
252.49971365423846
 20
674.1998352213036
 11
265.39970660343846
 21
674.1998352213036
  0
LINE
  8
_0-0_
  6
CONTINUOUS
 62
    7
 10
254.8997096122385
 20
674.29983522130328
 11
265.39970660343846
 21
674.29983522130328
  0
LINE
  8
_0-0_
  6
CONTINUOUS
 62
    7
 10
281.39970660343846
 20
674.29983522130328
 11
291.89970359463848
 21
674.29983522130328
  0
LINE
  8
_0-0_
  6
CONTINUOUS
 62
    7
 10
265.39970660343846
 20
674.89983522130319
 11
252.3997066034384
 21
674.89983522130319
  0
LINE
  8
_0-0_
  6
CONTINUOUS
 62
    7
 10
281.39970660343846
 20
674.89983522130319
 11
294.39970660343846
 21
674.89983522130319
  0
LINE
  8
_0-0_
  6
CONTINUOUS
 62
    7
 10
291.9078952830385
 20
172.69983522130363
 11
292.41273804863846
 21
172.99130632810358
  0
LINE
  8
_0-0_
  6
CONTINUOUS
 62
    9
 10
252.3997066034384
 20
702.92314229690373
 11
258.09970660343845
 21
702.92314229690373
  0
LINE
  8
_0-0_
  6
CONTINUOUS
 62
    9
 10
288.69970660343847
 20
702.92314229770363
 11
294.39970660343846
 21
702.92314229690373
  0
LINE
  8
_0-0_
  6
CONTINUOUS
 62
    9
 10
252.87613449703844
 20
703.42258634330324
 11
258.09970660343845
 21
703.42258634610334
  0
LINE
  8
_0-0_
  6
CONTINUOUS
 62
    9
 10
288.69970660343847
 20
703.42258636450356
 11
293.92327870983848
 21
703.42258634330324
  0
ARC
  8
_0-0_
  6
CONTINUOUS
 62
    7
 10
861.75627609223852
 20
670.29035345730335
 40
0.2999999999999999
 50
307.00000000000068
 51
313.8666840439007
  0
ARC
  8
_0-0_
  6
CONTINUOUS
 62
    7
 10
858.24227984783852
 20
667.64236735570375
 40
0.2999999999999999
 50
300.13331634560058
 51
307.00000000000063
  0
ARC
  8
_0-0_
  6
CONTINUOUS
 62
    7
 10
859.12361729983843
 20
667.05436710370373
 40
0.2999999999999999
 50
217.00000000010041
 51
307.00000000140062
  0
ARC
  8
_0-0_
  6
CONTINUOUS
 62
    7
 10
862.0785686866385
 20
669.28108268930373
 40
0.2999999999999999
 50
306.99999999840071
 51
37.000000000000064
  0
CIRCLE
  8
_0-0_
  6
CONTINUOUS
 62
    7
 10
733.23456053903851
 20
301.6998352213036
 40
4.3461379147999963
  0
ARC
  8
_0-0_
  6
CONTINUOUS
 62
    9
 10
733.23456053903851
 20
301.6998352213036
 40
3.9500000000000002
 50
279.47149846650058
 51
80.528501533500247
  0
ARC
  8
_0-0_
  6
CONTINUOUS
 62
    9
 10
733.23456053903851
 20
301.6998352213036
 40
3.9500000000000002
 50
99.471498466500222
 51
260.5285015335005
  0
ARC
  8
_0-0_
  6
CONTINUOUS
 62
    7
 10
747.14399596303849
 20
582.08983522130313
 40
1.3100000000000001
 50
222.99252337000041
 51
270.00000000000063
  0
ARC
  8
_0-0_
  6
CONTINUOUS
 62
    7
 10
790.71399596303809
 20
582.08983522130313
 40
1.3100000000000001
 50
270.00000000000068
 51
317.00747663000067
  0
ARC
  8
_0-0_
  6
CONTINUOUS
 62
    7
 10
749.67899596303846
 20
542.1998352213036
 40
1.75
 50
90.000000000000185
 51
215.13919883310049
  0
ARC
  8
_0-0_
  6
CONTINUOUS
 62
    7
 10
791.17899596303812
 20
542.1998352213036
 40
1.75
 50
290.16324761080068
 51
90.000000000000199
  0
ARC
  8
_0-0_
  6
CONTINUOUS
 62
    7
 10
749.67899596303846
 20
540.03316855450362
 40
2.8333333332000006
 50
208.0724869359004
 51
270.00000000000063
  0
ARC
  8
_0-0_
  6
CONTINUOUS
 62
    7
 10
792.8289959630381
 20
584.1998352213036
 40
1
 50
0
 51
90.000000000000185
  0
ARC
  8
_0-0_
  6
CONTINUOUS
 62
    7
 10
745.02899596303848
 20
584.1998352213036
 40
1
 50
90.000000000000185
 51
180.0000000000004
  0
ARC
  8
_0-0_
  6
CONTINUOUS
 62
    7
 10
768.92899596303812
 20
671.41126379290358
 40
18.724151379999995
 50
8.8744505669000198
 51
10.74207644270002
  0
ARC
  8
_0-0_
  6
CONTINUOUS
 62
    7
 10
768.92899596303812
 20
671.41126379290358
 40
18.724151379999995
 50
148.12158013920029
 51
167.38738130050029
  0
ARC
  8
_0-0_
  6
CONTINUOUS
 62
    7
 10
1065.7628313670386
 20
338.4498352213036
 40
1
 50
60.190885793300126
 51
90.000000000000185
  0
ARC
  8
_0-0_
  6
CONTINUOUS
 62
    7
 10
1012.0951605590385
 20
338.4498352213036
 40
1
 50
90.000000000000185
 51
119.80911420670022
  0
ARC
  8
_0-0_
  6
CONTINUOUS
 62
    7
 10
1069.8289959630381
 20
336.12026175490359
 40
1
 50
0
 51
60.190885793300126
  0
ARC
  8
_0-0_
  6
CONTINUOUS
 62
    7
 10
1008.0289959630385
 20
336.12026175490359
 40
1
 50
119.80911420670022
 51
180.0000000000004
  0
ARC
  8
_0-0_
  6
CONTINUOUS
 62
    7
 10
764.37899596303851
 20
483.1998352213036
 40
0.5
 50
180.0000000000004
 51
270.00000000000063
  0
ARC
  8
_0-0_
  6
CONTINUOUS
 62
    7
 10
753.47899596303853
 20
483.1998352213036
 40
0.5
 50
270.00000000000068
 51
0.0000000000008269
  0
ARC
  8
_0-0_
  6
CONTINUOUS
 62
    7
 10
846.86451469943802
 20
733.66921549810331
 40
0.5
 50
307.00000000000068
 51
37.000000000000078
  0
ARC
  8
_0-0_
  6
CONTINUOUS
 62
    7
 10
841.4481794910381
 20
740.85693508850363
 40
0.5
 50
37.000000000000078
 51
127.00000000000018
  0
ARC
  8
_0-0_
  6
CONTINUOUS
 62
    7
 10
810.30139459903808
 20
717.38614918570374
 40
0.5
 50
127.00000000000021
 51
217.00000000000043
  0
ARC
  8
_0-0_
  6
CONTINUOUS
 62
    7
 10
815.7177298074381
 20
710.19842959530365
 40
0.5
 50
217.0000000000004
 51
307.00000000000063
  0
ARC
  8
_0-0_
  6
CONTINUOUS
 62
    7
 10
810.10457411223842
 20
715.98569865250374
 40
0.5
 50
37.000000000000078
 51
127.00000000000018
  0
ARC
  8
_0-0_
  6
CONTINUOUS
 62
    7
 10
814.3172792742381
 20
710.39525008210376
 40
0.5
 50
307.00000000000068
 51
37.000000000000078
  0
ARC
  8
_0-0_
  6
CONTINUOUS
 62
    7
 10
789.42899596303846
 20
702.92314229690373
 40
0.5
 50
0
 51
87.297829236800183
  0
ARC
  8
_0-0_
  6
CONTINUOUS
 62
    7
 10
748.42899596303846
 20
702.92314229690373
 40
0.5
 50
92.702170763200215
 51
180.0000000000004
  0
ARC
  8
_0-0_
  6
CONTINUOUS
 62
    7
 10
769.21352201743809
 20
274.59992950850358
 40
429.30000000000001
 50
87.297829236800183
 51
90.000000000000185
  0
ARC
  8
_0-0_
  6
CONTINUOUS
 62
    7
 10
768.64446990863848
 20
274.59992950850358
 40
429.30000000000001
 50
90.000000000000185
 51
92.702170763200215
  0
ARC
  8
_0-0_
  6
CONTINUOUS
 62
    7
 10
1038.9289959630387
 20
301.22217754250357
 40
80
 50
80.100036660700198
 51
99.899963339300257
  0
ARC
  8
_0-0_
  6
CONTINUOUS
 62
    7
 10
879.00832942063846
 20
681.0222148097032
 40
0.5
 50
202.00000000000043
 51
292.00000000000068
  0
ARC
  8
_0-0_
  6
CONTINUOUS
 62
    7
 10
906.4529715158385
 20
692.11056997450373
 40
0.5
 50
292.00000000000068
 51
22.000000000000043
  0
ARC
  8
_0-0_
  6
CONTINUOUS
 62
    7
 10
871.24432187343848
 20
700.2388078193037
 40
0.5
 50
114.12308290740022
 51
202.0000000000004
  0
ARC
  8
_0-0_
  6
CONTINUOUS
 62
    7
 10
898.68896396863806
 20
711.32716298410355
 40
0.5
 50
22.000000000000046
 51
109.87691709260019
  0
ARC
  8
_0-0_
  6
CONTINUOUS
 62
    7
 10
1034.5192460758381
 20
335.62730343850365
 40
400
 50
109.87691709260019
 51
114.1230829074002
  0
ARC
  8
_0-0_
  6
CONTINUOUS
 62
    7
 10
1044.7789959630386
 20
359.72317321170362
 40
1.5
 50
0
 51
90.000000000000185
  0
ARC
  8
_0-0_
  6
CONTINUOUS
 62
    7
 10
1033.0789959630379
 20
359.72317321170362
 40
1.5
 50
90.000000000000185
 51
180.0000000000004
  0
ARC
  8
_0-0_
  6
CONTINUOUS
 62
    7
 10
1033.0789959630379
 20
351.02317321170358
 40
1.5
 50
180.0000000000004
 51
270.00000000000063
  0
ARC
  8
_0-0_
  6
CONTINUOUS
 62
    7
 10
1044.7789959630386
 20
351.02317321170358
 40
1.5
 50
270.00000000000068
 51
0.0000000000008269
  0
ARC
  8
_0-0_
  6
CONTINUOUS
 62
    7
 10
1069.8789959630383
 20
379.4252416309032
 40
0.5
 50
279.64000000000055
 51
0.0000000000008269
  0
ARC
  8
_0-0_
  6
CONTINUOUS
 62
    7
 10
1007.9789959630385
 20
379.4252416309032
 40
0.5
 50
180.0000000000004
 51
260.36000000000053
  0
ARC
  8
_0-0_
  6
CONTINUOUS
 62
    7
 10
1068.6789959630387
 20
368.72317321170317
 40
9.8499999999999961
 50
99.640000000000228
 51
180.0000000000004
  0
ARC
  8
_0-0_
  6
CONTINUOUS
 62
    7
 10
1009.1789959630385
 20
368.72317321170317
 40
9.8499999999999961
 50
0
 51
80.360000000000184
  0
ARC
  8
_0-0_
  6
CONTINUOUS
 62
    7
 10
1015.8289959694384
 20
297.19983523170356
 40
0.9999999992
 50
359.99999941160081
 51
90.000000375100157
  0
ARC
  8
_0-0_
  6
CONTINUOUS
 62
    7
 10
1015.8289959694384
 20
320.19983521090359
 40
0.9999999992
 50
269.99999962580068
 51
0.0000005867000778
  0
ARC
  8
_0-0_
  6
CONTINUOUS
 62
    7
 10
998.8586857774385
 20
308.6998352213036
 40
5
 50
213.36701296920049
 51
216.2990630866004
  0
ARC
  8
_0-0_
  6
CONTINUOUS
 62
    7
 10
998.8586857774385
 20
308.6998352213036
 40
5
 50
143.70093691340031
 51
146.63298703080031
  0
ARC
  8
_0-0_
  6
CONTINUOUS
 62
    7
 10
295.18470660343849
 20
582.08983522130313
 40
1.3100000000000001
 50
270.00000000000068
 51
317.00747663000067
  0
ARC
  8
_0-0_
  6
CONTINUOUS
 62
    7
 10
251.61470660343844
 20
582.08983522130313
 40
1.3100000000000001
 50
222.99252337000041
 51
270.00000000000063
  0
ARC
  8
_0-0_
  6
CONTINUOUS
 62
    7
 10
248.6497066034384
 20
542.1998352213036
 40
1.75
 50
90.000000000000185
 51
215.13919883310049
  0
ARC
  8
_0-0_
  6
CONTINUOUS
 62
    7
 10
290.14970660343846
 20
542.1998352213036
 40
1.75
 50
324.86080116690073
 51
90.000000000000185
  0
ARC
  8
_0-0_
  6
CONTINUOUS
 62
    7
 10
248.6497066034384
 20
540.03316855450362
 40
2.8333333332000006
 50
208.0724869359004
 51
270.00000000000063
  0
ARC
  8
_0-0_
  6
CONTINUOUS
 62
    7
 10
290.14970660343846
 20
540.03316855450362
 40
2.8333333332000006
 50
270.00000000000068
 51
331.92751306410076
  0
ARC
  8
_0-0_
  6
CONTINUOUS
 62
    7
 10
249.49970660343848
 20
584.1998352213036
 40
1
 50
90.000000000000185
 51
180.0000000000004
  0
ARC
  8
_0-0_
  6
CONTINUOUS
 62
    7
 10
297.29970660343849
 20
584.1998352213036
 40
1
 50
0
 51
90.000000000000185
  0
ARC
  8
_0-0_
  6
CONTINUOUS
 62
    7
 10
273.39970660343846
 20
671.41126379290358
 40
18.724151379999995
 50
8.8744505669000198
 51
10.74207644270002
  0
ARC
  8
_0-0_
  6
CONTINUOUS
 62
    7
 10
273.39970660343846
 20
671.41126379290358
 40
18.724151379999995
 50
169.2579235573003
 51
171.12554943310028
  0
ARC
  8
_0-0_
  6
CONTINUOUS
 62
    7
 10
274.84970660343845
 20
483.1998352213036
 40
0.5
 50
180.0000000000004
 51
270.00000000000063
  0
ARC
  8
_0-0_
  6
CONTINUOUS
 62
    7
 10
246.56587119943845
 20
338.4498352213036
 40
1
 50
90.000000000000185
 51
119.80911420670022
  0
ARC
  8
_0-0_
  6
CONTINUOUS
 62
    7
 10
242.49970660343848
 20
336.12026175490359
 40
1
 50
119.80911420670022
 51
180.0000000000004
  0
ARC
  8
_0-0_
  6
CONTINUOUS
 62
    7
 10
304.29970660343849
 20
336.12026175490359
 40
1
 50
0
 51
60.190885793300126
  0
ARC
  8
_0-0_
  6
CONTINUOUS
 62
    7
 10
300.23354200743847
 20
338.4498352213036
 40
1
 50
60.190885793300126
 51
90.000000000000185
  0
ARC
  8
_0-0_
  6
CONTINUOUS
 62
    7
 10
252.8997066034384
 20
702.92314229690373
 40
0.5
 50
92.702165989900209
 51
179.99999998900043
  0
ARC
  8
_0-0_
  6
CONTINUOUS
 62
    7
 10
293.89970660343846
 20
702.92314229690373
 40
0.5
 50
0.000000011
 51
87.297834010100217
  0
ARC
  8
_0-0_
  6
CONTINUOUS
 62
    7
 10
273.68423265783849
 20
274.59992950850358
 40
429.30000000000001
 50
87.297829242300196
 51
87.995433112100201
  0
ARC
  8
_0-0_
  6
CONTINUOUS
 62
    7
 10
273.11518054903848
 20
274.59992950850358
 40
429.30000000000001
 50
92.004566887900211
 51
92.70217075770023
  0
ARC
  8
_0-0_
  6
CONTINUOUS
 62
    7
 10
273.39970660343846
 20
301.22217754250357
 40
80
 50
80.100036660700198
 51
99.899963339300257
  0
ARC
  8
_0-0_
  6
CONTINUOUS
 62
    7
 10
279.24970660343848
 20
351.02317321170358
 40
1.5
 50
270.00000000000068
 51
0.0000000000008269
  0
ARC
  8
_0-0_
  6
CONTINUOUS
 62
    7
 10
279.24970660343848
 20
359.72317321170362
 40
1.5
 50
0
 51
90.000000000000185
  0
ARC
  8
_0-0_
  6
CONTINUOUS
 62
    7
 10
242.44970660343847
 20
379.4252416309032
 40
0.5
 50
180.0000000000004
 51
260.36000000000053
  0
ARC
  8
_0-0_
  6
CONTINUOUS
 62
    7
 10
243.6497066034384
 20
368.72317321170317
 40
9.8499999999999961
 50
0
 51
80.360000000000184
  0
ARC
  8
_0-0_
  6
CONTINUOUS
 62
    7
 10
267.54970660343849
 20
359.72317321170362
 40
1.5
 50
90.000000000000185
 51
180.0000000000004
  0
ARC
  8
_0-0_
  6
CONTINUOUS
 62
    7
 10
267.54970660343849
 20
351.02317321170358
 40
1.5
 50
180.0000000000004
 51
270.00000000000063
  0
ARC
  8
_0-0_
  6
CONTINUOUS
 62
    7
 10
304.34970660343845
 20
379.4252416309032
 40
0.5
 50
279.64000000000055
 51
0.0000000000008269
  0
ARC
  8
_0-0_
  6
CONTINUOUS
 62
    7
 10
303.14970660343846
 20
368.72317321170317
 40
9.8499999999999961
 50
99.640000000000228
 51
180.0000000000004
  0
INSERT
  2
-004-_D4
  8
_0-0_
 10
-1.5069099221614124
 20
-37.621882634296355
 41
0.25
 42
0.25
 50
0
  0
INSERT
  2
-014-_D14
  8
_0-0_
 10
-1.5069099221614124
 20
-37.621882634296355
 41
0.25
 42
0.25
 50
0
  0
INSERT
  2
-005-_D5
  8
_0-0_
 10
-1.5069099221614124
 20
-37.621882634296355
 41
0.25
 42
0.25
 50
0
  0
INSERT
  2
-002-_D2
  8
_0-0_
 10
-1.5069099221614124
 20
-37.621882634296355
 41
0.25
 42
0.25
 50
0
  0
INSERT
  2
-003-_D3
  8
_0-0_
 10
-1.5069099221614124
 20
-37.621882634296355
 41
0.25
 42
0.25
 50
0
  0
INSERT
  2
-007-_D7
  8
_0-0_
 10
-1.5069099221614124
 20
-37.621882634296355
 41
0.25
 42
0.25
 50
0
  0
INSERT
  2
-001-_D1
  8
_0-0_
 10
-1.5069099221614124
 20
-37.621882634296355
 41
0.25
 42
0.25
 50
0
  0
INSERT
  2
-006-_D6
  8
_0-0_
 10
-1.5069099221614124
 20
-37.621882634296355
 41
0.25
 42
0.25
 50
0
  0
INSERT
  2
-008-_D8
  8
_0-0_
 10
-1.5069099221614124
 20
-37.621882634296355
 41
0.25
 42
0.25
 50
0
  0
INSERT
  2
-009-_D9
  8
_0-0_
 10
-1.5069099221614124
 20
-37.621882634296355
 41
0.25
 42
0.25
 50
0
  0
INSERT
  2
-000-_D0
  8
_0-0_
 10
-1.5069099221614124
 20
-37.621882634296355
 41
0.25
 42
0.25
 50
0
  0
INSERT
  2
-010-_D10
  8
_0-0_
 10
-1.5069099221614124
 20
-37.621882634296355
 41
0.25
 42
0.25
 50
0
  0
INSERT
  2
-011-_D11
  8
_0-0_
 10
-1.5069099221614124
 20
-37.621882634296355
 41
0.25
 42
0.25
 50
0
  0
INSERT
  2
-013-_D13
  8
_0-0_
 10
-1.5069099221614124
 20
-37.621882634296355
 41
0.25
 42
0.25
 50
0
  0
INSERT
  2
-012-_D12
  8
_0-0_
 10
-1.5069099221614124
 20
-37.621882634296355
 41
0.25
 42
0.25
 50
0
  0
TEXT
  8
_0-0_
 62
    4
 10
981
 20
43.499999997749796
 40
10
 41
1
 50
0
  1
S=1：4
  0
TEXT
  8
_0-0_
 62
    4
 10
906
 20
43.499999997749796
 40
10
 41
1
 50
0
  1
06.05.19
  0
TEXT
  8
_0-0_
 62
    3
 10
685.60688609811734
 20
75.999999994599762
 40
20
 41
1
 50
0
  1
GS-13201.031
  0
TEXT
  8
_0-0_
 62
    3
 10
713.10688609811734
 20
39.999999998199996
 40
20
 41
1
 50
0
  1
OXYGENE
  0
ENDSEC
  0
EOF
