0
SECTION
2
HEADER
9
$ACADVER
1
AC1009
9
$DWGCODEPAGE
3
ANSI_932
9
$EXTMIN
10
0.000
20
0.000
30
0.0
9
$EXTMAX
10
4752.000
20
3360.000
30
0.0
9
$LTSCALE
40
8.000
9
$PDMODE
70
0
9
$PDSIZE
40
40.0
0
ENDSEC
0
SECTION
2
TABLES
0
TABLE
2
LTYPE
70
9
0
LTYPE
5
1f4
2
CONTINUOUS
70
64
3
SolidLine
72
65
73
0
40
0.0
0
LTYPE
5
1f5
2
DOT
70
64
3
--  --  --  --  --  --  --  --     
72
65
73
2
40
3.000
49
1.000
49
-2.000
0
LTYPE
5
1f6
2
DASHED
70
64
3
----    ----    ----    ----    
72
65
73
2
40
5.000
49
2.000
49
-3.000
0
LTYPE
5
1f7
2
DASHED2
70
64
3
------  ------  ------  ------ 
72
65
73
2
40
10.000
49
4.000
49
-6.000
0
LTYPE
5
1f8
2
CENTER
70
64
3
----- - ----- - ----- - ----- - 
72
65
73
4
40
10.000
49
6.000
49
-3.000
49
1.000
49
-3.000
0
LTYPE
5
1f9
2
CENTER2
70
64
3
----------  --  ----------  -- 
72
65
73
4
40
17.000
49
12.000
49
-5.000
49
2.000
49
-5.000
0
LTYPE
5
1fa
2
PHANTOM
70
64
3
--- - - --- - - --- - - --- - -
72
65
73
6
40
13.000
49
5.000
49
-3.000
49
1.000
49
-3.000
49
1.000
49
-3.000
0
LTYPE
5
1fb
2
PHANTOM2
70
64
3
--------  -  -  --------  -  -
72
65
73
6
40
20.000
49
6.000
49
-5.000
49
2.000
49
-5.000
49
2.000
49
-5.000
0
LTYPE
5
1fc
2
HIDDEN
70
64
3
-   -   -   -   -   -   -   -   
72
65
73
2
40
3.000
49
0.500
49
-2.500
0
ENDTAB
0
TABLE
2
STYLE
70
1
0
STYLE
5
1fd
100
AcDbSymbolTableRecord
100
AcDbTextStyleTableRecord
2
STANDARD
70
0
40
0.0
41
1.0
50
0.0
71
0
42
0.0
3
txt.shx
4
extfont.shx
0
STYLE
5
1fe
100
AcDbSymbolTableRecord
100
AcDbTextStyleTableRecord
2
TATEGAKI
70
4
40
0.0
41
1.0
50
0.0
71
0
42
0.0
3
txt.shx
4
extfont.shx
0
STYLE
5
1ff
100
AcDbSymbolTableRecord
100
AcDbTextStyleTableRecord
2
DIM
70
0
40
0.0
41
0.75
50
0.0
71
0
42
0.0
3
txt.shx
4
extfont.shx
0
STYLE
5
200
100
AcDbSymbolTableRecord
100
AcDbTextStyleTableRecord
2
_Gothic__
70
0
40
0.0
41
1.0
50
0.0
71
0
42
0.0
3
MS Gothic
4

0
STYLE
5
201
100
AcDbSymbolTableRecord
100
AcDbTextStyleTableRecord
2
_TateGothic_
70
4
40
0.0
41
1.0
50
0.0
71
0
42
0.0
3
@MS Gothic
4

0
ENDTAB
0
TABLE
2
LAYER
5
403
100
AcDbSymbolTable
70
10
0
LAYER
5
404
100
AcDbSymbolTableRecord
100
AcDbLayerTableRecord
2
2-0
70
0
62
7
6
CONTINUOUS
0
LAYER
5
405
100
AcDbSymbolTableRecord
100
AcDbLayerTableRecord
2
3-0
70
0
62
7
6
CONTINUOUS
0
LAYER
5
406
100
AcDbSymbolTableRecord
100
AcDbLayerTableRecord
2
4-0
70
0
62
7
6
CONTINUOUS
0
LAYER
5
407
100
AcDbSymbolTableRecord
100
AcDbLayerTableRecord
2
5-0
70
0
62
7
6
CONTINUOUS
0
LAYER
5
408
100
AcDbSymbolTableRecord
100
AcDbLayerTableRecord
2
6-0
70
0
62
-7
6
CONTINUOUS
0
LAYER
5
409
100
AcDbSymbolTableRecord
100
AcDbLayerTableRecord
2
8-0
70
0
62
-7
6
CONTINUOUS
0
LAYER
5
40a
100
AcDbSymbolTableRecord
100
AcDbLayerTableRecord
2
B-0
70
0
62
7
6
CONTINUOUS
0
LAYER
5
40b
100
AcDbSymbolTableRecord
100
AcDbLayerTableRecord
2
C-0
70
0
62
6
6
CONTINUOUS
0
LAYER
5
40c
100
AcDbSymbolTableRecord
100
AcDbLayerTableRecord
2
D-0
70
0
62
6
6
CONTINUOUS
0
LAYER
5
40d
100
AcDbSymbolTableRecord
100
AcDbLayerTableRecord
2
E-0
70
0
62
3
6
CONTINUOUS
0
LAYER
5
40e
100
AcDbSymbolTableRecord
100
AcDbLayerTableRecord
2
0-1
70
0
62
1
6
CENTER2
0
LAYER
5
40f
100
AcDbSymbolTableRecord
100
AcDbLayerTableRecord
2
2-1
70
0
62
4
6
CONTINUOUS
0
ENDTAB
0
ENDSEC
0
SECTION
2
ENTITIES
0
LINE
5
410
100
AcDbEntity
8
2-1
6
CONTINUOUS
62
4
100
AcDbLine
10
562.614521000000
20
1781.445523000000
30
0.0
11
712.614521000000
21
1781.445523000000
31
0.0
0
LINE
5
411
100
AcDbEntity
8
2-1
6
CONTINUOUS
62
4
100
AcDbLine
10
712.614521000000
20
1781.445523000000
30
0.0
11
712.614521000000
21
1831.445523000000
31
0.0
0
LINE
5
412
100
AcDbEntity
8
2-1
6
CONTINUOUS
62
4
100
AcDbLine
10
712.614521000000
20
1831.445523000000
30
0.0
11
562.614521000000
21
1831.445523000000
31
0.0
0
LINE
5
413
100
AcDbEntity
8
2-1
6
CONTINUOUS
62
4
100
AcDbLine
10
562.614521000000
20
1831.445523000000
30
0.0
11
562.614521000000
21
1781.445523000000
31
0.0
0
LINE
5
414
100
AcDbEntity
8
2-1
6
CONTINUOUS
62
4
100
AcDbLine
10
562.614521000000
20
805.318548000000
30
0.0
11
712.614521000000
21
805.318548000000
31
0.0
0
LINE
5
415
100
AcDbEntity
8
2-1
6
CONTINUOUS
62
4
100
AcDbLine
10
712.614521000000
20
805.318548000000
30
0.0
11
712.614521000000
21
855.318548000000
31
0.0
0
LINE
5
416
100
AcDbEntity
8
2-1
6
CONTINUOUS
62
4
100
AcDbLine
10
712.614521000000
20
855.318548000000
30
0.0
11
562.614521000000
21
855.318548000000
31
0.0
0
LINE
5
417
100
AcDbEntity
8
2-1
6
CONTINUOUS
62
4
100
AcDbLine
10
562.614521000000
20
855.318548000000
30
0.0
11
562.614521000000
21
805.318548000000
31
0.0
0
LINE
5
418
100
AcDbEntity
8
2-1
6
CONTINUOUS
62
4
100
AcDbLine
10
1412.309132000000
20
805.318548000000
30
0.0
11
1562.309132000000
21
805.318548000000
31
0.0
0
LINE
5
419
100
AcDbEntity
8
2-1
6
CONTINUOUS
62
4
100
AcDbLine
10
1562.309132000000
20
805.318548000000
30
0.0
11
1562.309132000000
21
855.318548000000
31
0.0
0
LINE
5
41a
100
AcDbEntity
8
2-1
6
CONTINUOUS
62
4
100
AcDbLine
10
1562.309132000000
20
855.318548000000
30
0.0
11
1412.309132000000
21
855.318548000000
31
0.0
0
LINE
5
41b
100
AcDbEntity
8
2-1
6
CONTINUOUS
62
4
100
AcDbLine
10
1412.309132000000
20
855.318548000000
30
0.0
11
1412.309132000000
21
805.318548000000
31
0.0
0
TEXT
5
41c
100
AcDbEntity
8
2-1
62
4
100
AcDbText
10
587.615
20
1787.606
30
0.0
40
38.400
1
平面図
41
1.000
50
0.000
100
AcDbText
0
TEXT
5
41d
100
AcDbEntity
8
2-1
62
4
100
AcDbText
10
587.615
20
811.479
30
0.0
40
38.400
1
立面図
41
1.000
50
0.000
100
AcDbText
0
TEXT
5
41e
100
AcDbEntity
8
2-1
62
4
100
AcDbText
10
1437.309
20
811.479
30
0.0
40
38.400
1
側面図
41
1.000
50
0.000
100
AcDbText
0
LINE
5
41f
100
AcDbEntity
8
D-0
6
CONTINUOUS
62
6
100
AcDbLine
10
2012.232788000000
20
2870.824387000000
30
0.0
11
2012.232788000000
21
99.175604000000
31
0.0
0
LINE
5
420
100
AcDbEntity
8
D-0
6
CONTINUOUS
62
6
100
AcDbLine
10
87.767218000000
20
99.175604000000
30
0.0
11
87.767218000000
21
2870.824387000000
31
0.0
0
LINE
5
421
100
AcDbEntity
8
D-0
6
CONTINUOUS
62
6
100
AcDbLine
10
87.767218000000
20
2870.824387000000
30
0.0
11
2012.232788000000
21
2870.824387000000
31
0.0
0
LINE
5
422
100
AcDbEntity
8
D-0
6
CONTINUOUS
62
6
100
AcDbLine
10
2012.232788000000
20
99.175604000000
30
0.0
11
87.767218000000
21
99.175604000000
31
0.0
0
LINE
5
423
100
AcDbEntity
8
D-0
6
CONTINUOUS
62
6
100
AcDbLine
10
1362.232788000000
20
279.175604000000
30
0.0
11
1362.232788000000
21
99.175604000000
31
0.0
0
LINE
5
424
100
AcDbEntity
8
D-0
6
CONTINUOUS
62
6
100
AcDbLine
10
2012.232788000000
20
279.175604000000
30
0.0
11
87.767218000000
21
279.175604000000
31
0.0
0
LINE
5
425
100
AcDbEntity
8
C-0
6
CONTINUOUS
62
6
100
AcDbLine
10
204.111630000000
20
133.984893000000
30
0.0
11
246.150128000000
21
133.984893000000
31
0.0
0
LINE
5
426
100
AcDbEntity
8
C-0
6
CONTINUOUS
62
6
100
AcDbLine
10
246.150128000000
20
133.984893000000
30
0.0
11
246.150128000000
21
176.082585000000
31
0.0
0
LINE
5
427
100
AcDbEntity
8
C-0
6
CONTINUOUS
62
6
100
AcDbLine
10
204.111630000000
20
176.082585000000
30
0.0
11
204.111630000000
21
133.984893000000
31
0.0
0
LINE
5
428
100
AcDbEntity
8
C-0
6
CONTINUOUS
62
6
100
AcDbLine
10
246.150128000000
20
176.082585000000
30
0.0
11
204.111630000000
21
176.082585000000
31
0.0
0
LINE
5
429
100
AcDbEntity
8
C-0
6
CONTINUOUS
62
6
100
AcDbLine
10
250.913349000000
20
189.810502000000
30
0.0
11
272.413349000000
21
227.049595000000
31
0.0
0
LINE
5
42a
100
AcDbEntity
8
C-0
6
CONTINUOUS
62
6
100
AcDbLine
10
250.913349000000
20
189.810502000000
30
0.0
11
293.913349000000
21
189.810502000000
31
0.0
0
LINE
5
42b
100
AcDbEntity
8
C-0
6
CONTINUOUS
62
6
100
AcDbLine
10
272.413349000000
20
227.049595000000
30
0.0
11
293.913349000000
21
189.810502000000
31
0.0
0
CIRCLE
5
42c
100
AcDbEntity
8
C-0
6
CONTINUOUS
62
6
100
AcDbCircle
10
306.241044000000
20
235.007295000000
30
0.0
40
14.758716000000
0
LINE
5
42d
100
AcDbEntity
8
C-0
6
CONTINUOUS
62
6
100
AcDbLine
10
335.909003000000
20
155.949894000000
30
0.0
11
354.031653000000
21
155.949894000000
31
0.0
0
LINE
5
42e
100
AcDbEntity
8
C-0
6
CONTINUOUS
62
6
100
AcDbLine
10
358.694729000000
20
145.949894000000
30
0.0
11
364.756729000000
21
132.949894000000
31
0.0
0
LINE
5
42f
100
AcDbEntity
8
C-0
6
CONTINUOUS
62
6
100
AcDbLine
10
331.245926000000
20
145.949894000000
30
0.0
11
325.183927000000
21
132.949894000000
31
0.0
0
LINE
5
430
100
AcDbEntity
8
C-0
6
CONTINUOUS
62
6
100
AcDbLine
10
344.970328000000
20
175.381968000000
30
0.0
11
354.031653000000
21
155.949894000000
31
0.0
0
LINE
5
431
100
AcDbEntity
8
C-0
6
CONTINUOUS
62
6
100
AcDbLine
10
344.970328000000
20
175.381968000000
30
0.0
11
335.909003000000
21
155.949894000000
31
0.0
0
LINE
5
432
100
AcDbEntity
8
C-0
6
CONTINUOUS
62
6
100
AcDbLine
10
339.020530000000
20
190.501175000000
30
0.0
11
312.183927000000
21
132.949894000000
31
0.0
0
LINE
5
433
100
AcDbEntity
8
C-0
6
CONTINUOUS
62
6
100
AcDbLine
10
417.449258000000
20
180.501175000000
30
0.0
11
418.197398000000
21
180.090607000000
31
0.0
0
LINE
5
434
100
AcDbEntity
8
C-0
6
CONTINUOUS
62
6
100
AcDbLine
10
418.197398000000
20
180.090607000000
30
0.0
11
419.473362000000
21
179.373312000000
31
0.0
0
LINE
5
435
100
AcDbEntity
8
C-0
6
CONTINUOUS
62
6
100
AcDbLine
10
419.473362000000
20
179.373312000000
30
0.0
11
420.710626000000
21
178.629849000000
31
0.0
0
LINE
5
436
100
AcDbEntity
8
C-0
6
CONTINUOUS
62
6
100
AcDbLine
10
420.710626000000
20
178.629849000000
30
0.0
11
421.884696000000
21
177.843656000000
31
0.0
0
LINE
5
437
100
AcDbEntity
8
C-0
6
CONTINUOUS
62
6
100
AcDbLine
10
421.884696000000
20
177.843656000000
30
0.0
11
422.971077000000
21
176.998171000000
31
0.0
0
LINE
5
438
100
AcDbEntity
8
C-0
6
CONTINUOUS
62
6
100
AcDbLine
10
422.971077000000
20
176.998171000000
30
0.0
11
423.945276000000
21
176.076833000000
31
0.0
0
LINE
5
439
100
AcDbEntity
8
C-0
6
CONTINUOUS
62
6
100
AcDbLine
10
423.945276000000
20
176.076833000000
30
0.0
11
424.449258000000
21
175.501175000000
31
0.0
0
LINE
5
43a
100
AcDbEntity
8
C-0
6
CONTINUOUS
62
6
100
AcDbLine
10
424.449258000000
20
175.501175000000
30
0.0
11
425.168744000000
21
174.485829000000
31
0.0
0
LINE
5
43b
100
AcDbEntity
8
C-0
6
CONTINUOUS
62
6
100
AcDbLine
10
425.168744000000
20
174.485829000000
30
0.0
11
426.123300000000
21
172.544050000000
31
0.0
0
LINE
5
43c
100
AcDbEntity
8
C-0
6
CONTINUOUS
62
6
100
AcDbLine
10
426.123300000000
20
172.544050000000
30
0.0
11
426.767667000000
21
170.398523000000
31
0.0
0
LINE
5
43d
100
AcDbEntity
8
C-0
6
CONTINUOUS
62
6
100
AcDbLine
10
426.767667000000
20
170.398523000000
30
0.0
11
427.162032000000
21
168.093736000000
31
0.0
0
LINE
5
43e
100
AcDbEntity
8
C-0
6
CONTINUOUS
62
6
100
AcDbLine
10
427.162032000000
20
168.093736000000
30
0.0
11
427.366578000000
21
165.674174000000
31
0.0
0
LINE
5
43f
100
AcDbEntity
8
C-0
6
CONTINUOUS
62
6
100
AcDbLine
10
427.366578000000
20
165.674174000000
30
0.0
11
427.441490000000
21
163.184324000000
31
0.0
0
LINE
5
440
100
AcDbEntity
8
C-0
6
CONTINUOUS
62
6
100
AcDbLine
10
427.441490000000
20
163.184324000000
30
0.0
11
427.449258000000
21
161.725535000000
31
0.0
0
LINE
5
441
100
AcDbEntity
8
C-0
6
CONTINUOUS
62
6
100
AcDbLine
10
427.449258000000
20
161.725535000000
30
0.0
11
427.441490000000
21
160.266745000000
31
0.0
0
LINE
5
442
100
AcDbEntity
8
C-0
6
CONTINUOUS
62
6
100
AcDbLine
10
427.441490000000
20
160.266745000000
30
0.0
11
427.366578000000
21
157.776895000000
31
0.0
0
LINE
5
443
100
AcDbEntity
8
C-0
6
CONTINUOUS
62
6
100
AcDbLine
10
427.366578000000
20
157.776895000000
30
0.0
11
427.162032000000
21
155.357333000000
31
0.0
0
LINE
5
444
100
AcDbEntity
8
C-0
6
CONTINUOUS
62
6
100
AcDbLine
10
427.162032000000
20
155.357333000000
30
0.0
11
426.767667000000
21
153.052546000000
31
0.0
0
LINE
5
445
100
AcDbEntity
8
C-0
6
CONTINUOUS
62
6
100
AcDbLine
10
426.767667000000
20
153.052546000000
30
0.0
11
426.123300000000
21
150.907019000000
31
0.0
0
LINE
5
446
100
AcDbEntity
8
C-0
6
CONTINUOUS
62
6
100
AcDbLine
10
426.123300000000
20
150.907019000000
30
0.0
11
425.168744000000
21
148.965240000000
31
0.0
0
LINE
5
447
100
AcDbEntity
8
C-0
6
CONTINUOUS
62
6
100
AcDbLine
10
425.168744000000
20
148.965240000000
30
0.0
11
424.449258000000
21
147.949894000000
31
0.0
0
LINE
5
448
100
AcDbEntity
8
C-0
6
CONTINUOUS
62
6
100
AcDbLine
10
424.449258000000
20
147.949894000000
30
0.0
11
423.945276000000
21
147.374236000000
31
0.0
0
LINE
5
449
100
AcDbEntity
8
C-0
6
CONTINUOUS
62
6
100
AcDbLine
10
423.945276000000
20
147.374236000000
30
0.0
11
422.971077000000
21
146.452898000000
31
0.0
0
LINE
5
44a
100
AcDbEntity
8
C-0
6
CONTINUOUS
62
6
100
AcDbLine
10
422.971077000000
20
146.452898000000
30
0.0
11
421.884696000000
21
145.607413000000
31
0.0
0
LINE
5
44b
100
AcDbEntity
8
C-0
6
CONTINUOUS
62
6
100
AcDbLine
10
421.884696000000
20
145.607413000000
30
0.0
11
420.710626000000
21
144.821220000000
31
0.0
0
LINE
5
44c
100
AcDbEntity
8
C-0
6
CONTINUOUS
62
6
100
AcDbLine
10
420.710626000000
20
144.821220000000
30
0.0
11
419.473362000000
21
144.077757000000
31
0.0
0
LINE
5
44d
100
AcDbEntity
8
C-0
6
CONTINUOUS
62
6
100
AcDbLine
10
419.473362000000
20
144.077757000000
30
0.0
11
418.197398000000
21
143.360462000000
31
0.0
0
LINE
5
44e
100
AcDbEntity
8
C-0
6
CONTINUOUS
62
6
100
AcDbLine
10
418.197398000000
20
143.360462000000
30
0.0
11
417.449258000000
21
142.949894000000
31
0.0
0
LINE
5
44f
100
AcDbEntity
8
C-0
6
CONTINUOUS
62
6
100
AcDbLine
10
417.449258000000
20
132.949894000000
30
0.0
11
418.104145000000
21
133.119432000000
31
0.0
0
LINE
5
450
100
AcDbEntity
8
C-0
6
CONTINUOUS
62
6
100
AcDbLine
10
418.104145000000
20
133.119432000000
30
0.0
11
419.233918000000
21
133.414677000000
31
0.0
0
LINE
5
451
100
AcDbEntity
8
C-0
6
CONTINUOUS
62
6
100
AcDbLine
10
419.233918000000
20
133.414677000000
30
0.0
11
420.365519000000
21
133.718080000000
31
0.0
0
LINE
5
452
100
AcDbEntity
8
C-0
6
CONTINUOUS
62
6
100
AcDbLine
10
420.365519000000
20
133.718080000000
30
0.0
11
421.500103000000
21
134.034806000000
31
0.0
0
LINE
5
453
100
AcDbEntity
8
C-0
6
CONTINUOUS
62
6
100
AcDbLine
10
421.500103000000
20
134.034806000000
30
0.0
11
422.638826000000
21
134.370019000000
31
0.0
0
LINE
5
454
100
AcDbEntity
8
C-0
6
CONTINUOUS
62
6
100
AcDbLine
10
422.638826000000
20
134.370019000000
30
0.0
11
423.782845000000
21
134.728882000000
31
0.0
0
LINE
5
455
100
AcDbEntity
8
C-0
6
CONTINUOUS
62
6
100
AcDbLine
10
423.782845000000
20
134.728882000000
30
0.0
11
424.449258000000
21
134.949894000000
31
0.0
0
LINE
5
456
100
AcDbEntity
8
C-0
6
CONTINUOUS
62
6
100
AcDbLine
10
424.449258000000
20
134.949894000000
30
0.0
11
425.774300000000
21
135.419722000000
31
0.0
0
LINE
5
457
100
AcDbEntity
8
C-0
6
CONTINUOUS
62
6
100
AcDbLine
10
425.774300000000
20
135.419722000000
30
0.0
11
428.043326000000
21
136.341127000000
31
0.0
0
LINE
5
458
100
AcDbEntity
8
C-0
6
CONTINUOUS
62
6
100
AcDbLine
10
428.043326000000
20
136.341127000000
30
0.0
11
430.235825000000
21
137.422749000000
31
0.0
0
LINE
5
459
100
AcDbEntity
8
C-0
6
CONTINUOUS
62
6
100
AcDbLine
10
430.235825000000
20
137.422749000000
30
0.0
11
432.285672000000
21
138.686981000000
31
0.0
0
LINE
5
45a
100
AcDbEntity
8
C-0
6
CONTINUOUS
62
6
100
AcDbLine
10
432.285672000000
20
138.686981000000
30
0.0
11
434.126739000000
21
140.156213000000
31
0.0
0
LINE
5
45b
100
AcDbEntity
8
C-0
6
CONTINUOUS
62
6
100
AcDbLine
10
434.126739000000
20
140.156213000000
30
0.0
11
435.692902000000
21
141.852837000000
31
0.0
0
LINE
5
45c
100
AcDbEntity
8
C-0
6
CONTINUOUS
62
6
100
AcDbLine
10
435.692902000000
20
141.852837000000
30
0.0
11
436.449258000000
21
142.949894000000
31
0.0
0
LINE
5
45d
100
AcDbEntity
8
C-0
6
CONTINUOUS
62
6
100
AcDbLine
10
436.449258000000
20
142.949894000000
30
0.0
11
436.699963000000
21
143.381741000000
31
0.0
0
LINE
5
45e
100
AcDbEntity
8
C-0
6
CONTINUOUS
62
6
100
AcDbLine
10
436.699963000000
20
143.381741000000
30
0.0
11
437.094055000000
21
144.152062000000
31
0.0
0
LINE
5
45f
100
AcDbEntity
8
C-0
6
CONTINUOUS
62
6
100
AcDbLine
10
437.094055000000
20
144.152062000000
30
0.0
11
437.445337000000
21
144.950174000000
31
0.0
0
LINE
5
460
100
AcDbEntity
8
C-0
6
CONTINUOUS
62
6
100
AcDbLine
10
437.445337000000
20
144.950174000000
30
0.0
11
437.760188000000
21
145.770480000000
31
0.0
0
LINE
5
461
100
AcDbEntity
8
C-0
6
CONTINUOUS
62
6
100
AcDbLine
10
437.760188000000
20
145.770480000000
30
0.0
11
438.044991000000
21
146.607382000000
31
0.0
0
LINE
5
462
100
AcDbEntity
8
C-0
6
CONTINUOUS
62
6
100
AcDbLine
10
438.044991000000
20
146.607382000000
30
0.0
11
438.306128000000
21
147.455280000000
31
0.0
0
LINE
5
463
100
AcDbEntity
8
C-0
6
CONTINUOUS
62
6
100
AcDbLine
10
438.306128000000
20
147.455280000000
30
0.0
11
438.449258000000
21
147.949894000000
31
0.0
0
LINE
5
464
100
AcDbEntity
8
C-0
6
CONTINUOUS
62
6
100
AcDbLine
10
438.449258000000
20
147.949894000000
30
0.0
11
438.797409000000
21
149.232168000000
31
0.0
0
LINE
5
465
100
AcDbEntity
8
C-0
6
CONTINUOUS
62
6
100
AcDbLine
10
438.797409000000
20
149.232168000000
30
0.0
11
439.323941000000
21
151.453017000000
31
0.0
0
LINE
5
466
100
AcDbEntity
8
C-0
6
CONTINUOUS
62
6
100
AcDbLine
10
439.323941000000
20
151.453017000000
30
0.0
11
439.754076000000
21
153.684558000000
31
0.0
0
LINE
5
467
100
AcDbEntity
8
C-0
6
CONTINUOUS
62
6
100
AcDbLine
10
439.754076000000
20
153.684558000000
30
0.0
11
440.084245000000
21
155.924457000000
31
0.0
0
LINE
5
468
100
AcDbEntity
8
C-0
6
CONTINUOUS
62
6
100
AcDbLine
10
440.084245000000
20
155.924457000000
30
0.0
11
440.310879000000
21
158.170379000000
31
0.0
0
LINE
5
469
100
AcDbEntity
8
C-0
6
CONTINUOUS
62
6
100
AcDbLine
10
440.310879000000
20
158.170379000000
30
0.0
11
440.430410000000
21
160.419990000000
31
0.0
0
LINE
5
46a
100
AcDbEntity
8
C-0
6
CONTINUOUS
62
6
100
AcDbLine
10
440.430410000000
20
160.419990000000
30
0.0
11
440.449258000000
21
161.725535000000
31
0.0
0
LINE
5
46b
100
AcDbEntity
8
C-0
6
CONTINUOUS
62
6
100
AcDbLine
10
440.449258000000
20
161.725535000000
30
0.0
11
440.430410000000
21
163.031079000000
31
0.0
0
LINE
5
46c
100
AcDbEntity
8
C-0
6
CONTINUOUS
62
6
100
AcDbLine
10
440.430410000000
20
163.031079000000
30
0.0
11
440.310879000000
21
165.280690000000
31
0.0
0
LINE
5
46d
100
AcDbEntity
8
C-0
6
CONTINUOUS
62
6
100
AcDbLine
10
440.310879000000
20
165.280690000000
30
0.0
11
440.084245000000
21
167.526612000000
31
0.0
0
LINE
5
46e
100
AcDbEntity
8
C-0
6
CONTINUOUS
62
6
100
AcDbLine
10
440.084245000000
20
167.526612000000
30
0.0
11
439.754076000000
21
169.766511000000
31
0.0
0
LINE
5
46f
100
AcDbEntity
8
C-0
6
CONTINUOUS
62
6
100
AcDbLine
10
439.754076000000
20
169.766511000000
30
0.0
11
439.323941000000
21
171.998052000000
31
0.0
0
LINE
5
470
100
AcDbEntity
8
C-0
6
CONTINUOUS
62
6
100
AcDbLine
10
439.323941000000
20
171.998052000000
30
0.0
11
438.797409000000
21
174.218901000000
31
0.0
0
LINE
5
471
100
AcDbEntity
8
C-0
6
CONTINUOUS
62
6
100
AcDbLine
10
438.797409000000
20
174.218901000000
30
0.0
11
438.449258000000
21
175.501175000000
31
0.0
0
LINE
5
472
100
AcDbEntity
8
C-0
6
CONTINUOUS
62
6
100
AcDbLine
10
438.449258000000
20
175.501175000000
30
0.0
11
438.306128000000
21
175.995789000000
31
0.0
0
LINE
5
473
100
AcDbEntity
8
C-0
6
CONTINUOUS
62
6
100
AcDbLine
10
438.306128000000
20
175.995789000000
30
0.0
11
438.044991000000
21
176.843688000000
31
0.0
0
LINE
5
474
100
AcDbEntity
8
C-0
6
CONTINUOUS
62
6
100
AcDbLine
10
438.044991000000
20
176.843688000000
30
0.0
11
437.760188000000
21
177.680589000000
31
0.0
0
LINE
5
475
100
AcDbEntity
8
C-0
6
CONTINUOUS
62
6
100
AcDbLine
10
437.760188000000
20
177.680589000000
30
0.0
11
437.445337000000
21
178.500895000000
31
0.0
0
LINE
5
476
100
AcDbEntity
8
C-0
6
CONTINUOUS
62
6
100
AcDbLine
10
437.445337000000
20
178.500895000000
30
0.0
11
437.094055000000
21
179.299007000000
31
0.0
0
LINE
5
477
100
AcDbEntity
8
C-0
6
CONTINUOUS
62
6
100
AcDbLine
10
437.094055000000
20
179.299007000000
30
0.0
11
436.699963000000
21
180.069329000000
31
0.0
0
LINE
5
478
100
AcDbEntity
8
C-0
6
CONTINUOUS
62
6
100
AcDbLine
10
436.699963000000
20
180.069329000000
30
0.0
11
436.449258000000
21
180.501175000000
31
0.0
0
LINE
5
479
100
AcDbEntity
8
C-0
6
CONTINUOUS
62
6
100
AcDbLine
10
436.449258000000
20
180.501175000000
30
0.0
11
435.692902000000
21
181.598232000000
31
0.0
0
LINE
5
47a
100
AcDbEntity
8
C-0
6
CONTINUOUS
62
6
100
AcDbLine
10
435.692902000000
20
181.598232000000
30
0.0
11
434.126739000000
21
183.294857000000
31
0.0
0
LINE
5
47b
100
AcDbEntity
8
C-0
6
CONTINUOUS
62
6
100
AcDbLine
10
434.126739000000
20
183.294857000000
30
0.0
11
432.285672000000
21
184.764088000000
31
0.0
0
LINE
5
47c
100
AcDbEntity
8
C-0
6
CONTINUOUS
62
6
100
AcDbLine
10
432.285672000000
20
184.764088000000
30
0.0
11
430.235825000000
21
186.028320000000
31
0.0
0
LINE
5
47d
100
AcDbEntity
8
C-0
6
CONTINUOUS
62
6
100
AcDbLine
10
430.235825000000
20
186.028320000000
30
0.0
11
428.043326000000
21
187.109942000000
31
0.0
0
LINE
5
47e
100
AcDbEntity
8
C-0
6
CONTINUOUS
62
6
100
AcDbLine
10
428.043326000000
20
187.109942000000
30
0.0
11
425.774300000000
21
188.031347000000
31
0.0
0
LINE
5
47f
100
AcDbEntity
8
C-0
6
CONTINUOUS
62
6
100
AcDbLine
10
425.774300000000
20
188.031347000000
30
0.0
11
424.449258000000
21
188.501175000000
31
0.0
0
LINE
5
480
100
AcDbEntity
8
C-0
6
CONTINUOUS
62
6
100
AcDbLine
10
424.449258000000
20
188.501175000000
30
0.0
11
423.782845000000
21
188.722187000000
31
0.0
0
LINE
5
481
100
AcDbEntity
8
C-0
6
CONTINUOUS
62
6
100
AcDbLine
10
423.782845000000
20
188.722187000000
30
0.0
11
422.638826000000
21
189.081051000000
31
0.0
0
LINE
5
482
100
AcDbEntity
8
C-0
6
CONTINUOUS
62
6
100
AcDbLine
10
422.638826000000
20
189.081051000000
30
0.0
11
421.500103000000
21
189.416263000000
31
0.0
0
LINE
5
483
100
AcDbEntity
8
C-0
6
CONTINUOUS
62
6
100
AcDbLine
10
421.500103000000
20
189.416263000000
30
0.0
11
420.365519000000
21
189.732989000000
31
0.0
0
LINE
5
484
100
AcDbEntity
8
C-0
6
CONTINUOUS
62
6
100
AcDbLine
10
420.365519000000
20
189.732989000000
30
0.0
11
419.233918000000
21
190.036393000000
31
0.0
0
LINE
5
485
100
AcDbEntity
8
C-0
6
CONTINUOUS
62
6
100
AcDbLine
10
419.233918000000
20
190.036393000000
30
0.0
11
418.104145000000
21
190.331637000000
31
0.0
0
LINE
5
486
100
AcDbEntity
8
C-0
6
CONTINUOUS
62
6
100
AcDbLine
10
418.104145000000
20
190.331637000000
30
0.0
11
417.449258000000
21
190.501175000000
31
0.0
0
LINE
5
487
100
AcDbEntity
8
C-0
6
CONTINUOUS
62
6
100
AcDbLine
10
453.449258000000
20
190.501175000000
30
0.0
11
473.785860000000
21
146.889189000000
31
0.0
0
LINE
5
488
100
AcDbEntity
8
C-0
6
CONTINUOUS
62
6
100
AcDbLine
10
494.122463000000
20
190.501175000000
30
0.0
11
473.785860000000
21
146.889189000000
31
0.0
0
LINE
5
489
100
AcDbEntity
8
C-0
6
CONTINUOUS
62
6
100
AcDbLine
10
440.449258000000
20
190.501175000000
30
0.0
11
467.285860000000
21
132.949894000000
31
0.0
0
LINE
5
48a
100
AcDbEntity
8
C-0
6
CONTINUOUS
62
6
100
AcDbLine
10
480.285860000000
20
132.949894000000
30
0.0
11
507.122463000000
21
190.501175000000
31
0.0
0
LINE
5
48b
100
AcDbEntity
8
C-0
6
CONTINUOUS
62
6
100
AcDbLine
10
517.122463000000
20
190.501175000000
30
0.0
11
490.285860000000
21
132.949894000000
31
0.0
0
LINE
5
48c
100
AcDbEntity
8
C-0
6
CONTINUOUS
62
6
100
AcDbLine
10
530.476803000000
20
190.501175000000
30
0.0
11
557.313406000000
21
132.949894000000
31
0.0
0
LINE
5
48d
100
AcDbEntity
8
C-0
6
CONTINUOUS
62
6
100
AcDbLine
10
331.245926000000
20
145.949894000000
30
0.0
11
358.694729000000
21
145.949894000000
31
0.0
0
LINE
5
48e
100
AcDbEntity
8
C-0
6
CONTINUOUS
62
6
100
AcDbLine
10
509.347860000000
20
145.949894000000
30
0.0
11
538.251406000000
21
145.949894000000
31
0.0
0
LINE
5
48f
100
AcDbEntity
8
C-0
6
CONTINUOUS
62
6
100
AcDbLine
10
514.010936000000
20
155.949894000000
30
0.0
11
533.588329000000
21
155.949894000000
31
0.0
0
LINE
5
490
100
AcDbEntity
8
C-0
6
CONTINUOUS
62
6
100
AcDbLine
10
576.078890000000
20
180.501175000000
30
0.0
11
605.792228000000
21
132.949894000000
31
0.0
0
LINE
5
491
100
AcDbEntity
8
C-0
6
CONTINUOUS
62
6
100
AcDbLine
10
611.866484000000
20
143.986932000000
30
0.0
11
611.866484000000
21
190.501175000000
31
0.0
0
LINE
5
492
100
AcDbEntity
8
C-0
6
CONTINUOUS
62
6
100
AcDbLine
10
622.866484000000
20
132.949894000000
30
0.0
11
622.866484000000
21
190.501175000000
31
0.0
0
LINE
5
493
100
AcDbEntity
8
C-0
6
CONTINUOUS
62
6
100
AcDbLine
10
582.801159000000
20
190.501175000000
30
0.0
11
611.866484000000
21
143.986932000000
31
0.0
0
LINE
5
494
100
AcDbEntity
8
C-0
6
CONTINUOUS
62
6
100
AcDbLine
10
563.078890000000
20
190.501175000000
30
0.0
11
563.078890000000
21
132.949894000000
31
0.0
0
LINE
5
495
100
AcDbEntity
8
C-0
6
CONTINUOUS
62
6
100
AcDbLine
10
417.449258000000
20
180.501175000000
30
0.0
11
397.449258000000
21
180.501175000000
31
0.0
0
LINE
5
496
100
AcDbEntity
8
C-0
6
CONTINUOUS
62
6
100
AcDbLine
10
397.449258000000
20
142.949894000000
30
0.0
11
417.449258000000
21
142.949894000000
31
0.0
0
LINE
5
497
100
AcDbEntity
8
C-0
6
CONTINUOUS
62
6
100
AcDbLine
10
533.588329000000
20
155.949894000000
30
0.0
11
523.799633000000
21
176.941822000000
31
0.0
0
LINE
5
498
100
AcDbEntity
8
C-0
6
CONTINUOUS
62
6
100
AcDbLine
10
514.010936000000
20
155.949894000000
30
0.0
11
523.799633000000
21
176.941822000000
31
0.0
0
LINE
5
499
100
AcDbEntity
8
C-0
6
CONTINUOUS
62
6
100
AcDbLine
10
503.285860000000
20
132.949894000000
30
0.0
11
509.347860000000
21
145.949894000000
31
0.0
0
LINE
5
49a
100
AcDbEntity
8
C-0
6
CONTINUOUS
62
6
100
AcDbLine
10
544.313406000000
20
132.949894000000
30
0.0
11
538.251406000000
21
145.949894000000
31
0.0
0
LINE
5
49b
100
AcDbEntity
8
C-0
6
CONTINUOUS
62
6
100
AcDbLine
10
576.078890000000
20
180.501175000000
30
0.0
11
576.078890000000
21
132.949894000000
31
0.0
0
LINE
5
49c
100
AcDbEntity
8
C-0
6
CONTINUOUS
62
6
100
AcDbLine
10
312.183927000000
20
132.949894000000
30
0.0
11
325.183927000000
21
132.949894000000
31
0.0
0
LINE
5
49d
100
AcDbEntity
8
C-0
6
CONTINUOUS
62
6
100
AcDbLine
10
364.756729000000
20
132.949894000000
30
0.0
11
377.756729000000
21
132.949894000000
31
0.0
0
LINE
5
49e
100
AcDbEntity
8
C-0
6
CONTINUOUS
62
6
100
AcDbLine
10
350.920126000000
20
190.501175000000
30
0.0
11
377.756729000000
21
132.949894000000
31
0.0
0
LINE
5
49f
100
AcDbEntity
8
C-0
6
CONTINUOUS
62
6
100
AcDbLine
10
350.920126000000
20
190.501175000000
30
0.0
11
339.020530000000
21
190.501175000000
31
0.0
0
LINE
5
4a0
100
AcDbEntity
8
C-0
6
CONTINUOUS
62
6
100
AcDbLine
10
384.449258000000
20
190.501175000000
30
0.0
11
384.449258000000
21
132.949894000000
31
0.0
0
LINE
5
4a1
100
AcDbEntity
8
C-0
6
CONTINUOUS
62
6
100
AcDbLine
10
397.449258000000
20
180.501175000000
30
0.0
11
397.449258000000
21
142.949894000000
31
0.0
0
LINE
5
4a2
100
AcDbEntity
8
C-0
6
CONTINUOUS
62
6
100
AcDbLine
10
384.449258000000
20
132.949894000000
30
0.0
11
417.449258000000
21
132.949894000000
31
0.0
0
LINE
5
4a3
100
AcDbEntity
8
C-0
6
CONTINUOUS
62
6
100
AcDbLine
10
417.449258000000
20
190.501175000000
30
0.0
11
384.449258000000
21
190.501175000000
31
0.0
0
LINE
5
4a4
100
AcDbEntity
8
C-0
6
CONTINUOUS
62
6
100
AcDbLine
10
453.449258000000
20
190.501175000000
30
0.0
11
440.449258000000
21
190.501175000000
31
0.0
0
LINE
5
4a5
100
AcDbEntity
8
C-0
6
CONTINUOUS
62
6
100
AcDbLine
10
467.285860000000
20
132.949894000000
30
0.0
11
480.285860000000
21
132.949894000000
31
0.0
0
LINE
5
4a6
100
AcDbEntity
8
C-0
6
CONTINUOUS
62
6
100
AcDbLine
10
507.122463000000
20
190.501175000000
30
0.0
11
494.122463000000
21
190.501175000000
31
0.0
0
LINE
5
4a7
100
AcDbEntity
8
C-0
6
CONTINUOUS
62
6
100
AcDbLine
10
490.285860000000
20
132.949894000000
30
0.0
11
503.285860000000
21
132.949894000000
31
0.0
0
LINE
5
4a8
100
AcDbEntity
8
C-0
6
CONTINUOUS
62
6
100
AcDbLine
10
544.313406000000
20
132.949894000000
30
0.0
11
557.313406000000
21
132.949894000000
31
0.0
0
LINE
5
4a9
100
AcDbEntity
8
C-0
6
CONTINUOUS
62
6
100
AcDbLine
10
563.078890000000
20
132.949894000000
30
0.0
11
576.078890000000
21
132.949894000000
31
0.0
0
LINE
5
4aa
100
AcDbEntity
8
C-0
6
CONTINUOUS
62
6
100
AcDbLine
10
605.792228000000
20
132.949894000000
30
0.0
11
622.866484000000
21
132.949894000000
31
0.0
0
LINE
5
4ab
100
AcDbEntity
8
C-0
6
CONTINUOUS
62
6
100
AcDbLine
10
622.866484000000
20
190.501175000000
30
0.0
11
611.866484000000
21
190.501175000000
31
0.0
0
LINE
5
4ac
100
AcDbEntity
8
C-0
6
CONTINUOUS
62
6
100
AcDbLine
10
582.801159000000
20
190.501175000000
30
0.0
11
563.078890000000
21
190.501175000000
31
0.0
0
LINE
5
4ad
100
AcDbEntity
8
C-0
6
CONTINUOUS
62
6
100
AcDbLine
10
530.476803000000
20
190.501175000000
30
0.0
11
517.122463000000
21
190.501175000000
31
0.0
0
LINE
5
4ae
100
AcDbEntity
8
C-0
6
CONTINUOUS
62
6
100
AcDbLine
10
312.907301000000
20
134.501175000000
30
0.0
11
325.907301000000
21
134.501175000000
31
0.0
0
LINE
5
4af
100
AcDbEntity
8
C-0
6
CONTINUOUS
62
6
100
AcDbLine
10
364.033355000000
20
134.501175000000
30
0.0
11
377.033355000000
21
134.501175000000
31
0.0
0
LINE
5
4b0
100
AcDbEntity
8
C-0
6
CONTINUOUS
62
6
100
AcDbLine
10
384.449258000000
20
134.501175000000
30
0.0
11
423.056938000000
21
134.501175000000
31
0.0
0
LINE
5
4b1
100
AcDbEntity
8
C-0
6
CONTINUOUS
62
6
100
AcDbLine
10
466.562486000000
20
134.501175000000
30
0.0
11
481.009234000000
21
134.501175000000
31
0.0
0
LINE
5
4b2
100
AcDbEntity
8
C-0
6
CONTINUOUS
62
6
100
AcDbLine
10
491.009234000000
20
134.501175000000
30
0.0
11
504.009234000000
21
134.501175000000
31
0.0
0
LINE
5
4b3
100
AcDbEntity
8
C-0
6
CONTINUOUS
62
6
100
AcDbLine
10
543.590032000000
20
134.501175000000
30
0.0
11
556.590032000000
21
134.501175000000
31
0.0
0
LINE
5
4b4
100
AcDbEntity
8
C-0
6
CONTINUOUS
62
6
100
AcDbLine
10
563.078890000000
20
134.501175000000
30
0.0
11
576.078890000000
21
134.501175000000
31
0.0
0
LINE
5
4b5
100
AcDbEntity
8
C-0
6
CONTINUOUS
62
6
100
AcDbLine
10
604.822880000000
20
134.501175000000
30
0.0
11
622.866484000000
21
134.501175000000
31
0.0
0
LINE
5
4b6
100
AcDbEntity
8
C-0
6
CONTINUOUS
62
6
100
AcDbLine
10
313.839916000000
20
136.501175000000
30
0.0
11
326.839916000000
21
136.501175000000
31
0.0
0
LINE
5
4b7
100
AcDbEntity
8
C-0
6
CONTINUOUS
62
6
100
AcDbLine
10
363.100739000000
20
136.501175000000
30
0.0
11
376.100739000000
21
136.501175000000
31
0.0
0
LINE
5
4b8
100
AcDbEntity
8
C-0
6
CONTINUOUS
62
6
100
AcDbLine
10
384.449258000000
20
136.501175000000
30
0.0
11
428.367750000000
21
136.501175000000
31
0.0
0
LINE
5
4b9
100
AcDbEntity
8
C-0
6
CONTINUOUS
62
6
100
AcDbLine
10
465.629871000000
20
136.501175000000
30
0.0
11
481.941850000000
21
136.501175000000
31
0.0
0
LINE
5
4ba
100
AcDbEntity
8
C-0
6
CONTINUOUS
62
6
100
AcDbLine
10
491.941850000000
20
136.501175000000
30
0.0
11
504.941850000000
21
136.501175000000
31
0.0
0
LINE
5
4bb
100
AcDbEntity
8
C-0
6
CONTINUOUS
62
6
100
AcDbLine
10
542.657416000000
20
136.501175000000
30
0.0
11
555.657416000000
21
136.501175000000
31
0.0
0
LINE
5
4bc
100
AcDbEntity
8
C-0
6
CONTINUOUS
62
6
100
AcDbLine
10
563.078890000000
20
136.501175000000
30
0.0
11
576.078890000000
21
136.501175000000
31
0.0
0
LINE
5
4bd
100
AcDbEntity
8
C-0
6
CONTINUOUS
62
6
100
AcDbLine
10
603.573142000000
20
136.501175000000
30
0.0
11
622.866484000000
21
136.501175000000
31
0.0
0
LINE
5
4be
100
AcDbEntity
8
C-0
6
CONTINUOUS
62
6
100
AcDbLine
10
314.772531000000
20
138.501175000000
30
0.0
11
327.772531000000
21
138.501175000000
31
0.0
0
LINE
5
4bf
100
AcDbEntity
8
C-0
6
CONTINUOUS
62
6
100
AcDbLine
10
362.168124000000
20
138.501175000000
30
0.0
11
375.168124000000
21
138.501175000000
31
0.0
0
LINE
5
4c0
100
AcDbEntity
8
C-0
6
CONTINUOUS
62
6
100
AcDbLine
10
384.449258000000
20
138.501175000000
30
0.0
11
431.984403000000
21
138.501175000000
31
0.0
0
LINE
5
4c1
100
AcDbEntity
8
C-0
6
CONTINUOUS
62
6
100
AcDbLine
10
464.697256000000
20
138.501175000000
30
0.0
11
482.874465000000
21
138.501175000000
31
0.0
0
LINE
5
4c2
100
AcDbEntity
8
C-0
6
CONTINUOUS
62
6
100
AcDbLine
10
492.874465000000
20
138.501175000000
30
0.0
11
505.874465000000
21
138.501175000000
31
0.0
0
LINE
5
4c3
100
AcDbEntity
8
C-0
6
CONTINUOUS
62
6
100
AcDbLine
10
541.724801000000
20
138.501175000000
30
0.0
11
554.724801000000
21
138.501175000000
31
0.0
0
LINE
5
4c4
100
AcDbEntity
8
C-0
6
CONTINUOUS
62
6
100
AcDbLine
10
563.078890000000
20
138.501175000000
30
0.0
11
576.078890000000
21
138.501175000000
31
0.0
0
LINE
5
4c5
100
AcDbEntity
8
C-0
6
CONTINUOUS
62
6
100
AcDbLine
10
602.323403000000
20
138.501175000000
30
0.0
11
622.866484000000
21
138.501175000000
31
0.0
0
LINE
5
4c6
100
AcDbEntity
8
C-0
6
CONTINUOUS
62
6
100
AcDbLine
10
315.705147000000
20
140.501175000000
30
0.0
11
328.705147000000
21
140.501175000000
31
0.0
0
LINE
5
4c7
100
AcDbEntity
8
C-0
6
CONTINUOUS
62
6
100
AcDbLine
10
361.235509000000
20
140.501175000000
30
0.0
11
374.235509000000
21
140.501175000000
31
0.0
0
LINE
5
4c8
100
AcDbEntity
8
C-0
6
CONTINUOUS
62
6
100
AcDbLine
10
384.449258000000
20
140.501175000000
30
0.0
11
434.445176000000
21
140.501175000000
31
0.0
0
LINE
5
4c9
100
AcDbEntity
8
C-0
6
CONTINUOUS
62
6
100
AcDbLine
10
463.764640000000
20
140.501175000000
30
0.0
11
483.807080000000
21
140.501175000000
31
0.0
0
LINE
5
4ca
100
AcDbEntity
8
C-0
6
CONTINUOUS
62
6
100
AcDbLine
10
493.807080000000
20
140.501175000000
30
0.0
11
506.807080000000
21
140.501175000000
31
0.0
0
LINE
5
4cb
100
AcDbEntity
8
C-0
6
CONTINUOUS
62
6
100
AcDbLine
10
540.792186000000
20
140.501175000000
30
0.0
11
553.792186000000
21
140.501175000000
31
0.0
0
LINE
5
4cc
100
AcDbEntity
8
C-0
6
CONTINUOUS
62
6
100
AcDbLine
10
563.078890000000
20
140.501175000000
30
0.0
11
576.078890000000
21
140.501175000000
31
0.0
0
LINE
5
4cd
100
AcDbEntity
8
C-0
6
CONTINUOUS
62
6
100
AcDbLine
10
601.073664000000
20
140.501175000000
30
0.0
11
622.866484000000
21
140.501175000000
31
0.0
0
LINE
5
4ce
100
AcDbEntity
8
C-0
6
CONTINUOUS
62
6
100
AcDbLine
10
316.637762000000
20
142.501175000000
30
0.0
11
329.637762000000
21
142.501175000000
31
0.0
0
LINE
5
4cf
100
AcDbEntity
8
C-0
6
CONTINUOUS
62
6
100
AcDbLine
10
360.302894000000
20
142.501175000000
30
0.0
11
373.302894000000
21
142.501175000000
31
0.0
0
LINE
5
4d0
100
AcDbEntity
8
C-0
6
CONTINUOUS
62
6
100
AcDbLine
10
384.449258000000
20
142.501175000000
30
0.0
11
436.139892000000
21
142.501175000000
31
0.0
0
LINE
5
4d1
100
AcDbEntity
8
C-0
6
CONTINUOUS
62
6
100
AcDbLine
10
462.832025000000
20
142.501175000000
30
0.0
11
484.739696000000
21
142.501175000000
31
0.0
0
LINE
5
4d2
100
AcDbEntity
8
C-0
6
CONTINUOUS
62
6
100
AcDbLine
10
494.739696000000
20
142.501175000000
30
0.0
11
507.739696000000
21
142.501175000000
31
0.0
0
LINE
5
4d3
100
AcDbEntity
8
C-0
6
CONTINUOUS
62
6
100
AcDbLine
10
539.859570000000
20
142.501175000000
30
0.0
11
552.859570000000
21
142.501175000000
31
0.0
0
LINE
5
4d4
100
AcDbEntity
8
C-0
6
CONTINUOUS
62
6
100
AcDbLine
10
563.078890000000
20
142.501175000000
30
0.0
11
576.078890000000
21
142.501175000000
31
0.0
0
LINE
5
4d5
100
AcDbEntity
8
C-0
6
CONTINUOUS
62
6
100
AcDbLine
10
599.823926000000
20
142.501175000000
30
0.0
11
622.866484000000
21
142.501175000000
31
0.0
0
LINE
5
4d6
100
AcDbEntity
8
C-0
6
CONTINUOUS
62
6
100
AcDbLine
10
317.570377000000
20
144.501175000000
30
0.0
11
330.570377000000
21
144.501175000000
31
0.0
0
LINE
5
4d7
100
AcDbEntity
8
C-0
6
CONTINUOUS
62
6
100
AcDbLine
10
359.370278000000
20
144.501175000000
30
0.0
11
372.370278000000
21
144.501175000000
31
0.0
0
LINE
5
4d8
100
AcDbEntity
8
C-0
6
CONTINUOUS
62
6
100
AcDbLine
10
384.449258000000
20
144.501175000000
30
0.0
11
397.449258000000
21
144.501175000000
31
0.0
0
LINE
5
4d9
100
AcDbEntity
8
C-0
6
CONTINUOUS
62
6
100
AcDbLine
10
420.178010000000
20
144.501175000000
30
0.0
11
437.247714000000
21
144.501175000000
31
0.0
0
LINE
5
4da
100
AcDbEntity
8
C-0
6
CONTINUOUS
62
6
100
AcDbLine
10
461.899410000000
20
144.501175000000
30
0.0
11
485.672311000000
21
144.501175000000
31
0.0
0
LINE
5
4db
100
AcDbEntity
8
C-0
6
CONTINUOUS
62
6
100
AcDbLine
10
495.672311000000
20
144.501175000000
30
0.0
11
508.672311000000
21
144.501175000000
31
0.0
0
LINE
5
4dc
100
AcDbEntity
8
C-0
6
CONTINUOUS
62
6
100
AcDbLine
10
538.926955000000
20
144.501175000000
30
0.0
11
551.926955000000
21
144.501175000000
31
0.0
0
LINE
5
4dd
100
AcDbEntity
8
C-0
6
CONTINUOUS
62
6
100
AcDbLine
10
563.078890000000
20
144.501175000000
30
0.0
11
576.078890000000
21
144.501175000000
31
0.0
0
LINE
5
4de
100
AcDbEntity
8
C-0
6
CONTINUOUS
62
6
100
AcDbLine
10
598.574187000000
20
144.501175000000
30
0.0
11
611.545149000000
21
144.501175000000
31
0.0
0
LINE
5
4df
100
AcDbEntity
8
C-0
6
CONTINUOUS
62
6
100
AcDbLine
10
611.866484000000
20
144.501175000000
30
0.0
11
622.866484000000
21
144.501175000000
31
0.0
0
LINE
5
4e0
100
AcDbEntity
8
C-0
6
CONTINUOUS
62
6
100
AcDbLine
10
318.502993000000
20
146.501175000000
30
0.0
11
371.437663000000
21
146.501175000000
31
0.0
0
LINE
5
4e1
100
AcDbEntity
8
C-0
6
CONTINUOUS
62
6
100
AcDbLine
10
384.449258000000
20
146.501175000000
30
0.0
11
397.449258000000
21
146.501175000000
31
0.0
0
LINE
5
4e2
100
AcDbEntity
8
C-0
6
CONTINUOUS
62
6
100
AcDbLine
10
423.022124000000
20
146.501175000000
30
0.0
11
438.008848000000
21
146.501175000000
31
0.0
0
LINE
5
4e3
100
AcDbEntity
8
C-0
6
CONTINUOUS
62
6
100
AcDbLine
10
460.966794000000
20
146.501175000000
30
0.0
11
486.604926000000
21
146.501175000000
31
0.0
0
LINE
5
4e4
100
AcDbEntity
8
C-0
6
CONTINUOUS
62
6
100
AcDbLine
10
496.604926000000
20
146.501175000000
30
0.0
11
550.994340000000
21
146.501175000000
31
0.0
0
LINE
5
4e5
100
AcDbEntity
8
C-0
6
CONTINUOUS
62
6
100
AcDbLine
10
563.078890000000
20
146.501175000000
30
0.0
11
576.078890000000
21
146.501175000000
31
0.0
0
LINE
5
4e6
100
AcDbEntity
8
C-0
6
CONTINUOUS
62
6
100
AcDbLine
10
597.324448000000
20
146.501175000000
30
0.0
11
610.295411000000
21
146.501175000000
31
0.0
0
LINE
5
4e7
100
AcDbEntity
8
C-0
6
CONTINUOUS
62
6
100
AcDbLine
10
611.866484000000
20
146.501175000000
30
0.0
11
622.866484000000
21
146.501175000000
31
0.0
0
LINE
5
4e8
100
AcDbEntity
8
C-0
6
CONTINUOUS
62
6
100
AcDbLine
10
319.435608000000
20
148.501175000000
30
0.0
11
370.505048000000
21
148.501175000000
31
0.0
0
LINE
5
4e9
100
AcDbEntity
8
C-0
6
CONTINUOUS
62
6
100
AcDbLine
10
384.449258000000
20
148.501175000000
30
0.0
11
397.449258000000
21
148.501175000000
31
0.0
0
LINE
5
4ea
100
AcDbEntity
8
C-0
6
CONTINUOUS
62
6
100
AcDbLine
10
424.839902000000
20
148.501175000000
30
0.0
11
438.598936000000
21
148.501175000000
31
0.0
0
LINE
5
4eb
100
AcDbEntity
8
C-0
6
CONTINUOUS
62
6
100
AcDbLine
10
460.034179000000
20
148.501175000000
30
0.0
11
473.034179000000
21
148.501175000000
31
0.0
0
LINE
5
4ec
100
AcDbEntity
8
C-0
6
CONTINUOUS
62
6
100
AcDbLine
10
474.537542000000
20
148.501175000000
30
0.0
11
487.537542000000
21
148.501175000000
31
0.0
0
LINE
5
4ed
100
AcDbEntity
8
C-0
6
CONTINUOUS
62
6
100
AcDbLine
10
497.537542000000
20
148.501175000000
30
0.0
11
550.061724000000
21
148.501175000000
31
0.0
0
LINE
5
4ee
100
AcDbEntity
8
C-0
6
CONTINUOUS
62
6
100
AcDbLine
10
563.078890000000
20
148.501175000000
30
0.0
11
576.078890000000
21
148.501175000000
31
0.0
0
LINE
5
4ef
100
AcDbEntity
8
C-0
6
CONTINUOUS
62
6
100
AcDbLine
10
596.074709000000
20
148.501175000000
30
0.0
11
609.045672000000
21
148.501175000000
31
0.0
0
LINE
5
4f0
100
AcDbEntity
8
C-0
6
CONTINUOUS
62
6
100
AcDbLine
10
611.866484000000
20
148.501175000000
30
0.0
11
622.866484000000
21
148.501175000000
31
0.0
0
LINE
5
4f1
100
AcDbEntity
8
C-0
6
CONTINUOUS
62
6
100
AcDbLine
10
320.368223000000
20
150.501175000000
30
0.0
11
369.572432000000
21
150.501175000000
31
0.0
0
LINE
5
4f2
100
AcDbEntity
8
C-0
6
CONTINUOUS
62
6
100
AcDbLine
10
384.449258000000
20
150.501175000000
30
0.0
11
397.449258000000
21
150.501175000000
31
0.0
0
LINE
5
4f3
100
AcDbEntity
8
C-0
6
CONTINUOUS
62
6
100
AcDbLine
10
425.923791000000
20
150.501175000000
30
0.0
11
439.098273000000
21
150.501175000000
31
0.0
0
LINE
5
4f4
100
AcDbEntity
8
C-0
6
CONTINUOUS
62
6
100
AcDbLine
10
459.101564000000
20
150.501175000000
30
0.0
11
472.101564000000
21
150.501175000000
31
0.0
0
LINE
5
4f5
100
AcDbEntity
8
C-0
6
CONTINUOUS
62
6
100
AcDbLine
10
475.470157000000
20
150.501175000000
30
0.0
11
488.470157000000
21
150.501175000000
31
0.0
0
LINE
5
4f6
100
AcDbEntity
8
C-0
6
CONTINUOUS
62
6
100
AcDbLine
10
498.470157000000
20
150.501175000000
30
0.0
11
549.129109000000
21
150.501175000000
31
0.0
0
LINE
5
4f7
100
AcDbEntity
8
C-0
6
CONTINUOUS
62
6
100
AcDbLine
10
563.078890000000
20
150.501175000000
30
0.0
11
576.078890000000
21
150.501175000000
31
0.0
0
LINE
5
4f8
100
AcDbEntity
8
C-0
6
CONTINUOUS
62
6
100
AcDbLine
10
594.824971000000
20
150.501175000000
30
0.0
11
607.795933000000
21
150.501175000000
31
0.0
0
LINE
5
4f9
100
AcDbEntity
8
C-0
6
CONTINUOUS
62
6
100
AcDbLine
10
611.866484000000
20
150.501175000000
30
0.0
11
622.866484000000
21
150.501175000000
31
0.0
0
LINE
5
4fa
100
AcDbEntity
8
C-0
6
CONTINUOUS
62
6
100
AcDbLine
10
321.300839000000
20
152.501175000000
30
0.0
11
368.639817000000
21
152.501175000000
31
0.0
0
LINE
5
4fb
100
AcDbEntity
8
C-0
6
CONTINUOUS
62
6
100
AcDbLine
10
384.449258000000
20
152.501175000000
30
0.0
11
397.449258000000
21
152.501175000000
31
0.0
0
LINE
5
4fc
100
AcDbEntity
8
C-0
6
CONTINUOUS
62
6
100
AcDbLine
10
426.602074000000
20
152.501175000000
30
0.0
11
439.525976000000
21
152.501175000000
31
0.0
0
LINE
5
4fd
100
AcDbEntity
8
C-0
6
CONTINUOUS
62
6
100
AcDbLine
10
458.168949000000
20
152.501175000000
30
0.0
11
471.168949000000
21
152.501175000000
31
0.0
0
LINE
5
4fe
100
AcDbEntity
8
C-0
6
CONTINUOUS
62
6
100
AcDbLine
10
476.402772000000
20
152.501175000000
30
0.0
11
489.402772000000
21
152.501175000000
31
0.0
0
LINE
5
4ff
100
AcDbEntity
8
C-0
6
CONTINUOUS
62
6
100
AcDbLine
10
499.402772000000
20
152.501175000000
30
0.0
11
548.196494000000
21
152.501175000000
31
0.0
0
LINE
5
500
100
AcDbEntity
8
C-0
6
CONTINUOUS
62
6
100
AcDbLine
10
563.078890000000
20
152.501175000000
30
0.0
11
576.078890000000
21
152.501175000000
31
0.0
0
LINE
5
501
100
AcDbEntity
8
C-0
6
CONTINUOUS
62
6
100
AcDbLine
10
593.575232000000
20
152.501175000000
30
0.0
11
606.546194000000
21
152.501175000000
31
0.0
0
LINE
5
502
100
AcDbEntity
8
C-0
6
CONTINUOUS
62
6
100
AcDbLine
10
611.866484000000
20
152.501175000000
30
0.0
11
622.866484000000
21
152.501175000000
31
0.0
0
LINE
5
503
100
AcDbEntity
8
C-0
6
CONTINUOUS
62
6
100
AcDbLine
10
322.233454000000
20
154.501175000000
30
0.0
11
367.707202000000
21
154.501175000000
31
0.0
0
LINE
5
504
100
AcDbEntity
8
C-0
6
CONTINUOUS
62
6
100
AcDbLine
10
384.449258000000
20
154.501175000000
30
0.0
11
397.449258000000
21
154.501175000000
31
0.0
0
LINE
5
505
100
AcDbEntity
8
C-0
6
CONTINUOUS
62
6
100
AcDbLine
10
427.015537000000
20
154.501175000000
30
0.0
11
439.874448000000
21
154.501175000000
31
0.0
0
LINE
5
506
100
AcDbEntity
8
C-0
6
CONTINUOUS
62
6
100
AcDbLine
10
457.236333000000
20
154.501175000000
30
0.0
11
470.236333000000
21
154.501175000000
31
0.0
0
LINE
5
507
100
AcDbEntity
8
C-0
6
CONTINUOUS
62
6
100
AcDbLine
10
477.335387000000
20
154.501175000000
30
0.0
11
490.335387000000
21
154.501175000000
31
0.0
0
LINE
5
508
100
AcDbEntity
8
C-0
6
CONTINUOUS
62
6
100
AcDbLine
10
500.335387000000
20
154.501175000000
30
0.0
11
547.263878000000
21
154.501175000000
31
0.0
0
LINE
5
509
100
AcDbEntity
8
C-0
6
CONTINUOUS
62
6
100
AcDbLine
10
563.078890000000
20
154.501175000000
30
0.0
11
576.078890000000
21
154.501175000000
31
0.0
0
LINE
5
50a
100
AcDbEntity
8
C-0
6
CONTINUOUS
62
6
100
AcDbLine
10
592.325493000000
20
154.501175000000
30
0.0
11
605.296456000000
21
154.501175000000
31
0.0
0
LINE
5
50b
100
AcDbEntity
8
C-0
6
CONTINUOUS
62
6
100
AcDbLine
10
611.866484000000
20
154.501175000000
30
0.0
11
622.866484000000
21
154.501175000000
31
0.0
0
LINE
5
50c
100
AcDbEntity
8
C-0
6
CONTINUOUS
62
6
100
AcDbLine
10
323.166069000000
20
156.501175000000
30
0.0
11
336.166069000000
21
156.501175000000
31
0.0
0
LINE
5
50d
100
AcDbEntity
8
C-0
6
CONTINUOUS
62
6
100
AcDbLine
10
353.774586000000
20
156.501175000000
30
0.0
11
366.774586000000
21
156.501175000000
31
0.0
0
LINE
5
50e
100
AcDbEntity
8
C-0
6
CONTINUOUS
62
6
100
AcDbLine
10
384.449258000000
20
156.501175000000
30
0.0
11
397.449258000000
21
156.501175000000
31
0.0
0
LINE
5
50f
100
AcDbEntity
8
C-0
6
CONTINUOUS
62
6
100
AcDbLine
10
427.258731000000
20
156.501175000000
30
0.0
11
440.142441000000
21
156.501175000000
31
0.0
0
LINE
5
510
100
AcDbEntity
8
C-0
6
CONTINUOUS
62
6
100
AcDbLine
10
456.303718000000
20
156.501175000000
30
0.0
11
469.303718000000
21
156.501175000000
31
0.0
0
LINE
5
511
100
AcDbEntity
8
C-0
6
CONTINUOUS
62
6
100
AcDbLine
10
478.268003000000
20
156.501175000000
30
0.0
11
491.268003000000
21
156.501175000000
31
0.0
0
LINE
5
512
100
AcDbEntity
8
C-0
6
CONTINUOUS
62
6
100
AcDbLine
10
501.268003000000
20
156.501175000000
30
0.0
11
514.268003000000
21
156.501175000000
31
0.0
0
LINE
5
513
100
AcDbEntity
8
C-0
6
CONTINUOUS
62
6
100
AcDbLine
10
533.331263000000
20
156.501175000000
30
0.0
11
546.331263000000
21
156.501175000000
31
0.0
0
LINE
5
514
100
AcDbEntity
8
C-0
6
CONTINUOUS
62
6
100
AcDbLine
10
563.078890000000
20
156.501175000000
30
0.0
11
576.078890000000
21
156.501175000000
31
0.0
0
LINE
5
515
100
AcDbEntity
8
C-0
6
CONTINUOUS
62
6
100
AcDbLine
10
591.075755000000
20
156.501175000000
30
0.0
11
604.046717000000
21
156.501175000000
31
0.0
0
LINE
5
516
100
AcDbEntity
8
C-0
6
CONTINUOUS
62
6
100
AcDbLine
10
611.866484000000
20
156.501175000000
30
0.0
11
622.866484000000
21
156.501175000000
31
0.0
0
LINE
5
517
100
AcDbEntity
8
C-0
6
CONTINUOUS
62
6
100
AcDbLine
10
324.098685000000
20
158.501175000000
30
0.0
11
337.098685000000
21
158.501175000000
31
0.0
0
LINE
5
518
100
AcDbEntity
8
C-0
6
CONTINUOUS
62
6
100
AcDbLine
10
352.841971000000
20
158.501175000000
30
0.0
11
365.841971000000
21
158.501175000000
31
0.0
0
LINE
5
519
100
AcDbEntity
8
C-0
6
CONTINUOUS
62
6
100
AcDbLine
10
384.449258000000
20
158.501175000000
30
0.0
11
397.449258000000
21
158.501175000000
31
0.0
0
LINE
5
51a
100
AcDbEntity
8
C-0
6
CONTINUOUS
62
6
100
AcDbLine
10
427.388370000000
20
158.501175000000
30
0.0
11
440.328456000000
21
158.501175000000
31
0.0
0
LINE
5
51b
100
AcDbEntity
8
C-0
6
CONTINUOUS
62
6
100
AcDbLine
10
455.371103000000
20
158.501175000000
30
0.0
11
468.371103000000
21
158.501175000000
31
0.0
0
LINE
5
51c
100
AcDbEntity
8
C-0
6
CONTINUOUS
62
6
100
AcDbLine
10
479.200618000000
20
158.501175000000
30
0.0
11
492.200618000000
21
158.501175000000
31
0.0
0
LINE
5
51d
100
AcDbEntity
8
C-0
6
CONTINUOUS
62
6
100
AcDbLine
10
502.200618000000
20
158.501175000000
30
0.0
11
515.200618000000
21
158.501175000000
31
0.0
0
LINE
5
51e
100
AcDbEntity
8
C-0
6
CONTINUOUS
62
6
100
AcDbLine
10
532.398648000000
20
158.501175000000
30
0.0
11
545.398648000000
21
158.501175000000
31
0.0
0
LINE
5
51f
100
AcDbEntity
8
C-0
6
CONTINUOUS
62
6
100
AcDbLine
10
563.078890000000
20
158.501175000000
30
0.0
11
576.078890000000
21
158.501175000000
31
0.0
0
LINE
5
520
100
AcDbEntity
8
C-0
6
CONTINUOUS
62
6
100
AcDbLine
10
589.826016000000
20
158.501175000000
30
0.0
11
602.796978000000
21
158.501175000000
31
0.0
0
LINE
5
521
100
AcDbEntity
8
C-0
6
CONTINUOUS
62
6
100
AcDbLine
10
611.866484000000
20
158.501175000000
30
0.0
11
622.866484000000
21
158.501175000000
31
0.0
0
LINE
5
522
100
AcDbEntity
8
C-0
6
CONTINUOUS
62
6
100
AcDbLine
10
325.031300000000
20
160.501175000000
30
0.0
11
338.031300000000
21
160.501175000000
31
0.0
0
LINE
5
523
100
AcDbEntity
8
C-0
6
CONTINUOUS
62
6
100
AcDbLine
10
351.909356000000
20
160.501175000000
30
0.0
11
364.909356000000
21
160.501175000000
31
0.0
0
LINE
5
524
100
AcDbEntity
8
C-0
6
CONTINUOUS
62
6
100
AcDbLine
10
384.449258000000
20
160.501175000000
30
0.0
11
397.449258000000
21
160.501175000000
31
0.0
0
LINE
5
525
100
AcDbEntity
8
C-0
6
CONTINUOUS
62
6
100
AcDbLine
10
427.442739000000
20
160.501175000000
30
0.0
11
440.431582000000
21
160.501175000000
31
0.0
0
LINE
5
526
100
AcDbEntity
8
C-0
6
CONTINUOUS
62
6
100
AcDbLine
10
454.438487000000
20
160.501175000000
30
0.0
11
467.438487000000
21
160.501175000000
31
0.0
0
LINE
5
527
100
AcDbEntity
8
C-0
6
CONTINUOUS
62
6
100
AcDbLine
10
480.133233000000
20
160.501175000000
30
0.0
11
493.133233000000
21
160.501175000000
31
0.0
0
LINE
5
528
100
AcDbEntity
8
C-0
6
CONTINUOUS
62
6
100
AcDbLine
10
503.133233000000
20
160.501175000000
30
0.0
11
516.133233000000
21
160.501175000000
31
0.0
0
LINE
5
529
100
AcDbEntity
8
C-0
6
CONTINUOUS
62
6
100
AcDbLine
10
531.466033000000
20
160.501175000000
30
0.0
11
544.466033000000
21
160.501175000000
31
0.0
0
LINE
5
52a
100
AcDbEntity
8
C-0
6
CONTINUOUS
62
6
100
AcDbLine
10
563.078890000000
20
160.501175000000
30
0.0
11
576.078890000000
21
160.501175000000
31
0.0
0
LINE
5
52b
100
AcDbEntity
8
C-0
6
CONTINUOUS
62
6
100
AcDbLine
10
588.576277000000
20
160.501175000000
30
0.0
11
601.547240000000
21
160.501175000000
31
0.0
0
LINE
5
52c
100
AcDbEntity
8
C-0
6
CONTINUOUS
62
6
100
AcDbLine
10
611.866484000000
20
160.501175000000
30
0.0
11
622.866484000000
21
160.501175000000
31
0.0
0
LINE
5
52d
100
AcDbEntity
8
C-0
6
CONTINUOUS
62
6
100
AcDbLine
10
325.963915000000
20
162.501175000000
30
0.0
11
338.963915000000
21
162.501175000000
31
0.0
0
LINE
5
52e
100
AcDbEntity
8
C-0
6
CONTINUOUS
62
6
100
AcDbLine
10
350.976740000000
20
162.501175000000
30
0.0
11
363.976740000000
21
162.501175000000
31
0.0
0
LINE
5
52f
100
AcDbEntity
8
C-0
6
CONTINUOUS
62
6
100
AcDbLine
10
384.449258000000
20
162.501175000000
30
0.0
11
397.449258000000
21
162.501175000000
31
0.0
0
LINE
5
530
100
AcDbEntity
8
C-0
6
CONTINUOUS
62
6
100
AcDbLine
10
427.445128000000
20
162.501175000000
30
0.0
11
440.438060000000
21
162.501175000000
31
0.0
0
LINE
5
531
100
AcDbEntity
8
C-0
6
CONTINUOUS
62
6
100
AcDbLine
10
453.505872000000
20
162.501175000000
30
0.0
11
466.505872000000
21
162.501175000000
31
0.0
0
LINE
5
532
100
AcDbEntity
8
C-0
6
CONTINUOUS
62
6
100
AcDbLine
10
481.065849000000
20
162.501175000000
30
0.0
11
494.065849000000
21
162.501175000000
31
0.0
0
LINE
5
533
100
AcDbEntity
8
C-0
6
CONTINUOUS
62
6
100
AcDbLine
10
504.065849000000
20
162.501175000000
30
0.0
11
517.065849000000
21
162.501175000000
31
0.0
0
LINE
5
534
100
AcDbEntity
8
C-0
6
CONTINUOUS
62
6
100
AcDbLine
10
530.533417000000
20
162.501175000000
30
0.0
11
543.533417000000
21
162.501175000000
31
0.0
0
LINE
5
535
100
AcDbEntity
8
C-0
6
CONTINUOUS
62
6
100
AcDbLine
10
563.078890000000
20
162.501175000000
30
0.0
11
576.078890000000
21
162.501175000000
31
0.0
0
LINE
5
536
100
AcDbEntity
8
C-0
6
CONTINUOUS
62
6
100
AcDbLine
10
587.326539000000
20
162.501175000000
30
0.0
11
600.297501000000
21
162.501175000000
31
0.0
0
LINE
5
537
100
AcDbEntity
8
C-0
6
CONTINUOUS
62
6
100
AcDbLine
10
611.866484000000
20
162.501175000000
30
0.0
11
622.866484000000
21
162.501175000000
31
0.0
0
LINE
5
538
100
AcDbEntity
8
C-0
6
CONTINUOUS
62
6
100
AcDbLine
10
326.896531000000
20
164.501175000000
30
0.0
11
339.896531000000
21
164.501175000000
31
0.0
0
LINE
5
539
100
AcDbEntity
8
C-0
6
CONTINUOUS
62
6
100
AcDbLine
10
350.044125000000
20
164.501175000000
30
0.0
11
363.044125000000
21
164.501175000000
31
0.0
0
LINE
5
53a
100
AcDbEntity
8
C-0
6
CONTINUOUS
62
6
100
AcDbLine
10
384.449258000000
20
164.501175000000
30
0.0
11
397.449258000000
21
164.501175000000
31
0.0
0
LINE
5
53b
100
AcDbEntity
8
C-0
6
CONTINUOUS
62
6
100
AcDbLine
10
427.401870000000
20
164.501175000000
30
0.0
11
440.352298000000
21
164.501175000000
31
0.0
0
LINE
5
53c
100
AcDbEntity
8
C-0
6
CONTINUOUS
62
6
100
AcDbLine
10
452.573257000000
20
164.501175000000
30
0.0
11
465.573257000000
21
164.501175000000
31
0.0
0
LINE
5
53d
100
AcDbEntity
8
C-0
6
CONTINUOUS
62
6
100
AcDbLine
10
481.998464000000
20
164.501175000000
30
0.0
11
494.998464000000
21
164.501175000000
31
0.0
0
LINE
5
53e
100
AcDbEntity
8
C-0
6
CONTINUOUS
62
6
100
AcDbLine
10
504.998464000000
20
164.501175000000
30
0.0
11
517.998464000000
21
164.501175000000
31
0.0
0
LINE
5
53f
100
AcDbEntity
8
C-0
6
CONTINUOUS
62
6
100
AcDbLine
10
529.600802000000
20
164.501175000000
30
0.0
11
542.600802000000
21
164.501175000000
31
0.0
0
LINE
5
540
100
AcDbEntity
8
C-0
6
CONTINUOUS
62
6
100
AcDbLine
10
563.078890000000
20
164.501175000000
30
0.0
11
576.078890000000
21
164.501175000000
31
0.0
0
LINE
5
541
100
AcDbEntity
8
C-0
6
CONTINUOUS
62
6
100
AcDbLine
10
586.076800000000
20
164.501175000000
30
0.0
11
599.047762000000
21
164.501175000000
31
0.0
0
LINE
5
542
100
AcDbEntity
8
C-0
6
CONTINUOUS
62
6
100
AcDbLine
10
611.866484000000
20
164.501175000000
30
0.0
11
622.866484000000
21
164.501175000000
31
0.0
0
LINE
5
543
100
AcDbEntity
8
C-0
6
CONTINUOUS
62
6
100
AcDbLine
10
327.829146000000
20
166.501175000000
30
0.0
11
340.829146000000
21
166.501175000000
31
0.0
0
LINE
5
544
100
AcDbEntity
8
C-0
6
CONTINUOUS
62
6
100
AcDbLine
10
349.111510000000
20
166.501175000000
30
0.0
11
362.111510000000
21
166.501175000000
31
0.0
0
LINE
5
545
100
AcDbEntity
8
C-0
6
CONTINUOUS
62
6
100
AcDbLine
10
384.449258000000
20
166.501175000000
30
0.0
11
397.449258000000
21
166.501175000000
31
0.0
0
LINE
5
546
100
AcDbEntity
8
C-0
6
CONTINUOUS
62
6
100
AcDbLine
10
427.296665000000
20
166.501175000000
30
0.0
11
440.187721000000
21
166.501175000000
31
0.0
0
LINE
5
547
100
AcDbEntity
8
C-0
6
CONTINUOUS
62
6
100
AcDbLine
10
451.640641000000
20
166.501175000000
30
0.0
11
464.640641000000
21
166.501175000000
31
0.0
0
LINE
5
548
100
AcDbEntity
8
C-0
6
CONTINUOUS
62
6
100
AcDbLine
10
482.931079000000
20
166.501175000000
30
0.0
11
495.931079000000
21
166.501175000000
31
0.0
0
LINE
5
549
100
AcDbEntity
8
C-0
6
CONTINUOUS
62
6
100
AcDbLine
10
505.931079000000
20
166.501175000000
30
0.0
11
518.931079000000
21
166.501175000000
31
0.0
0
LINE
5
54a
100
AcDbEntity
8
C-0
6
CONTINUOUS
62
6
100
AcDbLine
10
528.668187000000
20
166.501175000000
30
0.0
11
541.668187000000
21
166.501175000000
31
0.0
0
LINE
5
54b
100
AcDbEntity
8
C-0
6
CONTINUOUS
62
6
100
AcDbLine
10
563.078890000000
20
166.501175000000
30
0.0
11
576.078890000000
21
166.501175000000
31
0.0
0
LINE
5
54c
100
AcDbEntity
8
C-0
6
CONTINUOUS
62
6
100
AcDbLine
10
584.827061000000
20
166.501175000000
30
0.0
11
597.798024000000
21
166.501175000000
31
0.0
0
LINE
5
54d
100
AcDbEntity
8
C-0
6
CONTINUOUS
62
6
100
AcDbLine
10
611.866484000000
20
166.501175000000
30
0.0
11
622.866484000000
21
166.501175000000
31
0.0
0
LINE
5
54e
100
AcDbEntity
8
C-0
6
CONTINUOUS
62
6
100
AcDbLine
10
328.761761000000
20
168.501175000000
30
0.0
11
341.761761000000
21
168.501175000000
31
0.0
0
LINE
5
54f
100
AcDbEntity
8
C-0
6
CONTINUOUS
62
6
100
AcDbLine
10
348.178894000000
20
168.501175000000
30
0.0
11
361.178894000000
21
168.501175000000
31
0.0
0
LINE
5
550
100
AcDbEntity
8
C-0
6
CONTINUOUS
62
6
100
AcDbLine
10
384.449258000000
20
168.501175000000
30
0.0
11
397.449258000000
21
168.501175000000
31
0.0
0
LINE
5
551
100
AcDbEntity
8
C-0
6
CONTINUOUS
62
6
100
AcDbLine
10
427.092316000000
20
168.501175000000
30
0.0
11
439.940591000000
21
168.501175000000
31
0.0
0
LINE
5
552
100
AcDbEntity
8
C-0
6
CONTINUOUS
62
6
100
AcDbLine
10
450.708026000000
20
168.501175000000
30
0.0
11
463.708026000000
21
168.501175000000
31
0.0
0
LINE
5
553
100
AcDbEntity
8
C-0
6
CONTINUOUS
62
6
100
AcDbLine
10
483.863695000000
20
168.501175000000
30
0.0
11
496.863695000000
21
168.501175000000
31
0.0
0
LINE
5
554
100
AcDbEntity
8
C-0
6
CONTINUOUS
62
6
100
AcDbLine
10
506.863695000000
20
168.501175000000
30
0.0
11
519.863695000000
21
168.501175000000
31
0.0
0
LINE
5
555
100
AcDbEntity
8
C-0
6
CONTINUOUS
62
6
100
AcDbLine
10
527.735571000000
20
168.501175000000
30
0.0
11
540.735571000000
21
168.501175000000
31
0.0
0
LINE
5
556
100
AcDbEntity
8
C-0
6
CONTINUOUS
62
6
100
AcDbLine
10
563.078890000000
20
168.501175000000
30
0.0
11
576.078890000000
21
168.501175000000
31
0.0
0
LINE
5
557
100
AcDbEntity
8
C-0
6
CONTINUOUS
62
6
100
AcDbLine
10
583.577322000000
20
168.501175000000
30
0.0
11
596.548285000000
21
168.501175000000
31
0.0
0
LINE
5
558
100
AcDbEntity
8
C-0
6
CONTINUOUS
62
6
100
AcDbLine
10
611.866484000000
20
168.501175000000
30
0.0
11
622.866484000000
21
168.501175000000
31
0.0
0
LINE
5
559
100
AcDbEntity
8
C-0
6
CONTINUOUS
62
6
100
AcDbLine
10
329.694376000000
20
170.501175000000
30
0.0
11
342.694376000000
21
170.501175000000
31
0.0
0
LINE
5
55a
100
AcDbEntity
8
C-0
6
CONTINUOUS
62
6
100
AcDbLine
10
347.246279000000
20
170.501175000000
30
0.0
11
360.246279000000
21
170.501175000000
31
0.0
0
LINE
5
55b
100
AcDbEntity
8
C-0
6
CONTINUOUS
62
6
100
AcDbLine
10
384.449258000000
20
170.501175000000
30
0.0
11
397.449258000000
21
170.501175000000
31
0.0
0
LINE
5
55c
100
AcDbEntity
8
C-0
6
CONTINUOUS
62
6
100
AcDbLine
10
426.736838000000
20
170.501175000000
30
0.0
11
439.612468000000
21
170.501175000000
31
0.0
0
LINE
5
55d
100
AcDbEntity
8
C-0
6
CONTINUOUS
62
6
100
AcDbLine
10
449.775411000000
20
170.501175000000
30
0.0
11
462.775411000000
21
170.501175000000
31
0.0
0
LINE
5
55e
100
AcDbEntity
8
C-0
6
CONTINUOUS
62
6
100
AcDbLine
10
484.796310000000
20
170.501175000000
30
0.0
11
497.796310000000
21
170.501175000000
31
0.0
0
LINE
5
55f
100
AcDbEntity
8
C-0
6
CONTINUOUS
62
6
100
AcDbLine
10
507.796310000000
20
170.501175000000
30
0.0
11
520.796310000000
21
170.501175000000
31
0.0
0
LINE
5
560
100
AcDbEntity
8
C-0
6
CONTINUOUS
62
6
100
AcDbLine
10
526.802956000000
20
170.501175000000
30
0.0
11
539.802956000000
21
170.501175000000
31
0.0
0
LINE
5
561
100
AcDbEntity
8
C-0
6
CONTINUOUS
62
6
100
AcDbLine
10
563.078890000000
20
170.501175000000
30
0.0
11
576.078890000000
21
170.501175000000
31
0.0
0
LINE
5
562
100
AcDbEntity
8
C-0
6
CONTINUOUS
62
6
100
AcDbLine
10
582.327584000000
20
170.501175000000
30
0.0
11
595.298546000000
21
170.501175000000
31
0.0
0
LINE
5
563
100
AcDbEntity
8
C-0
6
CONTINUOUS
62
6
100
AcDbLine
10
611.866484000000
20
170.501175000000
30
0.0
11
622.866484000000
21
170.501175000000
31
0.0
0
LINE
5
564
100
AcDbEntity
8
C-0
6
CONTINUOUS
62
6
100
AcDbLine
10
330.626992000000
20
172.501175000000
30
0.0
11
343.626992000000
21
172.501175000000
31
0.0
0
LINE
5
565
100
AcDbEntity
8
C-0
6
CONTINUOUS
62
6
100
AcDbLine
10
346.313664000000
20
172.501175000000
30
0.0
11
359.313664000000
21
172.501175000000
31
0.0
0
LINE
5
566
100
AcDbEntity
8
C-0
6
CONTINUOUS
62
6
100
AcDbLine
10
384.449258000000
20
172.501175000000
30
0.0
11
397.449258000000
21
172.501175000000
31
0.0
0
LINE
5
567
100
AcDbEntity
8
C-0
6
CONTINUOUS
62
6
100
AcDbLine
10
426.136176000000
20
172.501175000000
30
0.0
11
439.204658000000
21
172.501175000000
31
0.0
0
LINE
5
568
100
AcDbEntity
8
C-0
6
CONTINUOUS
62
6
100
AcDbLine
10
448.842795000000
20
172.501175000000
30
0.0
11
461.842795000000
21
172.501175000000
31
0.0
0
LINE
5
569
100
AcDbEntity
8
C-0
6
CONTINUOUS
62
6
100
AcDbLine
10
485.728925000000
20
172.501175000000
30
0.0
11
498.728925000000
21
172.501175000000
31
0.0
0
LINE
5
56a
100
AcDbEntity
8
C-0
6
CONTINUOUS
62
6
100
AcDbLine
10
508.728925000000
20
172.501175000000
30
0.0
11
521.728925000000
21
172.501175000000
31
0.0
0
LINE
5
56b
100
AcDbEntity
8
C-0
6
CONTINUOUS
62
6
100
AcDbLine
10
525.870341000000
20
172.501175000000
30
0.0
11
538.870341000000
21
172.501175000000
31
0.0
0
LINE
5
56c
100
AcDbEntity
8
C-0
6
CONTINUOUS
62
6
100
AcDbLine
10
563.078890000000
20
172.501175000000
30
0.0
11
576.078890000000
21
172.501175000000
31
0.0
0
LINE
5
56d
100
AcDbEntity
8
C-0
6
CONTINUOUS
62
6
100
AcDbLine
10
581.077845000000
20
172.501175000000
30
0.0
11
594.048807000000
21
172.501175000000
31
0.0
0
LINE
5
56e
100
AcDbEntity
8
C-0
6
CONTINUOUS
62
6
100
AcDbLine
10
611.866484000000
20
172.501175000000
30
0.0
11
622.866484000000
21
172.501175000000
31
0.0
0
LINE
5
56f
100
AcDbEntity
8
C-0
6
CONTINUOUS
62
6
100
AcDbLine
10
331.559607000000
20
174.501175000000
30
0.0
11
344.559607000000
21
174.501175000000
31
0.0
0
LINE
5
570
100
AcDbEntity
8
C-0
6
CONTINUOUS
62
6
100
AcDbLine
10
345.381048000000
20
174.501175000000
30
0.0
11
358.381048000000
21
174.501175000000
31
0.0
0
LINE
5
571
100
AcDbEntity
8
C-0
6
CONTINUOUS
62
6
100
AcDbLine
10
384.449258000000
20
174.501175000000
30
0.0
11
397.449258000000
21
174.501175000000
31
0.0
0
LINE
5
572
100
AcDbEntity
8
C-0
6
CONTINUOUS
62
6
100
AcDbLine
10
425.157870000000
20
174.501175000000
30
0.0
11
438.720769000000
21
174.501175000000
31
0.0
0
LINE
5
573
100
AcDbEntity
8
C-0
6
CONTINUOUS
62
6
100
AcDbLine
10
447.910180000000
20
174.501175000000
30
0.0
11
460.910180000000
21
174.501175000000
31
0.0
0
LINE
5
574
100
AcDbEntity
8
C-0
6
CONTINUOUS
62
6
100
AcDbLine
10
486.661541000000
20
174.501175000000
30
0.0
11
499.661541000000
21
174.501175000000
31
0.0
0
LINE
5
575
100
AcDbEntity
8
C-0
6
CONTINUOUS
62
6
100
AcDbLine
10
509.661541000000
20
174.501175000000
30
0.0
11
522.661541000000
21
174.501175000000
31
0.0
0
LINE
5
576
100
AcDbEntity
8
C-0
6
CONTINUOUS
62
6
100
AcDbLine
10
524.937725000000
20
174.501175000000
30
0.0
11
537.937725000000
21
174.501175000000
31
0.0
0
LINE
5
577
100
AcDbEntity
8
C-0
6
CONTINUOUS
62
6
100
AcDbLine
10
563.078890000000
20
174.501175000000
30
0.0
11
576.078890000000
21
174.501175000000
31
0.0
0
LINE
5
578
100
AcDbEntity
8
C-0
6
CONTINUOUS
62
6
100
AcDbLine
10
579.828106000000
20
174.501175000000
30
0.0
11
592.799069000000
21
174.501175000000
31
0.0
0
LINE
5
579
100
AcDbEntity
8
C-0
6
CONTINUOUS
62
6
100
AcDbLine
10
611.866484000000
20
174.501175000000
30
0.0
11
622.866484000000
21
174.501175000000
31
0.0
0
LINE
5
57a
100
AcDbEntity
8
C-0
6
CONTINUOUS
62
6
100
AcDbLine
10
332.492222000000
20
176.501175000000
30
0.0
11
357.448433000000
21
176.501175000000
31
0.0
0
LINE
5
57b
100
AcDbEntity
8
C-0
6
CONTINUOUS
62
6
100
AcDbLine
10
384.449258000000
20
176.501175000000
30
0.0
11
397.449258000000
21
176.501175000000
31
0.0
0
LINE
5
57c
100
AcDbEntity
8
C-0
6
CONTINUOUS
62
6
100
AcDbLine
10
423.496588000000
20
176.501175000000
30
0.0
11
438.150478000000
21
176.501175000000
31
0.0
0
LINE
5
57d
100
AcDbEntity
8
C-0
6
CONTINUOUS
62
6
100
AcDbLine
10
446.977565000000
20
176.501175000000
30
0.0
11
459.977565000000
21
176.501175000000
31
0.0
0
LINE
5
57e
100
AcDbEntity
8
C-0
6
CONTINUOUS
62
6
100
AcDbLine
10
487.594156000000
20
176.501175000000
30
0.0
11
500.594156000000
21
176.501175000000
31
0.0
0
LINE
5
57f
100
AcDbEntity
8
C-0
6
CONTINUOUS
62
6
100
AcDbLine
10
510.594156000000
20
176.501175000000
30
0.0
11
523.594156000000
21
176.501175000000
31
0.0
0
LINE
5
580
100
AcDbEntity
8
C-0
6
CONTINUOUS
62
6
100
AcDbLine
10
524.005110000000
20
176.501175000000
30
0.0
11
537.005110000000
21
176.501175000000
31
0.0
0
LINE
5
581
100
AcDbEntity
8
C-0
6
CONTINUOUS
62
6
100
AcDbLine
10
563.078890000000
20
176.501175000000
30
0.0
11
576.078890000000
21
176.501175000000
31
0.0
0
LINE
5
582
100
AcDbEntity
8
C-0
6
CONTINUOUS
62
6
100
AcDbLine
10
578.578368000000
20
176.501175000000
30
0.0
11
591.549330000000
21
176.501175000000
31
0.0
0
LINE
5
583
100
AcDbEntity
8
C-0
6
CONTINUOUS
62
6
100
AcDbLine
10
611.866484000000
20
176.501175000000
30
0.0
11
622.866484000000
21
176.501175000000
31
0.0
0
LINE
5
584
100
AcDbEntity
8
C-0
6
CONTINUOUS
62
6
100
AcDbLine
10
333.424838000000
20
178.501175000000
30
0.0
11
356.515818000000
21
178.501175000000
31
0.0
0
LINE
5
585
100
AcDbEntity
8
C-0
6
CONTINUOUS
62
6
100
AcDbLine
10
384.449258000000
20
178.501175000000
30
0.0
11
397.449258000000
21
178.501175000000
31
0.0
0
LINE
5
586
100
AcDbEntity
8
C-0
6
CONTINUOUS
62
6
100
AcDbLine
10
420.902783000000
20
178.501175000000
30
0.0
11
437.445214000000
21
178.501175000000
31
0.0
0
LINE
5
587
100
AcDbEntity
8
C-0
6
CONTINUOUS
62
6
100
AcDbLine
10
446.044949000000
20
178.501175000000
30
0.0
11
459.044949000000
21
178.501175000000
31
0.0
0
LINE
5
588
100
AcDbEntity
8
C-0
6
CONTINUOUS
62
6
100
AcDbLine
10
488.526771000000
20
178.501175000000
30
0.0
11
501.526771000000
21
178.501175000000
31
0.0
0
LINE
5
589
100
AcDbEntity
8
C-0
6
CONTINUOUS
62
6
100
AcDbLine
10
511.526771000000
20
178.501175000000
30
0.0
11
536.072495000000
21
178.501175000000
31
0.0
0
LINE
5
58a
100
AcDbEntity
8
C-0
6
CONTINUOUS
62
6
100
AcDbLine
10
563.078890000000
20
178.501175000000
30
0.0
11
576.078890000000
21
178.501175000000
31
0.0
0
LINE
5
58b
100
AcDbEntity
8
C-0
6
CONTINUOUS
62
6
100
AcDbLine
10
577.328629000000
20
178.501175000000
30
0.0
11
590.299591000000
21
178.501175000000
31
0.0
0
LINE
5
58c
100
AcDbEntity
8
C-0
6
CONTINUOUS
62
6
100
AcDbLine
10
611.866484000000
20
178.501175000000
30
0.0
11
622.866484000000
21
178.501175000000
31
0.0
0
LINE
5
58d
100
AcDbEntity
8
C-0
6
CONTINUOUS
62
6
100
AcDbLine
10
334.357453000000
20
180.501175000000
30
0.0
11
355.583203000000
21
180.501175000000
31
0.0
0
LINE
5
58e
100
AcDbEntity
8
C-0
6
CONTINUOUS
62
6
100
AcDbLine
10
384.449258000000
20
180.501175000000
30
0.0
11
397.449258000000
21
180.501175000000
31
0.0
0
LINE
5
58f
100
AcDbEntity
8
C-0
6
CONTINUOUS
62
6
100
AcDbLine
10
417.449258000000
20
180.501175000000
30
0.0
11
436.449258000000
21
180.501175000000
31
0.0
0
LINE
5
590
100
AcDbEntity
8
C-0
6
CONTINUOUS
62
6
100
AcDbLine
10
445.112334000000
20
180.501175000000
30
0.0
11
458.112334000000
21
180.501175000000
31
0.0
0
LINE
5
591
100
AcDbEntity
8
C-0
6
CONTINUOUS
62
6
100
AcDbLine
10
489.459387000000
20
180.501175000000
30
0.0
11
502.459387000000
21
180.501175000000
31
0.0
0
LINE
5
592
100
AcDbEntity
8
C-0
6
CONTINUOUS
62
6
100
AcDbLine
10
512.459387000000
20
180.501175000000
30
0.0
11
535.139879000000
21
180.501175000000
31
0.0
0
LINE
5
593
100
AcDbEntity
8
C-0
6
CONTINUOUS
62
6
100
AcDbLine
10
563.078890000000
20
180.501175000000
30
0.0
11
576.078890000000
21
180.501175000000
31
0.0
0
LINE
5
594
100
AcDbEntity
8
C-0
6
CONTINUOUS
62
6
100
AcDbLine
10
576.078890000000
20
180.501175000000
30
0.0
11
589.049853000000
21
180.501175000000
31
0.0
0
LINE
5
595
100
AcDbEntity
8
C-0
6
CONTINUOUS
62
6
100
AcDbLine
10
611.866484000000
20
180.501175000000
30
0.0
11
622.866484000000
21
180.501175000000
31
0.0
0
LINE
5
596
100
AcDbEntity
8
C-0
6
CONTINUOUS
62
6
100
AcDbLine
10
335.290068000000
20
182.501175000000
30
0.0
11
354.650587000000
21
182.501175000000
31
0.0
0
LINE
5
597
100
AcDbEntity
8
C-0
6
CONTINUOUS
62
6
100
AcDbLine
10
384.449258000000
20
182.501175000000
30
0.0
11
434.859391000000
21
182.501175000000
31
0.0
0
LINE
5
598
100
AcDbEntity
8
C-0
6
CONTINUOUS
62
6
100
AcDbLine
10
444.179719000000
20
182.501175000000
30
0.0
11
457.179719000000
21
182.501175000000
31
0.0
0
LINE
5
599
100
AcDbEntity
8
C-0
6
CONTINUOUS
62
6
100
AcDbLine
10
490.392002000000
20
182.501175000000
30
0.0
11
503.392002000000
21
182.501175000000
31
0.0
0
LINE
5
59a
100
AcDbEntity
8
C-0
6
CONTINUOUS
62
6
100
AcDbLine
10
513.392002000000
20
182.501175000000
30
0.0
11
534.207264000000
21
182.501175000000
31
0.0
0
LINE
5
59b
100
AcDbEntity
8
C-0
6
CONTINUOUS
62
6
100
AcDbLine
10
563.078890000000
20
182.501175000000
30
0.0
11
587.800114000000
21
182.501175000000
31
0.0
0
LINE
5
59c
100
AcDbEntity
8
C-0
6
CONTINUOUS
62
6
100
AcDbLine
10
611.866484000000
20
182.501175000000
30
0.0
11
622.866484000000
21
182.501175000000
31
0.0
0
LINE
5
59d
100
AcDbEntity
8
C-0
6
CONTINUOUS
62
6
100
AcDbLine
10
336.222684000000
20
184.501175000000
30
0.0
11
353.717972000000
21
184.501175000000
31
0.0
0
LINE
5
59e
100
AcDbEntity
8
C-0
6
CONTINUOUS
62
6
100
AcDbLine
10
384.449258000000
20
184.501175000000
30
0.0
11
432.615124000000
21
184.501175000000
31
0.0
0
LINE
5
59f
100
AcDbEntity
8
C-0
6
CONTINUOUS
62
6
100
AcDbLine
10
443.247103000000
20
184.501175000000
30
0.0
11
456.247103000000
21
184.501175000000
31
0.0
0
LINE
5
5a0
100
AcDbEntity
8
C-0
6
CONTINUOUS
62
6
100
AcDbLine
10
491.324617000000
20
184.501175000000
30
0.0
11
504.324617000000
21
184.501175000000
31
0.0
0
LINE
5
5a1
100
AcDbEntity
8
C-0
6
CONTINUOUS
62
6
100
AcDbLine
10
514.324617000000
20
184.501175000000
30
0.0
11
533.274649000000
21
184.501175000000
31
0.0
0
LINE
5
5a2
100
AcDbEntity
8
C-0
6
CONTINUOUS
62
6
100
AcDbLine
10
563.078890000000
20
184.501175000000
30
0.0
11
586.550375000000
21
184.501175000000
31
0.0
0
LINE
5
5a3
100
AcDbEntity
8
C-0
6
CONTINUOUS
62
6
100
AcDbLine
10
611.866484000000
20
184.501175000000
30
0.0
11
622.866484000000
21
184.501175000000
31
0.0
0
LINE
5
5a4
100
AcDbEntity
8
C-0
6
CONTINUOUS
62
6
100
AcDbLine
10
337.155299000000
20
186.501175000000
30
0.0
11
352.785357000000
21
186.501175000000
31
0.0
0
LINE
5
5a5
100
AcDbEntity
8
C-0
6
CONTINUOUS
62
6
100
AcDbLine
10
384.449258000000
20
186.501175000000
30
0.0
11
429.277326000000
21
186.501175000000
31
0.0
0
LINE
5
5a6
100
AcDbEntity
8
C-0
6
CONTINUOUS
62
6
100
AcDbLine
10
442.314488000000
20
186.501175000000
30
0.0
11
455.314488000000
21
186.501175000000
31
0.0
0
LINE
5
5a7
100
AcDbEntity
8
C-0
6
CONTINUOUS
62
6
100
AcDbLine
10
492.257233000000
20
186.501175000000
30
0.0
11
505.257233000000
21
186.501175000000
31
0.0
0
LINE
5
5a8
100
AcDbEntity
8
C-0
6
CONTINUOUS
62
6
100
AcDbLine
10
515.257233000000
20
186.501175000000
30
0.0
11
532.342033000000
21
186.501175000000
31
0.0
0
LINE
5
5a9
100
AcDbEntity
8
C-0
6
CONTINUOUS
62
6
100
AcDbLine
10
563.078890000000
20
186.501175000000
30
0.0
11
585.300637000000
21
186.501175000000
31
0.0
0
LINE
5
5aa
100
AcDbEntity
8
C-0
6
CONTINUOUS
62
6
100
AcDbLine
10
611.866484000000
20
186.501175000000
30
0.0
11
622.866484000000
21
186.501175000000
31
0.0
0
LINE
5
5ab
100
AcDbEntity
8
C-0
6
CONTINUOUS
62
6
100
AcDbLine
10
338.087914000000
20
188.501175000000
30
0.0
11
351.852741000000
21
188.501175000000
31
0.0
0
LINE
5
5ac
100
AcDbEntity
8
C-0
6
CONTINUOUS
62
6
100
AcDbLine
10
384.449258000000
20
188.501175000000
30
0.0
11
424.449258000000
21
188.501175000000
31
0.0
0
LINE
5
5ad
100
AcDbEntity
8
C-0
6
CONTINUOUS
62
6
100
AcDbLine
10
441.381873000000
20
188.501175000000
30
0.0
11
454.381873000000
21
188.501175000000
31
0.0
0
LINE
5
5ae
100
AcDbEntity
8
C-0
6
CONTINUOUS
62
6
100
AcDbLine
10
493.189848000000
20
188.501175000000
30
0.0
11
506.189848000000
21
188.501175000000
31
0.0
0
LINE
5
5af
100
AcDbEntity
8
C-0
6
CONTINUOUS
62
6
100
AcDbLine
10
516.189848000000
20
188.501175000000
30
0.0
11
531.409418000000
21
188.501175000000
31
0.0
0
LINE
5
5b0
100
AcDbEntity
8
C-0
6
CONTINUOUS
62
6
100
AcDbLine
10
563.078890000000
20
188.501175000000
30
0.0
11
584.050898000000
21
188.501175000000
31
0.0
0
LINE
5
5b1
100
AcDbEntity
8
C-0
6
CONTINUOUS
62
6
100
AcDbLine
10
611.866484000000
20
188.501175000000
30
0.0
11
622.866484000000
21
188.501175000000
31
0.0
0
LINE
5
5b2
100
AcDbEntity
8
C-0
6
CONTINUOUS
62
6
100
AcDbLine
10
339.020530000000
20
190.501175000000
30
0.0
11
350.920126000000
21
190.501175000000
31
0.0
0
LINE
5
5b3
100
AcDbEntity
8
C-0
6
CONTINUOUS
62
6
100
AcDbLine
10
384.449258000000
20
190.501175000000
30
0.0
11
417.449258000000
21
190.501175000000
31
0.0
0
LINE
5
5b4
100
AcDbEntity
8
C-0
6
CONTINUOUS
62
6
100
AcDbLine
10
440.449258000000
20
190.501175000000
30
0.0
11
453.449258000000
21
190.501175000000
31
0.0
0
LINE
5
5b5
100
AcDbEntity
8
C-0
6
CONTINUOUS
62
6
100
AcDbLine
10
494.122463000000
20
190.501175000000
30
0.0
11
507.122463000000
21
190.501175000000
31
0.0
0
LINE
5
5b6
100
AcDbEntity
8
C-0
6
CONTINUOUS
62
6
100
AcDbLine
10
517.122463000000
20
190.501175000000
30
0.0
11
530.476803000000
21
190.501175000000
31
0.0
0
LINE
5
5b7
100
AcDbEntity
8
C-0
6
CONTINUOUS
62
6
100
AcDbLine
10
563.078890000000
20
190.501175000000
30
0.0
11
582.801159000000
21
190.501175000000
31
0.0
0
LINE
5
5b8
100
AcDbEntity
8
C-0
6
CONTINUOUS
62
6
100
AcDbLine
10
611.866484000000
20
190.501175000000
30
0.0
11
622.866484000000
21
190.501175000000
31
0.0
0
LINE
5
5b9
100
AcDbEntity
8
C-0
6
CONTINUOUS
62
6
100
AcDbLine
10
312.440993000000
20
133.501175000000
30
0.0
11
325.440993000000
21
133.501175000000
31
0.0
0
LINE
5
5ba
100
AcDbEntity
8
C-0
6
CONTINUOUS
62
6
100
AcDbLine
10
364.499662000000
20
133.501175000000
30
0.0
11
377.499662000000
21
133.501175000000
31
0.0
0
LINE
5
5bb
100
AcDbEntity
8
C-0
6
CONTINUOUS
62
6
100
AcDbLine
10
384.449258000000
20
133.501175000000
30
0.0
11
419.556530000000
21
133.501175000000
31
0.0
0
LINE
5
5bc
100
AcDbEntity
8
C-0
6
CONTINUOUS
62
6
100
AcDbLine
10
467.028794000000
20
133.501175000000
30
0.0
11
480.542927000000
21
133.501175000000
31
0.0
0
LINE
5
5bd
100
AcDbEntity
8
C-0
6
CONTINUOUS
62
6
100
AcDbLine
10
490.542927000000
20
133.501175000000
30
0.0
11
503.542927000000
21
133.501175000000
31
0.0
0
LINE
5
5be
100
AcDbEntity
8
C-0
6
CONTINUOUS
62
6
100
AcDbLine
10
544.056339000000
20
133.501175000000
30
0.0
11
557.056339000000
21
133.501175000000
31
0.0
0
LINE
5
5bf
100
AcDbEntity
8
C-0
6
CONTINUOUS
62
6
100
AcDbLine
10
563.078890000000
20
133.501175000000
30
0.0
11
576.078890000000
21
133.501175000000
31
0.0
0
LINE
5
5c0
100
AcDbEntity
8
C-0
6
CONTINUOUS
62
6
100
AcDbLine
10
605.447750000000
20
133.501175000000
30
0.0
11
622.866484000000
21
133.501175000000
31
0.0
0
LINE
5
5c1
100
AcDbEntity
8
C-0
6
CONTINUOUS
62
6
100
AcDbLine
10
313.373608000000
20
135.501175000000
30
0.0
11
326.373608000000
21
135.501175000000
31
0.0
0
LINE
5
5c2
100
AcDbEntity
8
C-0
6
CONTINUOUS
62
6
100
AcDbLine
10
363.567047000000
20
135.501175000000
30
0.0
11
376.567047000000
21
135.501175000000
31
0.0
0
LINE
5
5c3
100
AcDbEntity
8
C-0
6
CONTINUOUS
62
6
100
AcDbLine
10
384.449258000000
20
135.501175000000
30
0.0
11
425.974884000000
21
135.501175000000
31
0.0
0
LINE
5
5c4
100
AcDbEntity
8
C-0
6
CONTINUOUS
62
6
100
AcDbLine
10
466.096179000000
20
135.501175000000
30
0.0
11
481.475542000000
21
135.501175000000
31
0.0
0
LINE
5
5c5
100
AcDbEntity
8
C-0
6
CONTINUOUS
62
6
100
AcDbLine
10
491.475542000000
20
135.501175000000
30
0.0
11
504.475542000000
21
135.501175000000
31
0.0
0
LINE
5
5c6
100
AcDbEntity
8
C-0
6
CONTINUOUS
62
6
100
AcDbLine
10
543.123724000000
20
135.501175000000
30
0.0
11
556.123724000000
21
135.501175000000
31
0.0
0
LINE
5
5c7
100
AcDbEntity
8
C-0
6
CONTINUOUS
62
6
100
AcDbLine
10
563.078890000000
20
135.501175000000
30
0.0
11
576.078890000000
21
135.501175000000
31
0.0
0
LINE
5
5c8
100
AcDbEntity
8
C-0
6
CONTINUOUS
62
6
100
AcDbLine
10
604.198011000000
20
135.501175000000
30
0.0
11
622.866484000000
21
135.501175000000
31
0.0
0
LINE
5
5c9
100
AcDbEntity
8
C-0
6
CONTINUOUS
62
6
100
AcDbLine
10
314.306224000000
20
137.501175000000
30
0.0
11
327.306224000000
21
137.501175000000
31
0.0
0
LINE
5
5ca
100
AcDbEntity
8
C-0
6
CONTINUOUS
62
6
100
AcDbLine
10
362.634432000000
20
137.501175000000
30
0.0
11
375.634432000000
21
137.501175000000
31
0.0
0
LINE
5
5cb
100
AcDbEntity
8
C-0
6
CONTINUOUS
62
6
100
AcDbLine
10
384.449258000000
20
137.501175000000
30
0.0
11
430.362985000000
21
137.501175000000
31
0.0
0
LINE
5
5cc
100
AcDbEntity
8
C-0
6
CONTINUOUS
62
6
100
AcDbLine
10
465.163563000000
20
137.501175000000
30
0.0
11
482.408157000000
21
137.501175000000
31
0.0
0
LINE
5
5cd
100
AcDbEntity
8
C-0
6
CONTINUOUS
62
6
100
AcDbLine
10
492.408157000000
20
137.501175000000
30
0.0
11
505.408157000000
21
137.501175000000
31
0.0
0
LINE
5
5ce
100
AcDbEntity
8
C-0
6
CONTINUOUS
62
6
100
AcDbLine
10
542.191109000000
20
137.501175000000
30
0.0
11
555.191109000000
21
137.501175000000
31
0.0
0
LINE
5
5cf
100
AcDbEntity
8
C-0
6
CONTINUOUS
62
6
100
AcDbLine
10
563.078890000000
20
137.501175000000
30
0.0
11
576.078890000000
21
137.501175000000
31
0.0
0
LINE
5
5d0
100
AcDbEntity
8
C-0
6
CONTINUOUS
62
6
100
AcDbLine
10
602.948272000000
20
137.501175000000
30
0.0
11
622.866484000000
21
137.501175000000
31
0.0
0
LINE
5
5d1
100
AcDbEntity
8
C-0
6
CONTINUOUS
62
6
100
AcDbLine
10
315.238839000000
20
139.501175000000
30
0.0
11
328.238839000000
21
139.501175000000
31
0.0
0
LINE
5
5d2
100
AcDbEntity
8
C-0
6
CONTINUOUS
62
6
100
AcDbLine
10
361.701817000000
20
139.501175000000
30
0.0
11
374.701817000000
21
139.501175000000
31
0.0
0
LINE
5
5d3
100
AcDbEntity
8
C-0
6
CONTINUOUS
62
6
100
AcDbLine
10
384.449258000000
20
139.501175000000
30
0.0
11
433.305923000000
21
139.501175000000
31
0.0
0
LINE
5
5d4
100
AcDbEntity
8
C-0
6
CONTINUOUS
62
6
100
AcDbLine
10
464.230948000000
20
139.501175000000
30
0.0
11
483.340773000000
21
139.501175000000
31
0.0
0
LINE
5
5d5
100
AcDbEntity
8
C-0
6
CONTINUOUS
62
6
100
AcDbLine
10
493.340773000000
20
139.501175000000
30
0.0
11
506.340773000000
21
139.501175000000
31
0.0
0
LINE
5
5d6
100
AcDbEntity
8
C-0
6
CONTINUOUS
62
6
100
AcDbLine
10
541.258493000000
20
139.501175000000
30
0.0
11
554.258493000000
21
139.501175000000
31
0.0
0
LINE
5
5d7
100
AcDbEntity
8
C-0
6
CONTINUOUS
62
6
100
AcDbLine
10
563.078890000000
20
139.501175000000
30
0.0
11
576.078890000000
21
139.501175000000
31
0.0
0
LINE
5
5d8
100
AcDbEntity
8
C-0
6
CONTINUOUS
62
6
100
AcDbLine
10
601.698534000000
20
139.501175000000
30
0.0
11
622.866484000000
21
139.501175000000
31
0.0
0
LINE
5
5d9
100
AcDbEntity
8
C-0
6
CONTINUOUS
62
6
100
AcDbLine
10
316.171454000000
20
141.501175000000
30
0.0
11
329.171454000000
21
141.501175000000
31
0.0
0
LINE
5
5da
100
AcDbEntity
8
C-0
6
CONTINUOUS
62
6
100
AcDbLine
10
360.769201000000
20
141.501175000000
30
0.0
11
373.769201000000
21
141.501175000000
31
0.0
0
LINE
5
5db
100
AcDbEntity
8
C-0
6
CONTINUOUS
62
6
100
AcDbLine
10
384.449258000000
20
141.501175000000
30
0.0
11
435.368281000000
21
141.501175000000
31
0.0
0
LINE
5
5dc
100
AcDbEntity
8
C-0
6
CONTINUOUS
62
6
100
AcDbLine
10
463.298333000000
20
141.501175000000
30
0.0
11
484.273388000000
21
141.501175000000
31
0.0
0
LINE
5
5dd
100
AcDbEntity
8
C-0
6
CONTINUOUS
62
6
100
AcDbLine
10
494.273388000000
20
141.501175000000
30
0.0
11
507.273388000000
21
141.501175000000
31
0.0
0
LINE
5
5de
100
AcDbEntity
8
C-0
6
CONTINUOUS
62
6
100
AcDbLine
10
540.325878000000
20
141.501175000000
30
0.0
11
553.325878000000
21
141.501175000000
31
0.0
0
LINE
5
5df
100
AcDbEntity
8
C-0
6
CONTINUOUS
62
6
100
AcDbLine
10
563.078890000000
20
141.501175000000
30
0.0
11
576.078890000000
21
141.501175000000
31
0.0
0
LINE
5
5e0
100
AcDbEntity
8
C-0
6
CONTINUOUS
62
6
100
AcDbLine
10
600.448795000000
20
141.501175000000
30
0.0
11
622.866484000000
21
141.501175000000
31
0.0
0
LINE
5
5e1
100
AcDbEntity
8
C-0
6
CONTINUOUS
62
6
100
AcDbLine
10
317.104070000000
20
143.501175000000
30
0.0
11
330.104070000000
21
143.501175000000
31
0.0
0
LINE
5
5e2
100
AcDbEntity
8
C-0
6
CONTINUOUS
62
6
100
AcDbLine
10
359.836586000000
20
143.501175000000
30
0.0
11
372.836586000000
21
143.501175000000
31
0.0
0
LINE
5
5e3
100
AcDbEntity
8
C-0
6
CONTINUOUS
62
6
100
AcDbLine
10
384.449258000000
20
143.501175000000
30
0.0
11
397.449258000000
21
143.501175000000
31
0.0
0
LINE
5
5e4
100
AcDbEntity
8
C-0
6
CONTINUOUS
62
6
100
AcDbLine
10
418.447706000000
20
143.501175000000
30
0.0
11
436.761065000000
21
143.501175000000
31
0.0
0
LINE
5
5e5
100
AcDbEntity
8
C-0
6
CONTINUOUS
62
6
100
AcDbLine
10
462.365717000000
20
143.501175000000
30
0.0
11
485.206003000000
21
143.501175000000
31
0.0
0
LINE
5
5e6
100
AcDbEntity
8
C-0
6
CONTINUOUS
62
6
100
AcDbLine
10
495.206003000000
20
143.501175000000
30
0.0
11
508.206003000000
21
143.501175000000
31
0.0
0
LINE
5
5e7
100
AcDbEntity
8
C-0
6
CONTINUOUS
62
6
100
AcDbLine
10
539.393263000000
20
143.501175000000
30
0.0
11
552.393263000000
21
143.501175000000
31
0.0
0
LINE
5
5e8
100
AcDbEntity
8
C-0
6
CONTINUOUS
62
6
100
AcDbLine
10
563.078890000000
20
143.501175000000
30
0.0
11
576.078890000000
21
143.501175000000
31
0.0
0
LINE
5
5e9
100
AcDbEntity
8
C-0
6
CONTINUOUS
62
6
100
AcDbLine
10
599.199056000000
20
143.501175000000
30
0.0
11
622.866484000000
21
143.501175000000
31
0.0
0
LINE
5
5ea
100
AcDbEntity
8
C-0
6
CONTINUOUS
62
6
100
AcDbLine
10
318.036685000000
20
145.501175000000
30
0.0
11
331.036685000000
21
145.501175000000
31
0.0
0
LINE
5
5eb
100
AcDbEntity
8
C-0
6
CONTINUOUS
62
6
100
AcDbLine
10
358.903971000000
20
145.501175000000
30
0.0
11
371.903971000000
21
145.501175000000
31
0.0
0
LINE
5
5ec
100
AcDbEntity
8
C-0
6
CONTINUOUS
62
6
100
AcDbLine
10
384.449258000000
20
145.501175000000
30
0.0
11
397.449258000000
21
145.501175000000
31
0.0
0
LINE
5
5ed
100
AcDbEntity
8
C-0
6
CONTINUOUS
62
6
100
AcDbLine
10
421.726044000000
20
145.501175000000
30
0.0
11
437.656823000000
21
145.501175000000
31
0.0
0
LINE
5
5ee
100
AcDbEntity
8
C-0
6
CONTINUOUS
62
6
100
AcDbLine
10
461.433102000000
20
145.501175000000
30
0.0
11
486.138619000000
21
145.501175000000
31
0.0
0
LINE
5
5ef
100
AcDbEntity
8
C-0
6
CONTINUOUS
62
6
100
AcDbLine
10
496.138619000000
20
145.501175000000
30
0.0
11
509.138619000000
21
145.501175000000
31
0.0
0
LINE
5
5f0
100
AcDbEntity
8
C-0
6
CONTINUOUS
62
6
100
AcDbLine
10
538.460647000000
20
145.501175000000
30
0.0
11
551.460647000000
21
145.501175000000
31
0.0
0
LINE
5
5f1
100
AcDbEntity
8
C-0
6
CONTINUOUS
62
6
100
AcDbLine
10
563.078890000000
20
145.501175000000
30
0.0
11
576.078890000000
21
145.501175000000
31
0.0
0
LINE
5
5f2
100
AcDbEntity
8
C-0
6
CONTINUOUS
62
6
100
AcDbLine
10
597.949318000000
20
145.501175000000
30
0.0
11
610.920280000000
21
145.501175000000
31
0.0
0
LINE
5
5f3
100
AcDbEntity
8
C-0
6
CONTINUOUS
62
6
100
AcDbLine
10
611.866484000000
20
145.501175000000
30
0.0
11
622.866484000000
21
145.501175000000
31
0.0
0
LINE
5
5f4
100
AcDbEntity
8
C-0
6
CONTINUOUS
62
6
100
AcDbLine
10
318.969300000000
20
147.501175000000
30
0.0
11
370.971355000000
21
147.501175000000
31
0.0
0
LINE
5
5f5
100
AcDbEntity
8
C-0
6
CONTINUOUS
62
6
100
AcDbLine
10
384.449258000000
20
147.501175000000
30
0.0
11
397.449258000000
21
147.501175000000
31
0.0
0
LINE
5
5f6
100
AcDbEntity
8
C-0
6
CONTINUOUS
62
6
100
AcDbLine
10
424.056409000000
20
147.501175000000
30
0.0
11
438.319408000000
21
147.501175000000
31
0.0
0
LINE
5
5f7
100
AcDbEntity
8
C-0
6
CONTINUOUS
62
6
100
AcDbLine
10
460.500487000000
20
147.501175000000
30
0.0
11
473.500487000000
21
147.501175000000
31
0.0
0
LINE
5
5f8
100
AcDbEntity
8
C-0
6
CONTINUOUS
62
6
100
AcDbLine
10
474.071234000000
20
147.501175000000
30
0.0
11
487.071234000000
21
147.501175000000
31
0.0
0
LINE
5
5f9
100
AcDbEntity
8
C-0
6
CONTINUOUS
62
6
100
AcDbLine
10
497.071234000000
20
147.501175000000
30
0.0
11
550.528032000000
21
147.501175000000
31
0.0
0
LINE
5
5fa
100
AcDbEntity
8
C-0
6
CONTINUOUS
62
6
100
AcDbLine
10
563.078890000000
20
147.501175000000
30
0.0
11
576.078890000000
21
147.501175000000
31
0.0
0
LINE
5
5fb
100
AcDbEntity
8
C-0
6
CONTINUOUS
62
6
100
AcDbLine
10
596.699579000000
20
147.501175000000
30
0.0
11
609.670541000000
21
147.501175000000
31
0.0
0
LINE
5
5fc
100
AcDbEntity
8
C-0
6
CONTINUOUS
62
6
100
AcDbLine
10
611.866484000000
20
147.501175000000
30
0.0
11
622.866484000000
21
147.501175000000
31
0.0
0
LINE
5
5fd
100
AcDbEntity
8
C-0
6
CONTINUOUS
62
6
100
AcDbLine
10
319.901916000000
20
149.501175000000
30
0.0
11
370.038740000000
21
149.501175000000
31
0.0
0
LINE
5
5fe
100
AcDbEntity
8
C-0
6
CONTINUOUS
62
6
100
AcDbLine
10
384.449258000000
20
149.501175000000
30
0.0
11
397.449258000000
21
149.501175000000
31
0.0
0
LINE
5
5ff
100
AcDbEntity
8
C-0
6
CONTINUOUS
62
6
100
AcDbLine
10
425.432203000000
20
149.501175000000
30
0.0
11
438.861187000000
21
149.501175000000
31
0.0
0
LINE
5
600
100
AcDbEntity
8
C-0
6
CONTINUOUS
62
6
100
AcDbLine
10
459.567872000000
20
149.501175000000
30
0.0
11
472.567872000000
21
149.501175000000
31
0.0
0
LINE
5
601
100
AcDbEntity
8
C-0
6
CONTINUOUS
62
6
100
AcDbLine
10
475.003849000000
20
149.501175000000
30
0.0
11
488.003849000000
21
149.501175000000
31
0.0
0
LINE
5
602
100
AcDbEntity
8
C-0
6
CONTINUOUS
62
6
100
AcDbLine
10
498.003849000000
20
149.501175000000
30
0.0
11
549.595417000000
21
149.501175000000
31
0.0
0
LINE
5
603
100
AcDbEntity
8
C-0
6
CONTINUOUS
62
6
100
AcDbLine
10
563.078890000000
20
149.501175000000
30
0.0
11
576.078890000000
21
149.501175000000
31
0.0
0
LINE
5
604
100
AcDbEntity
8
C-0
6
CONTINUOUS
62
6
100
AcDbLine
10
595.449840000000
20
149.501175000000
30
0.0
11
608.420803000000
21
149.501175000000
31
0.0
0
LINE
5
605
100
AcDbEntity
8
C-0
6
CONTINUOUS
62
6
100
AcDbLine
10
611.866484000000
20
149.501175000000
30
0.0
11
622.866484000000
21
149.501175000000
31
0.0
0
LINE
5
606
100
AcDbEntity
8
C-0
6
CONTINUOUS
62
6
100
AcDbLine
10
320.834531000000
20
151.501175000000
30
0.0
11
369.106125000000
21
151.501175000000
31
0.0
0
LINE
5
607
100
AcDbEntity
8
C-0
6
CONTINUOUS
62
6
100
AcDbLine
10
384.449258000000
20
151.501175000000
30
0.0
11
397.449258000000
21
151.501175000000
31
0.0
0
LINE
5
608
100
AcDbEntity
8
C-0
6
CONTINUOUS
62
6
100
AcDbLine
10
426.301743000000
20
151.501175000000
30
0.0
11
439.333224000000
21
151.501175000000
31
0.0
0
LINE
5
609
100
AcDbEntity
8
C-0
6
CONTINUOUS
62
6
100
AcDbLine
10
458.635256000000
20
151.501175000000
30
0.0
11
471.635256000000
21
151.501175000000
31
0.0
0
LINE
5
60a
100
AcDbEntity
8
C-0
6
CONTINUOUS
62
6
100
AcDbLine
10
475.936464000000
20
151.501175000000
30
0.0
11
488.936464000000
21
151.501175000000
31
0.0
0
LINE
5
60b
100
AcDbEntity
8
C-0
6
CONTINUOUS
62
6
100
AcDbLine
10
498.936464000000
20
151.501175000000
30
0.0
11
548.662801000000
21
151.501175000000
31
0.0
0
LINE
5
60c
100
AcDbEntity
8
C-0
6
CONTINUOUS
62
6
100
AcDbLine
10
563.078890000000
20
151.501175000000
30
0.0
11
576.078890000000
21
151.501175000000
31
0.0
0
LINE
5
60d
100
AcDbEntity
8
C-0
6
CONTINUOUS
62
6
100
AcDbLine
10
594.200101000000
20
151.501175000000
30
0.0
11
607.171064000000
21
151.501175000000
31
0.0
0
LINE
5
60e
100
AcDbEntity
8
C-0
6
CONTINUOUS
62
6
100
AcDbLine
10
611.866484000000
20
151.501175000000
30
0.0
11
622.866484000000
21
151.501175000000
31
0.0
0
LINE
5
60f
100
AcDbEntity
8
C-0
6
CONTINUOUS
62
6
100
AcDbLine
10
321.767146000000
20
153.501175000000
30
0.0
11
368.173509000000
21
153.501175000000
31
0.0
0
LINE
5
610
100
AcDbEntity
8
C-0
6
CONTINUOUS
62
6
100
AcDbLine
10
384.449258000000
20
153.501175000000
30
0.0
11
397.449258000000
21
153.501175000000
31
0.0
0
LINE
5
611
100
AcDbEntity
8
C-0
6
CONTINUOUS
62
6
100
AcDbLine
10
426.844431000000
20
153.501175000000
30
0.0
11
439.718729000000
21
153.501175000000
31
0.0
0
LINE
5
612
100
AcDbEntity
8
C-0
6
CONTINUOUS
62
6
100
AcDbLine
10
457.702641000000
20
153.501175000000
30
0.0
11
470.702641000000
21
153.501175000000
31
0.0
0
LINE
5
613
100
AcDbEntity
8
C-0
6
CONTINUOUS
62
6
100
AcDbLine
10
476.869080000000
20
153.501175000000
30
0.0
11
489.869080000000
21
153.501175000000
31
0.0
0
LINE
5
614
100
AcDbEntity
8
C-0
6
CONTINUOUS
62
6
100
AcDbLine
10
499.869080000000
20
153.501175000000
30
0.0
11
547.730186000000
21
153.501175000000
31
0.0
0
LINE
5
615
100
AcDbEntity
8
C-0
6
CONTINUOUS
62
6
100
AcDbLine
10
563.078890000000
20
153.501175000000
30
0.0
11
576.078890000000
21
153.501175000000
31
0.0
0
LINE
5
616
100
AcDbEntity
8
C-0
6
CONTINUOUS
62
6
100
AcDbLine
10
592.950363000000
20
153.501175000000
30
0.0
11
605.921325000000
21
153.501175000000
31
0.0
0
LINE
5
617
100
AcDbEntity
8
C-0
6
CONTINUOUS
62
6
100
AcDbLine
10
611.866484000000
20
153.501175000000
30
0.0
11
622.866484000000
21
153.501175000000
31
0.0
0
LINE
5
618
100
AcDbEntity
8
C-0
6
CONTINUOUS
62
6
100
AcDbLine
10
322.699762000000
20
155.501175000000
30
0.0
11
367.240894000000
21
155.501175000000
31
0.0
0
LINE
5
619
100
AcDbEntity
8
C-0
6
CONTINUOUS
62
6
100
AcDbLine
10
384.449258000000
20
155.501175000000
30
0.0
11
397.449258000000
21
155.501175000000
31
0.0
0
LINE
5
61a
100
AcDbEntity
8
C-0
6
CONTINUOUS
62
6
100
AcDbLine
10
427.174192000000
20
155.501175000000
30
0.0
11
440.021852000000
21
155.501175000000
31
0.0
0
LINE
5
61b
100
AcDbEntity
8
C-0
6
CONTINUOUS
62
6
100
AcDbLine
10
456.770026000000
20
155.501175000000
30
0.0
11
469.770026000000
21
155.501175000000
31
0.0
0
LINE
5
61c
100
AcDbEntity
8
C-0
6
CONTINUOUS
62
6
100
AcDbLine
10
477.801695000000
20
155.501175000000
30
0.0
11
490.801695000000
21
155.501175000000
31
0.0
0
LINE
5
61d
100
AcDbEntity
8
C-0
6
CONTINUOUS
62
6
100
AcDbLine
10
500.801695000000
20
155.501175000000
30
0.0
11
546.797571000000
21
155.501175000000
31
0.0
0
LINE
5
61e
100
AcDbEntity
8
C-0
6
CONTINUOUS
62
6
100
AcDbLine
10
563.078890000000
20
155.501175000000
30
0.0
11
576.078890000000
21
155.501175000000
31
0.0
0
LINE
5
61f
100
AcDbEntity
8
C-0
6
CONTINUOUS
62
6
100
AcDbLine
10
591.700624000000
20
155.501175000000
30
0.0
11
604.671586000000
21
155.501175000000
31
0.0
0
LINE
5
620
100
AcDbEntity
8
C-0
6
CONTINUOUS
62
6
100
AcDbLine
10
611.866484000000
20
155.501175000000
30
0.0
11
622.866484000000
21
155.501175000000
31
0.0
0
LINE
5
621
100
AcDbEntity
8
C-0
6
CONTINUOUS
62
6
100
AcDbLine
10
323.632377000000
20
157.501175000000
30
0.0
11
336.632377000000
21
157.501175000000
31
0.0
0
LINE
5
622
100
AcDbEntity
8
C-0
6
CONTINUOUS
62
6
100
AcDbLine
10
353.308279000000
20
157.501175000000
30
0.0
11
366.308279000000
21
157.501175000000
31
0.0
0
LINE
5
623
100
AcDbEntity
8
C-0
6
CONTINUOUS
62
6
100
AcDbLine
10
384.449258000000
20
157.501175000000
30
0.0
11
397.449258000000
21
157.501175000000
31
0.0
0
LINE
5
624
100
AcDbEntity
8
C-0
6
CONTINUOUS
62
6
100
AcDbLine
10
427.343269000000
20
157.501175000000
30
0.0
11
440.243350000000
21
157.501175000000
31
0.0
0
LINE
5
625
100
AcDbEntity
8
C-0
6
CONTINUOUS
62
6
100
AcDbLine
10
455.837410000000
20
157.501175000000
30
0.0
11
468.837410000000
21
157.501175000000
31
0.0
0
LINE
5
626
100
AcDbEntity
8
C-0
6
CONTINUOUS
62
6
100
AcDbLine
10
478.734310000000
20
157.501175000000
30
0.0
11
491.734310000000
21
157.501175000000
31
0.0
0
LINE
5
627
100
AcDbEntity
8
C-0
6
CONTINUOUS
62
6
100
AcDbLine
10
501.734310000000
20
157.501175000000
30
0.0
11
514.734310000000
21
157.501175000000
31
0.0
0
LINE
5
628
100
AcDbEntity
8
C-0
6
CONTINUOUS
62
6
100
AcDbLine
10
532.864955000000
20
157.501175000000
30
0.0
11
545.864955000000
21
157.501175000000
31
0.0
0
LINE
5
629
100
AcDbEntity
8
C-0
6
CONTINUOUS
62
6
100
AcDbLine
10
563.078890000000
20
157.501175000000
30
0.0
11
576.078890000000
21
157.501175000000
31
0.0
0
LINE
5
62a
100
AcDbEntity
8
C-0
6
CONTINUOUS
62
6
100
AcDbLine
10
590.450885000000
20
157.501175000000
30
0.0
11
603.421848000000
21
157.501175000000
31
0.0
0
LINE
5
62b
100
AcDbEntity
8
C-0
6
CONTINUOUS
62
6
100
AcDbLine
10
611.866484000000
20
157.501175000000
30
0.0
11
622.866484000000
21
157.501175000000
31
0.0
0
LINE
5
62c
100
AcDbEntity
8
C-0
6
CONTINUOUS
62
6
100
AcDbLine
10
324.564992000000
20
159.501175000000
30
0.0
11
337.564992000000
21
159.501175000000
31
0.0
0
LINE
5
62d
100
AcDbEntity
8
C-0
6
CONTINUOUS
62
6
100
AcDbLine
10
352.375663000000
20
159.501175000000
30
0.0
11
365.375663000000
21
159.501175000000
31
0.0
0
LINE
5
62e
100
AcDbEntity
8
C-0
6
CONTINUOUS
62
6
100
AcDbLine
10
384.449258000000
20
159.501175000000
30
0.0
11
397.449258000000
21
159.501175000000
31
0.0
0
LINE
5
62f
100
AcDbEntity
8
C-0
6
CONTINUOUS
62
6
100
AcDbLine
10
427.418457000000
20
159.501175000000
30
0.0
11
440.381590000000
21
159.501175000000
31
0.0
0
LINE
5
630
100
AcDbEntity
8
C-0
6
CONTINUOUS
62
6
100
AcDbLine
10
454.904795000000
20
159.501175000000
30
0.0
11
467.904795000000
21
159.501175000000
31
0.0
0
LINE
5
631
100
AcDbEntity
8
C-0
6
CONTINUOUS
62
6
100
AcDbLine
10
479.666926000000
20
159.501175000000
30
0.0
11
492.666926000000
21
159.501175000000
31
0.0
0
LINE
5
632
100
AcDbEntity
8
C-0
6
CONTINUOUS
62
6
100
AcDbLine
10
502.666926000000
20
159.501175000000
30
0.0
11
515.666926000000
21
159.501175000000
31
0.0
0
LINE
5
633
100
AcDbEntity
8
C-0
6
CONTINUOUS
62
6
100
AcDbLine
10
531.932340000000
20
159.501175000000
30
0.0
11
544.932340000000
21
159.501175000000
31
0.0
0
LINE
5
634
100
AcDbEntity
8
C-0
6
CONTINUOUS
62
6
100
AcDbLine
10
563.078890000000
20
159.501175000000
30
0.0
11
576.078890000000
21
159.501175000000
31
0.0
0
LINE
5
635
100
AcDbEntity
8
C-0
6
CONTINUOUS
62
6
100
AcDbLine
10
589.201147000000
20
159.501175000000
30
0.0
11
602.172109000000
21
159.501175000000
31
0.0
0
LINE
5
636
100
AcDbEntity
8
C-0
6
CONTINUOUS
62
6
100
AcDbLine
10
611.866484000000
20
159.501175000000
30
0.0
11
622.866484000000
21
159.501175000000
31
0.0
0
LINE
5
637
100
AcDbEntity
8
C-0
6
CONTINUOUS
62
6
100
AcDbLine
10
325.497608000000
20
161.501175000000
30
0.0
11
338.497608000000
21
161.501175000000
31
0.0
0
LINE
5
638
100
AcDbEntity
8
C-0
6
CONTINUOUS
62
6
100
AcDbLine
10
351.443048000000
20
161.501175000000
30
0.0
11
364.443048000000
21
161.501175000000
31
0.0
0
LINE
5
639
100
AcDbEntity
8
C-0
6
CONTINUOUS
62
6
100
AcDbLine
10
384.449258000000
20
161.501175000000
30
0.0
11
397.449258000000
21
161.501175000000
31
0.0
0
LINE
5
63a
100
AcDbEntity
8
C-0
6
CONTINUOUS
62
6
100
AcDbLine
10
427.448063000000
20
161.501175000000
30
0.0
11
440.446019000000
21
161.501175000000
31
0.0
0
LINE
5
63b
100
AcDbEntity
8
C-0
6
CONTINUOUS
62
6
100
AcDbLine
10
453.972180000000
20
161.501175000000
30
0.0
11
466.972180000000
21
161.501175000000
31
0.0
0
LINE
5
63c
100
AcDbEntity
8
C-0
6
CONTINUOUS
62
6
100
AcDbLine
10
480.599541000000
20
161.501175000000
30
0.0
11
493.599541000000
21
161.501175000000
31
0.0
0
LINE
5
63d
100
AcDbEntity
8
C-0
6
CONTINUOUS
62
6
100
AcDbLine
10
503.599541000000
20
161.501175000000
30
0.0
11
516.599541000000
21
161.501175000000
31
0.0
0
LINE
5
63e
100
AcDbEntity
8
C-0
6
CONTINUOUS
62
6
100
AcDbLine
10
530.999725000000
20
161.501175000000
30
0.0
11
543.999725000000
21
161.501175000000
31
0.0
0
LINE
5
63f
100
AcDbEntity
8
C-0
6
CONTINUOUS
62
6
100
AcDbLine
10
563.078890000000
20
161.501175000000
30
0.0
11
576.078890000000
21
161.501175000000
31
0.0
0
LINE
5
640
100
AcDbEntity
8
C-0
6
CONTINUOUS
62
6
100
AcDbLine
10
587.951408000000
20
161.501175000000
30
0.0
11
600.922370000000
21
161.501175000000
31
0.0
0
LINE
5
641
100
AcDbEntity
8
C-0
6
CONTINUOUS
62
6
100
AcDbLine
10
611.866484000000
20
161.501175000000
30
0.0
11
622.866484000000
21
161.501175000000
31
0.0
0
LINE
5
642
100
AcDbEntity
8
C-0
6
CONTINUOUS
62
6
100
AcDbLine
10
326.430223000000
20
163.501175000000
30
0.0
11
339.430223000000
21
163.501175000000
31
0.0
0
LINE
5
643
100
AcDbEntity
8
C-0
6
CONTINUOUS
62
6
100
AcDbLine
10
350.510433000000
20
163.501175000000
30
0.0
11
363.510433000000
21
163.501175000000
31
0.0
0
LINE
5
644
100
AcDbEntity
8
C-0
6
CONTINUOUS
62
6
100
AcDbLine
10
384.449258000000
20
163.501175000000
30
0.0
11
397.449258000000
21
163.501175000000
31
0.0
0
LINE
5
645
100
AcDbEntity
8
C-0
6
CONTINUOUS
62
6
100
AcDbLine
10
427.431957000000
20
163.501175000000
30
0.0
11
440.405432000000
21
163.501175000000
31
0.0
0
LINE
5
646
100
AcDbEntity
8
C-0
6
CONTINUOUS
62
6
100
AcDbLine
10
453.039564000000
20
163.501175000000
30
0.0
11
466.039564000000
21
163.501175000000
31
0.0
0
LINE
5
647
100
AcDbEntity
8
C-0
6
CONTINUOUS
62
6
100
AcDbLine
10
481.532156000000
20
163.501175000000
30
0.0
11
494.532156000000
21
163.501175000000
31
0.0
0
LINE
5
648
100
AcDbEntity
8
C-0
6
CONTINUOUS
62
6
100
AcDbLine
10
504.532156000000
20
163.501175000000
30
0.0
11
517.532156000000
21
163.501175000000
31
0.0
0
LINE
5
649
100
AcDbEntity
8
C-0
6
CONTINUOUS
62
6
100
AcDbLine
10
530.067110000000
20
163.501175000000
30
0.0
11
543.067110000000
21
163.501175000000
31
0.0
0
LINE
5
64a
100
AcDbEntity
8
C-0
6
CONTINUOUS
62
6
100
AcDbLine
10
563.078890000000
20
163.501175000000
30
0.0
11
576.078890000000
21
163.501175000000
31
0.0
0
LINE
5
64b
100
AcDbEntity
8
C-0
6
CONTINUOUS
62
6
100
AcDbLine
10
586.701669000000
20
163.501175000000
30
0.0
11
599.672632000000
21
163.501175000000
31
0.0
0
LINE
5
64c
100
AcDbEntity
8
C-0
6
CONTINUOUS
62
6
100
AcDbLine
10
611.866484000000
20
163.501175000000
30
0.0
11
622.866484000000
21
163.501175000000
31
0.0
0
LINE
5
64d
100
AcDbEntity
8
C-0
6
CONTINUOUS
62
6
100
AcDbLine
10
327.362838000000
20
165.501175000000
30
0.0
11
340.362838000000
21
165.501175000000
31
0.0
0
LINE
5
64e
100
AcDbEntity
8
C-0
6
CONTINUOUS
62
6
100
AcDbLine
10
349.577817000000
20
165.501175000000
30
0.0
11
362.577817000000
21
165.501175000000
31
0.0
0
LINE
5
64f
100
AcDbEntity
8
C-0
6
CONTINUOUS
62
6
100
AcDbLine
10
384.449258000000
20
165.501175000000
30
0.0
11
397.449258000000
21
165.501175000000
31
0.0
0
LINE
5
650
100
AcDbEntity
8
C-0
6
CONTINUOUS
62
6
100
AcDbLine
10
427.371783000000
20
165.501175000000
30
0.0
11
440.288630000000
21
165.501175000000
31
0.0
0
LINE
5
651
100
AcDbEntity
8
C-0
6
CONTINUOUS
62
6
100
AcDbLine
10
452.106949000000
20
165.501175000000
30
0.0
11
465.106949000000
21
165.501175000000
31
0.0
0
LINE
5
652
100
AcDbEntity
8
C-0
6
CONTINUOUS
62
6
100
AcDbLine
10
482.464772000000
20
165.501175000000
30
0.0
11
495.464772000000
21
165.501175000000
31
0.0
0
LINE
5
653
100
AcDbEntity
8
C-0
6
CONTINUOUS
62
6
100
AcDbLine
10
505.464772000000
20
165.501175000000
30
0.0
11
518.464772000000
21
165.501175000000
31
0.0
0
LINE
5
654
100
AcDbEntity
8
C-0
6
CONTINUOUS
62
6
100
AcDbLine
10
529.134494000000
20
165.501175000000
30
0.0
11
542.134494000000
21
165.501175000000
31
0.0
0
LINE
5
655
100
AcDbEntity
8
C-0
6
CONTINUOUS
62
6
100
AcDbLine
10
563.078890000000
20
165.501175000000
30
0.0
11
576.078890000000
21
165.501175000000
31
0.0
0
LINE
5
656
100
AcDbEntity
8
C-0
6
CONTINUOUS
62
6
100
AcDbLine
10
585.451930000000
20
165.501175000000
30
0.0
11
598.422893000000
21
165.501175000000
31
0.0
0
LINE
5
657
100
AcDbEntity
8
C-0
6
CONTINUOUS
62
6
100
AcDbLine
10
611.866484000000
20
165.501175000000
30
0.0
11
622.866484000000
21
165.501175000000
31
0.0
0
LINE
5
658
100
AcDbEntity
8
C-0
6
CONTINUOUS
62
6
100
AcDbLine
10
328.295453000000
20
167.501175000000
30
0.0
11
341.295453000000
21
167.501175000000
31
0.0
0
LINE
5
659
100
AcDbEntity
8
C-0
6
CONTINUOUS
62
6
100
AcDbLine
10
348.645202000000
20
167.501175000000
30
0.0
11
361.645202000000
21
167.501175000000
31
0.0
0
LINE
5
65a
100
AcDbEntity
8
C-0
6
CONTINUOUS
62
6
100
AcDbLine
10
384.449258000000
20
167.501175000000
30
0.0
11
397.449258000000
21
167.501175000000
31
0.0
0
LINE
5
65b
100
AcDbEntity
8
C-0
6
CONTINUOUS
62
6
100
AcDbLine
10
427.212126000000
20
167.501175000000
30
0.0
11
440.086812000000
21
167.501175000000
31
0.0
0
LINE
5
65c
100
AcDbEntity
8
C-0
6
CONTINUOUS
62
6
100
AcDbLine
10
451.174334000000
20
167.501175000000
30
0.0
11
464.174334000000
21
167.501175000000
31
0.0
0
LINE
5
65d
100
AcDbEntity
8
C-0
6
CONTINUOUS
62
6
100
AcDbLine
10
483.397387000000
20
167.501175000000
30
0.0
11
496.397387000000
21
167.501175000000
31
0.0
0
LINE
5
65e
100
AcDbEntity
8
C-0
6
CONTINUOUS
62
6
100
AcDbLine
10
506.397387000000
20
167.501175000000
30
0.0
11
519.397387000000
21
167.501175000000
31
0.0
0
LINE
5
65f
100
AcDbEntity
8
C-0
6
CONTINUOUS
62
6
100
AcDbLine
10
528.201879000000
20
167.501175000000
30
0.0
11
541.201879000000
21
167.501175000000
31
0.0
0
LINE
5
660
100
AcDbEntity
8
C-0
6
CONTINUOUS
62
6
100
AcDbLine
10
563.078890000000
20
167.501175000000
30
0.0
11
576.078890000000
21
167.501175000000
31
0.0
0
LINE
5
661
100
AcDbEntity
8
C-0
6
CONTINUOUS
62
6
100
AcDbLine
10
584.202192000000
20
167.501175000000
30
0.0
11
597.173154000000
21
167.501175000000
31
0.0
0
LINE
5
662
100
AcDbEntity
8
C-0
6
CONTINUOUS
62
6
100
AcDbLine
10
611.866484000000
20
167.501175000000
30
0.0
11
622.866484000000
21
167.501175000000
31
0.0
0
LINE
5
663
100
AcDbEntity
8
C-0
6
CONTINUOUS
62
6
100
AcDbLine
10
329.228069000000
20
169.501175000000
30
0.0
11
342.228069000000
21
169.501175000000
31
0.0
0
LINE
5
664
100
AcDbEntity
8
C-0
6
CONTINUOUS
62
6
100
AcDbLine
10
347.712587000000
20
169.501175000000
30
0.0
11
360.712587000000
21
169.501175000000
31
0.0
0
LINE
5
665
100
AcDbEntity
8
C-0
6
CONTINUOUS
62
6
100
AcDbLine
10
384.449258000000
20
169.501175000000
30
0.0
11
397.449258000000
21
169.501175000000
31
0.0
0
LINE
5
666
100
AcDbEntity
8
C-0
6
CONTINUOUS
62
6
100
AcDbLine
10
426.921210000000
20
169.501175000000
30
0.0
11
439.793188000000
21
169.501175000000
31
0.0
0
LINE
5
667
100
AcDbEntity
8
C-0
6
CONTINUOUS
62
6
100
AcDbLine
10
450.241718000000
20
169.501175000000
30
0.0
11
463.241718000000
21
169.501175000000
31
0.0
0
LINE
5
668
100
AcDbEntity
8
C-0
6
CONTINUOUS
62
6
100
AcDbLine
10
484.330002000000
20
169.501175000000
30
0.0
11
497.330002000000
21
169.501175000000
31
0.0
0
LINE
5
669
100
AcDbEntity
8
C-0
6
CONTINUOUS
62
6
100
AcDbLine
10
507.330002000000
20
169.501175000000
30
0.0
11
520.330002000000
21
169.501175000000
31
0.0
0
LINE
5
66a
100
AcDbEntity
8
C-0
6
CONTINUOUS
62
6
100
AcDbLine
10
527.269264000000
20
169.501175000000
30
0.0
11
540.269264000000
21
169.501175000000
31
0.0
0
LINE
5
66b
100
AcDbEntity
8
C-0
6
CONTINUOUS
62
6
100
AcDbLine
10
563.078890000000
20
169.501175000000
30
0.0
11
576.078890000000
21
169.501175000000
31
0.0
0
LINE
5
66c
100
AcDbEntity
8
C-0
6
CONTINUOUS
62
6
100
AcDbLine
10
582.952453000000
20
169.501175000000
30
0.0
11
595.923416000000
21
169.501175000000
31
0.0
0
LINE
5
66d
100
AcDbEntity
8
C-0
6
CONTINUOUS
62
6
100
AcDbLine
10
611.866484000000
20
169.501175000000
30
0.0
11
622.866484000000
21
169.501175000000
31
0.0
0
LINE
5
66e
100
AcDbEntity
8
C-0
6
CONTINUOUS
62
6
100
AcDbLine
10
330.160684000000
20
171.501175000000
30
0.0
11
343.160684000000
21
171.501175000000
31
0.0
0
LINE
5
66f
100
AcDbEntity
8
C-0
6
CONTINUOUS
62
6
100
AcDbLine
10
346.779971000000
20
171.501175000000
30
0.0
11
359.779971000000
21
171.501175000000
31
0.0
0
LINE
5
670
100
AcDbEntity
8
C-0
6
CONTINUOUS
62
6
100
AcDbLine
10
384.449258000000
20
171.501175000000
30
0.0
11
397.449258000000
21
171.501175000000
31
0.0
0
LINE
5
671
100
AcDbEntity
8
C-0
6
CONTINUOUS
62
6
100
AcDbLine
10
426.436507000000
20
171.501175000000
30
0.0
11
439.419716000000
21
171.501175000000
31
0.0
0
LINE
5
672
100
AcDbEntity
8
C-0
6
CONTINUOUS
62
6
100
AcDbLine
10
449.309103000000
20
171.501175000000
30
0.0
11
462.309103000000
21
171.501175000000
31
0.0
0
LINE
5
673
100
AcDbEntity
8
C-0
6
CONTINUOUS
62
6
100
AcDbLine
10
485.262618000000
20
171.501175000000
30
0.0
11
498.262618000000
21
171.501175000000
31
0.0
0
LINE
5
674
100
AcDbEntity
8
C-0
6
CONTINUOUS
62
6
100
AcDbLine
10
508.262618000000
20
171.501175000000
30
0.0
11
521.262618000000
21
171.501175000000
31
0.0
0
LINE
5
675
100
AcDbEntity
8
C-0
6
CONTINUOUS
62
6
100
AcDbLine
10
526.336648000000
20
171.501175000000
30
0.0
11
539.336648000000
21
171.501175000000
31
0.0
0
LINE
5
676
100
AcDbEntity
8
C-0
6
CONTINUOUS
62
6
100
AcDbLine
10
563.078890000000
20
171.501175000000
30
0.0
11
576.078890000000
21
171.501175000000
31
0.0
0
LINE
5
677
100
AcDbEntity
8
C-0
6
CONTINUOUS
62
6
100
AcDbLine
10
581.702714000000
20
171.501175000000
30
0.0
11
594.673677000000
21
171.501175000000
31
0.0
0
LINE
5
678
100
AcDbEntity
8
C-0
6
CONTINUOUS
62
6
100
AcDbLine
10
611.866484000000
20
171.501175000000
30
0.0
11
622.866484000000
21
171.501175000000
31
0.0
0
LINE
5
679
100
AcDbEntity
8
C-0
6
CONTINUOUS
62
6
100
AcDbLine
10
331.093299000000
20
173.501175000000
30
0.0
11
344.093299000000
21
173.501175000000
31
0.0
0
LINE
5
67a
100
AcDbEntity
8
C-0
6
CONTINUOUS
62
6
100
AcDbLine
10
345.847356000000
20
173.501175000000
30
0.0
11
358.847356000000
21
173.501175000000
31
0.0
0
LINE
5
67b
100
AcDbEntity
8
C-0
6
CONTINUOUS
62
6
100
AcDbLine
10
384.449258000000
20
173.501175000000
30
0.0
11
397.449258000000
21
173.501175000000
31
0.0
0
LINE
5
67c
100
AcDbEntity
8
C-0
6
CONTINUOUS
62
6
100
AcDbLine
10
425.652788000000
20
173.501175000000
30
0.0
11
438.967572000000
21
173.501175000000
31
0.0
0
LINE
5
67d
100
AcDbEntity
8
C-0
6
CONTINUOUS
62
6
100
AcDbLine
10
448.376488000000
20
173.501175000000
30
0.0
11
461.376488000000
21
173.501175000000
31
0.0
0
LINE
5
67e
100
AcDbEntity
8
C-0
6
CONTINUOUS
62
6
100
AcDbLine
10
486.195233000000
20
173.501175000000
30
0.0
11
499.195233000000
21
173.501175000000
31
0.0
0
LINE
5
67f
100
AcDbEntity
8
C-0
6
CONTINUOUS
62
6
100
AcDbLine
10
509.195233000000
20
173.501175000000
30
0.0
11
522.195233000000
21
173.501175000000
31
0.0
0
LINE
5
680
100
AcDbEntity
8
C-0
6
CONTINUOUS
62
6
100
AcDbLine
10
525.404033000000
20
173.501175000000
30
0.0
11
538.404033000000
21
173.501175000000
31
0.0
0
LINE
5
681
100
AcDbEntity
8
C-0
6
CONTINUOUS
62
6
100
AcDbLine
10
563.078890000000
20
173.501175000000
30
0.0
11
576.078890000000
21
173.501175000000
31
0.0
0
LINE
5
682
100
AcDbEntity
8
C-0
6
CONTINUOUS
62
6
100
AcDbLine
10
580.452976000000
20
173.501175000000
30
0.0
11
593.423938000000
21
173.501175000000
31
0.0
0
LINE
5
683
100
AcDbEntity
8
C-0
6
CONTINUOUS
62
6
100
AcDbLine
10
611.866484000000
20
173.501175000000
30
0.0
11
622.866484000000
21
173.501175000000
31
0.0
0
LINE
5
684
100
AcDbEntity
8
C-0
6
CONTINUOUS
62
6
100
AcDbLine
10
332.025915000000
20
175.501175000000
30
0.0
11
357.914741000000
21
175.501175000000
31
0.0
0
LINE
5
685
100
AcDbEntity
8
C-0
6
CONTINUOUS
62
6
100
AcDbLine
10
384.449258000000
20
175.501175000000
30
0.0
11
397.449258000000
21
175.501175000000
31
0.0
0
LINE
5
686
100
AcDbEntity
8
C-0
6
CONTINUOUS
62
6
100
AcDbLine
10
424.449258000000
20
175.501175000000
30
0.0
11
438.449258000000
21
175.501175000000
31
0.0
0
LINE
5
687
100
AcDbEntity
8
C-0
6
CONTINUOUS
62
6
100
AcDbLine
10
447.443872000000
20
175.501175000000
30
0.0
11
460.443872000000
21
175.501175000000
31
0.0
0
LINE
5
688
100
AcDbEntity
8
C-0
6
CONTINUOUS
62
6
100
AcDbLine
10
487.127848000000
20
175.501175000000
30
0.0
11
500.127848000000
21
175.501175000000
31
0.0
0
LINE
5
689
100
AcDbEntity
8
C-0
6
CONTINUOUS
62
6
100
AcDbLine
10
510.127848000000
20
175.501175000000
30
0.0
11
523.127848000000
21
175.501175000000
31
0.0
0
LINE
5
68a
100
AcDbEntity
8
C-0
6
CONTINUOUS
62
6
100
AcDbLine
10
524.471418000000
20
175.501175000000
30
0.0
11
537.471418000000
21
175.501175000000
31
0.0
0
LINE
5
68b
100
AcDbEntity
8
C-0
6
CONTINUOUS
62
6
100
AcDbLine
10
563.078890000000
20
175.501175000000
30
0.0
11
576.078890000000
21
175.501175000000
31
0.0
0
LINE
5
68c
100
AcDbEntity
8
C-0
6
CONTINUOUS
62
6
100
AcDbLine
10
579.203237000000
20
175.501175000000
30
0.0
11
592.174199000000
21
175.501175000000
31
0.0
0
LINE
5
68d
100
AcDbEntity
8
C-0
6
CONTINUOUS
62
6
100
AcDbLine
10
611.866484000000
20
175.501175000000
30
0.0
11
622.866484000000
21
175.501175000000
31
0.0
0
LINE
5
68e
100
AcDbEntity
8
C-0
6
CONTINUOUS
62
6
100
AcDbLine
10
332.958530000000
20
177.501175000000
30
0.0
11
356.982126000000
21
177.501175000000
31
0.0
0
LINE
5
68f
100
AcDbEntity
8
C-0
6
CONTINUOUS
62
6
100
AcDbLine
10
384.449258000000
20
177.501175000000
30
0.0
11
397.449258000000
21
177.501175000000
31
0.0
0
LINE
5
690
100
AcDbEntity
8
C-0
6
CONTINUOUS
62
6
100
AcDbLine
10
422.324757000000
20
177.501175000000
30
0.0
11
437.821244000000
21
177.501175000000
31
0.0
0
LINE
5
691
100
AcDbEntity
8
C-0
6
CONTINUOUS
62
6
100
AcDbLine
10
446.511257000000
20
177.501175000000
30
0.0
11
459.511257000000
21
177.501175000000
31
0.0
0
LINE
5
692
100
AcDbEntity
8
C-0
6
CONTINUOUS
62
6
100
AcDbLine
10
488.060464000000
20
177.501175000000
30
0.0
11
501.060464000000
21
177.501175000000
31
0.0
0
LINE
5
693
100
AcDbEntity
8
C-0
6
CONTINUOUS
62
6
100
AcDbLine
10
511.060464000000
20
177.501175000000
30
0.0
11
536.538802000000
21
177.501175000000
31
0.0
0
LINE
5
694
100
AcDbEntity
8
C-0
6
CONTINUOUS
62
6
100
AcDbLine
10
563.078890000000
20
177.501175000000
30
0.0
11
576.078890000000
21
177.501175000000
31
0.0
0
LINE
5
695
100
AcDbEntity
8
C-0
6
CONTINUOUS
62
6
100
AcDbLine
10
577.953498000000
20
177.501175000000
30
0.0
11
590.924461000000
21
177.501175000000
31
0.0
0
LINE
5
696
100
AcDbEntity
8
C-0
6
CONTINUOUS
62
6
100
AcDbLine
10
611.866484000000
20
177.501175000000
30
0.0
11
622.866484000000
21
177.501175000000
31
0.0
0
LINE
5
697
100
AcDbEntity
8
C-0
6
CONTINUOUS
62
6
100
AcDbLine
10
333.891145000000
20
179.501175000000
30
0.0
11
356.049510000000
21
179.501175000000
31
0.0
0
LINE
5
698
100
AcDbEntity
8
C-0
6
CONTINUOUS
62
6
100
AcDbLine
10
384.449258000000
20
179.501175000000
30
0.0
11
397.449258000000
21
179.501175000000
31
0.0
0
LINE
5
699
100
AcDbEntity
8
C-0
6
CONTINUOUS
62
6
100
AcDbLine
10
419.245913000000
20
179.501175000000
30
0.0
11
436.990628000000
21
179.501175000000
31
0.0
0
LINE
5
69a
100
AcDbEntity
8
C-0
6
CONTINUOUS
62
6
100
AcDbLine
10
445.578642000000
20
179.501175000000
30
0.0
11
458.578642000000
21
179.501175000000
31
0.0
0
LINE
5
69b
100
AcDbEntity
8
C-0
6
CONTINUOUS
62
6
100
AcDbLine
10
488.993079000000
20
179.501175000000
30
0.0
11
501.993079000000
21
179.501175000000
31
0.0
0
LINE
5
69c
100
AcDbEntity
8
C-0
6
CONTINUOUS
62
6
100
AcDbLine
10
511.993079000000
20
179.501175000000
30
0.0
11
535.606187000000
21
179.501175000000
31
0.0
0
LINE
5
69d
100
AcDbEntity
8
C-0
6
CONTINUOUS
62
6
100
AcDbLine
10
563.078890000000
20
179.501175000000
30
0.0
11
576.078890000000
21
179.501175000000
31
0.0
0
LINE
5
69e
100
AcDbEntity
8
C-0
6
CONTINUOUS
62
6
100
AcDbLine
10
576.703760000000
20
179.501175000000
30
0.0
11
589.674722000000
21
179.501175000000
31
0.0
0
LINE
5
69f
100
AcDbEntity
8
C-0
6
CONTINUOUS
62
6
100
AcDbLine
10
611.866484000000
20
179.501175000000
30
0.0
11
622.866484000000
21
179.501175000000
31
0.0
0
LINE
5
6a0
100
AcDbEntity
8
C-0
6
CONTINUOUS
62
6
100
AcDbLine
10
334.823761000000
20
181.501175000000
30
0.0
11
355.116895000000
21
181.501175000000
31
0.0
0
LINE
5
6a1
100
AcDbEntity
8
C-0
6
CONTINUOUS
62
6
100
AcDbLine
10
384.449258000000
20
181.501175000000
30
0.0
11
435.759817000000
21
181.501175000000
31
0.0
0
LINE
5
6a2
100
AcDbEntity
8
C-0
6
CONTINUOUS
62
6
100
AcDbLine
10
444.646026000000
20
181.501175000000
30
0.0
11
457.646026000000
21
181.501175000000
31
0.0
0
LINE
5
6a3
100
AcDbEntity
8
C-0
6
CONTINUOUS
62
6
100
AcDbLine
10
489.925694000000
20
181.501175000000
30
0.0
11
502.925694000000
21
181.501175000000
31
0.0
0
LINE
5
6a4
100
AcDbEntity
8
C-0
6
CONTINUOUS
62
6
100
AcDbLine
10
512.925694000000
20
181.501175000000
30
0.0
11
534.673572000000
21
181.501175000000
31
0.0
0
LINE
5
6a5
100
AcDbEntity
8
C-0
6
CONTINUOUS
62
6
100
AcDbLine
10
563.078890000000
20
181.501175000000
30
0.0
11
588.424983000000
21
181.501175000000
31
0.0
0
LINE
5
6a6
100
AcDbEntity
8
C-0
6
CONTINUOUS
62
6
100
AcDbLine
10
611.866484000000
20
181.501175000000
30
0.0
11
622.866484000000
21
181.501175000000
31
0.0
0
LINE
5
6a7
100
AcDbEntity
8
C-0
6
CONTINUOUS
62
6
100
AcDbLine
10
335.756376000000
20
183.501175000000
30
0.0
11
354.184280000000
21
183.501175000000
31
0.0
0
LINE
5
6a8
100
AcDbEntity
8
C-0
6
CONTINUOUS
62
6
100
AcDbLine
10
384.449258000000
20
183.501175000000
30
0.0
11
433.868206000000
21
183.501175000000
31
0.0
0
LINE
5
6a9
100
AcDbEntity
8
C-0
6
CONTINUOUS
62
6
100
AcDbLine
10
443.713411000000
20
183.501175000000
30
0.0
11
456.713411000000
21
183.501175000000
31
0.0
0
LINE
5
6aa
100
AcDbEntity
8
C-0
6
CONTINUOUS
62
6
100
AcDbLine
10
490.858310000000
20
183.501175000000
30
0.0
11
503.858310000000
21
183.501175000000
31
0.0
0
LINE
5
6ab
100
AcDbEntity
8
C-0
6
CONTINUOUS
62
6
100
AcDbLine
10
513.858310000000
20
183.501175000000
30
0.0
11
533.740956000000
21
183.501175000000
31
0.0
0
LINE
5
6ac
100
AcDbEntity
8
C-0
6
CONTINUOUS
62
6
100
AcDbLine
10
563.078890000000
20
183.501175000000
30
0.0
11
587.175245000000
21
183.501175000000
31
0.0
0
LINE
5
6ad
100
AcDbEntity
8
C-0
6
CONTINUOUS
62
6
100
AcDbLine
10
611.866484000000
20
183.501175000000
30
0.0
11
622.866484000000
21
183.501175000000
31
0.0
0
LINE
5
6ae
100
AcDbEntity
8
C-0
6
CONTINUOUS
62
6
100
AcDbLine
10
336.688991000000
20
185.501175000000
30
0.0
11
353.251664000000
21
185.501175000000
31
0.0
0
LINE
5
6af
100
AcDbEntity
8
C-0
6
CONTINUOUS
62
6
100
AcDbLine
10
384.449258000000
20
185.501175000000
30
0.0
11
431.090547000000
21
185.501175000000
31
0.0
0
LINE
5
6b0
100
AcDbEntity
8
C-0
6
CONTINUOUS
62
6
100
AcDbLine
10
442.780796000000
20
185.501175000000
30
0.0
11
455.780796000000
21
185.501175000000
31
0.0
0
LINE
5
6b1
100
AcDbEntity
8
C-0
6
CONTINUOUS
62
6
100
AcDbLine
10
491.790925000000
20
185.501175000000
30
0.0
11
504.790925000000
21
185.501175000000
31
0.0
0
LINE
5
6b2
100
AcDbEntity
8
C-0
6
CONTINUOUS
62
6
100
AcDbLine
10
514.790925000000
20
185.501175000000
30
0.0
11
532.808341000000
21
185.501175000000
31
0.0
0
LINE
5
6b3
100
AcDbEntity
8
C-0
6
CONTINUOUS
62
6
100
AcDbLine
10
563.078890000000
20
185.501175000000
30
0.0
11
585.925506000000
21
185.501175000000
31
0.0
0
LINE
5
6b4
100
AcDbEntity
8
C-0
6
CONTINUOUS
62
6
100
AcDbLine
10
611.866484000000
20
185.501175000000
30
0.0
11
622.866484000000
21
185.501175000000
31
0.0
0
LINE
5
6b5
100
AcDbEntity
8
C-0
6
CONTINUOUS
62
6
100
AcDbLine
10
337.621607000000
20
187.501175000000
30
0.0
11
352.319049000000
21
187.501175000000
31
0.0
0
LINE
5
6b6
100
AcDbEntity
8
C-0
6
CONTINUOUS
62
6
100
AcDbLine
10
384.449258000000
20
187.501175000000
30
0.0
11
427.079888000000
21
187.501175000000
31
0.0
0
LINE
5
6b7
100
AcDbEntity
8
C-0
6
CONTINUOUS
62
6
100
AcDbLine
10
441.848181000000
20
187.501175000000
30
0.0
11
454.848181000000
21
187.501175000000
31
0.0
0
LINE
5
6b8
100
AcDbEntity
8
C-0
6
CONTINUOUS
62
6
100
AcDbLine
10
492.723540000000
20
187.501175000000
30
0.0
11
505.723540000000
21
187.501175000000
31
0.0
0
LINE
5
6b9
100
AcDbEntity
8
C-0
6
CONTINUOUS
62
6
100
AcDbLine
10
515.723540000000
20
187.501175000000
30
0.0
11
531.875726000000
21
187.501175000000
31
0.0
0
LINE
5
6ba
100
AcDbEntity
8
C-0
6
CONTINUOUS
62
6
100
AcDbLine
10
563.078890000000
20
187.501175000000
30
0.0
11
584.675767000000
21
187.501175000000
31
0.0
0
LINE
5
6bb
100
AcDbEntity
8
C-0
6
CONTINUOUS
62
6
100
AcDbLine
10
611.866484000000
20
187.501175000000
30
0.0
11
622.866484000000
21
187.501175000000
31
0.0
0
LINE
5
6bc
100
AcDbEntity
8
C-0
6
CONTINUOUS
62
6
100
AcDbLine
10
338.554222000000
20
189.501175000000
30
0.0
11
351.386434000000
21
189.501175000000
31
0.0
0
LINE
5
6bd
100
AcDbEntity
8
C-0
6
CONTINUOUS
62
6
100
AcDbLine
10
384.449258000000
20
189.501175000000
30
0.0
11
421.195931000000
21
189.501175000000
31
0.0
0
LINE
5
6be
100
AcDbEntity
8
C-0
6
CONTINUOUS
62
6
100
AcDbLine
10
440.915565000000
20
189.501175000000
30
0.0
11
453.915565000000
21
189.501175000000
31
0.0
0
LINE
5
6bf
100
AcDbEntity
8
C-0
6
CONTINUOUS
62
6
100
AcDbLine
10
493.656156000000
20
189.501175000000
30
0.0
11
506.656156000000
21
189.501175000000
31
0.0
0
LINE
5
6c0
100
AcDbEntity
8
C-0
6
CONTINUOUS
62
6
100
AcDbLine
10
516.656156000000
20
189.501175000000
30
0.0
11
530.943110000000
21
189.501175000000
31
0.0
0
LINE
5
6c1
100
AcDbEntity
8
C-0
6
CONTINUOUS
62
6
100
AcDbLine
10
563.078890000000
20
189.501175000000
30
0.0
11
583.426028000000
21
189.501175000000
31
0.0
0
LINE
5
6c2
100
AcDbEntity
8
C-0
6
CONTINUOUS
62
6
100
AcDbLine
10
611.866484000000
20
189.501175000000
30
0.0
11
622.866484000000
21
189.501175000000
31
0.0
0
LINE
5
6c3
100
AcDbEntity
8
C-0
6
CONTINUOUS
62
6
100
AcDbLine
10
204.111630000000
20
134.190522000000
30
0.0
11
246.150128000000
21
134.190522000000
31
0.0
0
LINE
5
6c4
100
AcDbEntity
8
C-0
6
CONTINUOUS
62
6
100
AcDbLine
10
204.111630000000
20
135.190522000000
30
0.0
11
246.150128000000
21
135.190522000000
31
0.0
0
LINE
5
6c5
100
AcDbEntity
8
C-0
6
CONTINUOUS
62
6
100
AcDbLine
10
204.111630000000
20
136.190522000000
30
0.0
11
246.150128000000
21
136.190522000000
31
0.0
0
LINE
5
6c6
100
AcDbEntity
8
C-0
6
CONTINUOUS
62
6
100
AcDbLine
10
204.111630000000
20
137.190522000000
30
0.0
11
246.150128000000
21
137.190522000000
31
0.0
0
LINE
5
6c7
100
AcDbEntity
8
C-0
6
CONTINUOUS
62
6
100
AcDbLine
10
204.111630000000
20
138.190522000000
30
0.0
11
246.150128000000
21
138.190522000000
31
0.0
0
LINE
5
6c8
100
AcDbEntity
8
C-0
6
CONTINUOUS
62
6
100
AcDbLine
10
204.111630000000
20
139.190522000000
30
0.0
11
246.150128000000
21
139.190522000000
31
0.0
0
LINE
5
6c9
100
AcDbEntity
8
C-0
6
CONTINUOUS
62
6
100
AcDbLine
10
204.111630000000
20
140.190522000000
30
0.0
11
246.150128000000
21
140.190522000000
31
0.0
0
LINE
5
6ca
100
AcDbEntity
8
C-0
6
CONTINUOUS
62
6
100
AcDbLine
10
204.111630000000
20
141.190522000000
30
0.0
11
246.150128000000
21
141.190522000000
31
0.0
0
LINE
5
6cb
100
AcDbEntity
8
C-0
6
CONTINUOUS
62
6
100
AcDbLine
10
204.111630000000
20
142.190522000000
30
0.0
11
246.150128000000
21
142.190522000000
31
0.0
0
LINE
5
6cc
100
AcDbEntity
8
C-0
6
CONTINUOUS
62
6
100
AcDbLine
10
204.111630000000
20
143.190522000000
30
0.0
11
246.150128000000
21
143.190522000000
31
0.0
0
LINE
5
6cd
100
AcDbEntity
8
C-0
6
CONTINUOUS
62
6
100
AcDbLine
10
204.111630000000
20
144.190522000000
30
0.0
11
246.150128000000
21
144.190522000000
31
0.0
0
LINE
5
6ce
100
AcDbEntity
8
C-0
6
CONTINUOUS
62
6
100
AcDbLine
10
204.111630000000
20
145.190522000000
30
0.0
11
246.150128000000
21
145.190522000000
31
0.0
0
LINE
5
6cf
100
AcDbEntity
8
C-0
6
CONTINUOUS
62
6
100
AcDbLine
10
204.111630000000
20
146.190522000000
30
0.0
11
246.150128000000
21
146.190522000000
31
0.0
0
LINE
5
6d0
100
AcDbEntity
8
C-0
6
CONTINUOUS
62
6
100
AcDbLine
10
204.111630000000
20
147.190522000000
30
0.0
11
246.150128000000
21
147.190522000000
31
0.0
0
LINE
5
6d1
100
AcDbEntity
8
C-0
6
CONTINUOUS
62
6
100
AcDbLine
10
204.111630000000
20
148.190522000000
30
0.0
11
246.150128000000
21
148.190522000000
31
0.0
0
LINE
5
6d2
100
AcDbEntity
8
C-0
6
CONTINUOUS
62
6
100
AcDbLine
10
204.111630000000
20
149.190522000000
30
0.0
11
246.150128000000
21
149.190522000000
31
0.0
0
LINE
5
6d3
100
AcDbEntity
8
C-0
6
CONTINUOUS
62
6
100
AcDbLine
10
204.111630000000
20
150.190522000000
30
0.0
11
246.150128000000
21
150.190522000000
31
0.0
0
LINE
5
6d4
100
AcDbEntity
8
C-0
6
CONTINUOUS
62
6
100
AcDbLine
10
204.111630000000
20
151.190522000000
30
0.0
11
246.150128000000
21
151.190522000000
31
0.0
0
LINE
5
6d5
100
AcDbEntity
8
C-0
6
CONTINUOUS
62
6
100
AcDbLine
10
204.111630000000
20
152.190522000000
30
0.0
11
246.150128000000
21
152.190522000000
31
0.0
0
LINE
5
6d6
100
AcDbEntity
8
C-0
6
CONTINUOUS
62
6
100
AcDbLine
10
204.111630000000
20
153.190522000000
30
0.0
11
246.150128000000
21
153.190522000000
31
0.0
0
LINE
5
6d7
100
AcDbEntity
8
C-0
6
CONTINUOUS
62
6
100
AcDbLine
10
204.111630000000
20
154.190522000000
30
0.0
11
246.150128000000
21
154.190522000000
31
0.0
0
LINE
5
6d8
100
AcDbEntity
8
C-0
6
CONTINUOUS
62
6
100
AcDbLine
10
204.111630000000
20
155.190522000000
30
0.0
11
246.150128000000
21
155.190522000000
31
0.0
0
LINE
5
6d9
100
AcDbEntity
8
C-0
6
CONTINUOUS
62
6
100
AcDbLine
10
204.111630000000
20
156.190522000000
30
0.0
11
246.150128000000
21
156.190522000000
31
0.0
0
LINE
5
6da
100
AcDbEntity
8
C-0
6
CONTINUOUS
62
6
100
AcDbLine
10
204.111630000000
20
157.190522000000
30
0.0
11
246.150128000000
21
157.190522000000
31
0.0
0
LINE
5
6db
100
AcDbEntity
8
C-0
6
CONTINUOUS
62
6
100
AcDbLine
10
204.111630000000
20
158.190522000000
30
0.0
11
246.150128000000
21
158.190522000000
31
0.0
0
LINE
5
6dc
100
AcDbEntity
8
C-0
6
CONTINUOUS
62
6
100
AcDbLine
10
204.111630000000
20
159.190522000000
30
0.0
11
246.150128000000
21
159.190522000000
31
0.0
0
LINE
5
6dd
100
AcDbEntity
8
C-0
6
CONTINUOUS
62
6
100
AcDbLine
10
204.111630000000
20
160.190522000000
30
0.0
11
246.150128000000
21
160.190522000000
31
0.0
0
LINE
5
6de
100
AcDbEntity
8
C-0
6
CONTINUOUS
62
6
100
AcDbLine
10
204.111630000000
20
161.190522000000
30
0.0
11
246.150128000000
21
161.190522000000
31
0.0
0
LINE
5
6df
100
AcDbEntity
8
C-0
6
CONTINUOUS
62
6
100
AcDbLine
10
204.111630000000
20
162.190522000000
30
0.0
11
246.150128000000
21
162.190522000000
31
0.0
0
LINE
5
6e0
100
AcDbEntity
8
C-0
6
CONTINUOUS
62
6
100
AcDbLine
10
204.111630000000
20
163.190522000000
30
0.0
11
246.150128000000
21
163.190522000000
31
0.0
0
LINE
5
6e1
100
AcDbEntity
8
C-0
6
CONTINUOUS
62
6
100
AcDbLine
10
204.111630000000
20
164.190522000000
30
0.0
11
246.150128000000
21
164.190522000000
31
0.0
0
LINE
5
6e2
100
AcDbEntity
8
C-0
6
CONTINUOUS
62
6
100
AcDbLine
10
204.111630000000
20
165.190522000000
30
0.0
11
246.150128000000
21
165.190522000000
31
0.0
0
LINE
5
6e3
100
AcDbEntity
8
C-0
6
CONTINUOUS
62
6
100
AcDbLine
10
204.111630000000
20
166.190522000000
30
0.0
11
246.150128000000
21
166.190522000000
31
0.0
0
LINE
5
6e4
100
AcDbEntity
8
C-0
6
CONTINUOUS
62
6
100
AcDbLine
10
204.111630000000
20
167.190522000000
30
0.0
11
246.150128000000
21
167.190522000000
31
0.0
0
LINE
5
6e5
100
AcDbEntity
8
C-0
6
CONTINUOUS
62
6
100
AcDbLine
10
204.111630000000
20
168.190522000000
30
0.0
11
246.150128000000
21
168.190522000000
31
0.0
0
LINE
5
6e6
100
AcDbEntity
8
C-0
6
CONTINUOUS
62
6
100
AcDbLine
10
204.111630000000
20
169.190522000000
30
0.0
11
246.150128000000
21
169.190522000000
31
0.0
0
LINE
5
6e7
100
AcDbEntity
8
C-0
6
CONTINUOUS
62
6
100
AcDbLine
10
204.111630000000
20
170.190522000000
30
0.0
11
246.150128000000
21
170.190522000000
31
0.0
0
LINE
5
6e8
100
AcDbEntity
8
C-0
6
CONTINUOUS
62
6
100
AcDbLine
10
204.111630000000
20
171.190522000000
30
0.0
11
246.150128000000
21
171.190522000000
31
0.0
0
LINE
5
6e9
100
AcDbEntity
8
C-0
6
CONTINUOUS
62
6
100
AcDbLine
10
204.111630000000
20
172.190522000000
30
0.0
11
246.150128000000
21
172.190522000000
31
0.0
0
LINE
5
6ea
100
AcDbEntity
8
C-0
6
CONTINUOUS
62
6
100
AcDbLine
10
204.111630000000
20
173.190522000000
30
0.0
11
246.150128000000
21
173.190522000000
31
0.0
0
LINE
5
6eb
100
AcDbEntity
8
C-0
6
CONTINUOUS
62
6
100
AcDbLine
10
204.111630000000
20
174.190522000000
30
0.0
11
246.150128000000
21
174.190522000000
31
0.0
0
LINE
5
6ec
100
AcDbEntity
8
C-0
6
CONTINUOUS
62
6
100
AcDbLine
10
204.111630000000
20
175.190522000000
30
0.0
11
246.150128000000
21
175.190522000000
31
0.0
0
LINE
5
6ed
100
AcDbEntity
8
C-0
6
CONTINUOUS
62
6
100
AcDbLine
10
298.923255000000
20
222.190522000000
30
0.0
11
313.558833000000
21
222.190522000000
31
0.0
0
LINE
5
6ee
100
AcDbEntity
8
C-0
6
CONTINUOUS
62
6
100
AcDbLine
10
296.200271000000
20
224.190522000000
30
0.0
11
316.281817000000
21
224.190522000000
31
0.0
0
LINE
5
6ef
100
AcDbEntity
8
C-0
6
CONTINUOUS
62
6
100
AcDbLine
10
294.405326000000
20
226.190522000000
30
0.0
11
318.076762000000
21
226.190522000000
31
0.0
0
LINE
5
6f0
100
AcDbEntity
8
C-0
6
CONTINUOUS
62
6
100
AcDbLine
10
293.150922000000
20
228.190522000000
30
0.0
11
319.331166000000
21
228.190522000000
31
0.0
0
LINE
5
6f1
100
AcDbEntity
8
C-0
6
CONTINUOUS
62
6
100
AcDbLine
10
292.290474000000
20
230.190522000000
30
0.0
11
320.191614000000
21
230.190522000000
31
0.0
0
LINE
5
6f2
100
AcDbEntity
8
C-0
6
CONTINUOUS
62
6
100
AcDbLine
10
291.753619000000
20
232.190522000000
30
0.0
11
320.728469000000
21
232.190522000000
31
0.0
0
LINE
5
6f3
100
AcDbEntity
8
C-0
6
CONTINUOUS
62
6
100
AcDbLine
10
291.504946000000
20
234.190522000000
30
0.0
11
320.977142000000
21
234.190522000000
31
0.0
0
LINE
5
6f4
100
AcDbEntity
8
C-0
6
CONTINUOUS
62
6
100
AcDbLine
10
291.529835000000
20
236.190522000000
30
0.0
11
320.952253000000
21
236.190522000000
31
0.0
0
LINE
5
6f5
100
AcDbEntity
8
C-0
6
CONTINUOUS
62
6
100
AcDbLine
10
291.829703000000
20
238.190522000000
30
0.0
11
320.652385000000
21
238.190522000000
31
0.0
0
LINE
5
6f6
100
AcDbEntity
8
C-0
6
CONTINUOUS
62
6
100
AcDbLine
10
292.422439000000
20
240.190522000000
30
0.0
11
320.059649000000
21
240.190522000000
31
0.0
0
LINE
5
6f7
100
AcDbEntity
8
C-0
6
CONTINUOUS
62
6
100
AcDbLine
10
293.348374000000
20
242.190522000000
30
0.0
11
319.133714000000
21
242.190522000000
31
0.0
0
LINE
5
6f8
100
AcDbEntity
8
C-0
6
CONTINUOUS
62
6
100
AcDbLine
10
294.687342000000
20
244.190522000000
30
0.0
11
317.794746000000
21
244.190522000000
31
0.0
0
LINE
5
6f9
100
AcDbEntity
8
C-0
6
CONTINUOUS
62
6
100
AcDbLine
10
296.610098000000
20
246.190522000000
30
0.0
11
315.871990000000
21
246.190522000000
31
0.0
0
LINE
5
6fa
100
AcDbEntity
8
C-0
6
CONTINUOUS
62
6
100
AcDbLine
10
299.606121000000
20
248.190522000000
30
0.0
11
312.875967000000
21
248.190522000000
31
0.0
0
LINE
5
6fb
100
AcDbEntity
8
C-0
6
CONTINUOUS
62
6
100
AcDbLine
10
320.223165000000
20
230.282891000000
30
0.0
11
320.223165000000
21
239.731698000000
31
0.0
0
LINE
5
6fc
100
AcDbEntity
8
C-0
6
CONTINUOUS
62
6
100
AcDbLine
10
318.223165000000
20
226.390539000000
30
0.0
11
318.223165000000
21
243.624050000000
31
0.0
0
LINE
5
6fd
100
AcDbEntity
8
C-0
6
CONTINUOUS
62
6
100
AcDbLine
10
316.223165000000
20
224.136372000000
30
0.0
11
316.223165000000
21
245.878217000000
31
0.0
0
LINE
5
6fe
100
AcDbEntity
8
C-0
6
CONTINUOUS
62
6
100
AcDbLine
10
314.223165000000
20
222.593373000000
30
0.0
11
314.223165000000
21
247.421216000000
31
0.0
0
LINE
5
6ff
100
AcDbEntity
8
C-0
6
CONTINUOUS
62
6
100
AcDbLine
10
312.223165000000
20
221.515300000000
30
0.0
11
312.223165000000
21
248.499289000000
31
0.0
0
LINE
5
700
100
AcDbEntity
8
C-0
6
CONTINUOUS
62
6
100
AcDbLine
10
310.223165000000
20
220.795947000000
30
0.0
11
310.223165000000
21
249.218642000000
31
0.0
0
LINE
5
701
100
AcDbEntity
8
C-0
6
CONTINUOUS
62
6
100
AcDbLine
10
308.223165000000
20
220.382286000000
30
0.0
11
308.223165000000
21
249.632304000000
31
0.0
0
LINE
5
702
100
AcDbEntity
8
C-0
6
CONTINUOUS
62
6
100
AcDbLine
10
306.223165000000
20
220.248590000000
30
0.0
11
306.223165000000
21
249.766000000000
31
0.0
0
LINE
5
703
100
AcDbEntity
8
C-0
6
CONTINUOUS
62
6
100
AcDbLine
10
245.223165000000
20
133.984893000000
30
0.0
11
245.223165000000
21
176.082585000000
31
0.0
0
LINE
5
704
100
AcDbEntity
8
C-0
6
CONTINUOUS
62
6
100
AcDbLine
10
244.223165000000
20
133.984893000000
30
0.0
11
244.223165000000
21
176.082585000000
31
0.0
0
LINE
5
705
100
AcDbEntity
8
C-0
6
CONTINUOUS
62
6
100
AcDbLine
10
243.223165000000
20
133.984893000000
30
0.0
11
243.223165000000
21
176.082585000000
31
0.0
0
LINE
5
706
100
AcDbEntity
8
C-0
6
CONTINUOUS
62
6
100
AcDbLine
10
242.223165000000
20
133.984893000000
30
0.0
11
242.223165000000
21
176.082585000000
31
0.0
0
LINE
5
707
100
AcDbEntity
8
C-0
6
CONTINUOUS
62
6
100
AcDbLine
10
241.223165000000
20
133.984893000000
30
0.0
11
241.223165000000
21
176.082585000000
31
0.0
0
LINE
5
708
100
AcDbEntity
8
C-0
6
CONTINUOUS
62
6
100
AcDbLine
10
240.223165000000
20
133.984893000000
30
0.0
11
240.223165000000
21
176.082585000000
31
0.0
0
LINE
5
709
100
AcDbEntity
8
C-0
6
CONTINUOUS
62
6
100
AcDbLine
10
239.223165000000
20
133.984893000000
30
0.0
11
239.223165000000
21
176.082585000000
31
0.0
0
LINE
5
70a
100
AcDbEntity
8
C-0
6
CONTINUOUS
62
6
100
AcDbLine
10
238.223165000000
20
133.984893000000
30
0.0
11
238.223165000000
21
176.082585000000
31
0.0
0
LINE
5
70b
100
AcDbEntity
8
C-0
6
CONTINUOUS
62
6
100
AcDbLine
10
237.223165000000
20
133.984893000000
30
0.0
11
237.223165000000
21
176.082585000000
31
0.0
0
LINE
5
70c
100
AcDbEntity
8
C-0
6
CONTINUOUS
62
6
100
AcDbLine
10
236.223165000000
20
133.984893000000
30
0.0
11
236.223165000000
21
176.082585000000
31
0.0
0
LINE
5
70d
100
AcDbEntity
8
C-0
6
CONTINUOUS
62
6
100
AcDbLine
10
235.223165000000
20
133.984893000000
30
0.0
11
235.223165000000
21
176.082585000000
31
0.0
0
LINE
5
70e
100
AcDbEntity
8
C-0
6
CONTINUOUS
62
6
100
AcDbLine
10
234.223165000000
20
133.984893000000
30
0.0
11
234.223165000000
21
176.082585000000
31
0.0
0
LINE
5
70f
100
AcDbEntity
8
C-0
6
CONTINUOUS
62
6
100
AcDbLine
10
233.223165000000
20
133.984893000000
30
0.0
11
233.223165000000
21
176.082585000000
31
0.0
0
LINE
5
710
100
AcDbEntity
8
C-0
6
CONTINUOUS
62
6
100
AcDbLine
10
232.223165000000
20
133.984893000000
30
0.0
11
232.223165000000
21
176.082585000000
31
0.0
0
LINE
5
711
100
AcDbEntity
8
C-0
6
CONTINUOUS
62
6
100
AcDbLine
10
231.223165000000
20
133.984893000000
30
0.0
11
231.223165000000
21
176.082585000000
31
0.0
0
LINE
5
712
100
AcDbEntity
8
C-0
6
CONTINUOUS
62
6
100
AcDbLine
10
230.223165000000
20
133.984893000000
30
0.0
11
230.223165000000
21
176.082585000000
31
0.0
0
LINE
5
713
100
AcDbEntity
8
C-0
6
CONTINUOUS
62
6
100
AcDbLine
10
229.223165000000
20
133.984893000000
30
0.0
11
229.223165000000
21
176.082585000000
31
0.0
0
LINE
5
714
100
AcDbEntity
8
C-0
6
CONTINUOUS
62
6
100
AcDbLine
10
228.223165000000
20
133.984893000000
30
0.0
11
228.223165000000
21
176.082585000000
31
0.0
0
LINE
5
715
100
AcDbEntity
8
C-0
6
CONTINUOUS
62
6
100
AcDbLine
10
227.223165000000
20
133.984893000000
30
0.0
11
227.223165000000
21
176.082585000000
31
0.0
0
LINE
5
716
100
AcDbEntity
8
C-0
6
CONTINUOUS
62
6
100
AcDbLine
10
226.223165000000
20
133.984893000000
30
0.0
11
226.223165000000
21
176.082585000000
31
0.0
0
LINE
5
717
100
AcDbEntity
8
C-0
6
CONTINUOUS
62
6
100
AcDbLine
10
225.223165000000
20
133.984893000000
30
0.0
11
225.223165000000
21
176.082585000000
31
0.0
0
LINE
5
718
100
AcDbEntity
8
C-0
6
CONTINUOUS
62
6
100
AcDbLine
10
224.223165000000
20
133.984893000000
30
0.0
11
224.223165000000
21
176.082585000000
31
0.0
0
LINE
5
719
100
AcDbEntity
8
C-0
6
CONTINUOUS
62
6
100
AcDbLine
10
223.223165000000
20
133.984893000000
30
0.0
11
223.223165000000
21
176.082585000000
31
0.0
0
LINE
5
71a
100
AcDbEntity
8
C-0
6
CONTINUOUS
62
6
100
AcDbLine
10
222.223165000000
20
133.984893000000
30
0.0
11
222.223165000000
21
176.082585000000
31
0.0
0
LINE
5
71b
100
AcDbEntity
8
C-0
6
CONTINUOUS
62
6
100
AcDbLine
10
221.223165000000
20
133.984893000000
30
0.0
11
221.223165000000
21
176.082585000000
31
0.0
0
LINE
5
71c
100
AcDbEntity
8
C-0
6
CONTINUOUS
62
6
100
AcDbLine
10
220.223165000000
20
133.984893000000
30
0.0
11
220.223165000000
21
176.082585000000
31
0.0
0
LINE
5
71d
100
AcDbEntity
8
C-0
6
CONTINUOUS
62
6
100
AcDbLine
10
219.223165000000
20
133.984893000000
30
0.0
11
219.223165000000
21
176.082585000000
31
0.0
0
LINE
5
71e
100
AcDbEntity
8
C-0
6
CONTINUOUS
62
6
100
AcDbLine
10
218.223165000000
20
133.984893000000
30
0.0
11
218.223165000000
21
176.082585000000
31
0.0
0
LINE
5
71f
100
AcDbEntity
8
C-0
6
CONTINUOUS
62
6
100
AcDbLine
10
217.223165000000
20
133.984893000000
30
0.0
11
217.223165000000
21
176.082585000000
31
0.0
0
LINE
5
720
100
AcDbEntity
8
C-0
6
CONTINUOUS
62
6
100
AcDbLine
10
216.223165000000
20
133.984893000000
30
0.0
11
216.223165000000
21
176.082585000000
31
0.0
0
LINE
5
721
100
AcDbEntity
8
C-0
6
CONTINUOUS
62
6
100
AcDbLine
10
215.223165000000
20
133.984893000000
30
0.0
11
215.223165000000
21
176.082585000000
31
0.0
0
LINE
5
722
100
AcDbEntity
8
C-0
6
CONTINUOUS
62
6
100
AcDbLine
10
214.223165000000
20
133.984893000000
30
0.0
11
214.223165000000
21
176.082585000000
31
0.0
0
LINE
5
723
100
AcDbEntity
8
C-0
6
CONTINUOUS
62
6
100
AcDbLine
10
213.223165000000
20
133.984893000000
30
0.0
11
213.223165000000
21
176.082585000000
31
0.0
0
LINE
5
724
100
AcDbEntity
8
C-0
6
CONTINUOUS
62
6
100
AcDbLine
10
212.223165000000
20
133.984893000000
30
0.0
11
212.223165000000
21
176.082585000000
31
0.0
0
LINE
5
725
100
AcDbEntity
8
C-0
6
CONTINUOUS
62
6
100
AcDbLine
10
211.223165000000
20
133.984893000000
30
0.0
11
211.223165000000
21
176.082585000000
31
0.0
0
LINE
5
726
100
AcDbEntity
8
C-0
6
CONTINUOUS
62
6
100
AcDbLine
10
210.223165000000
20
133.984893000000
30
0.0
11
210.223165000000
21
176.082585000000
31
0.0
0
LINE
5
727
100
AcDbEntity
8
C-0
6
CONTINUOUS
62
6
100
AcDbLine
10
209.223165000000
20
133.984893000000
30
0.0
11
209.223165000000
21
176.082585000000
31
0.0
0
LINE
5
728
100
AcDbEntity
8
C-0
6
CONTINUOUS
62
6
100
AcDbLine
10
208.223165000000
20
133.984893000000
30
0.0
11
208.223165000000
21
176.082585000000
31
0.0
0
LINE
5
729
100
AcDbEntity
8
C-0
6
CONTINUOUS
62
6
100
AcDbLine
10
207.223165000000
20
133.984893000000
30
0.0
11
207.223165000000
21
176.082585000000
31
0.0
0
LINE
5
72a
100
AcDbEntity
8
C-0
6
CONTINUOUS
62
6
100
AcDbLine
10
206.223165000000
20
133.984893000000
30
0.0
11
206.223165000000
21
176.082585000000
31
0.0
0
LINE
5
72b
100
AcDbEntity
8
C-0
6
CONTINUOUS
62
6
100
AcDbLine
10
205.223165000000
20
133.984893000000
30
0.0
11
205.223165000000
21
176.082585000000
31
0.0
0
LINE
5
72c
100
AcDbEntity
8
C-0
6
CONTINUOUS
62
6
100
AcDbLine
10
204.223165000000
20
133.984893000000
30
0.0
11
204.223165000000
21
176.082585000000
31
0.0
0
LINE
5
72d
100
AcDbEntity
8
C-0
6
CONTINUOUS
62
6
100
AcDbLine
10
227.220640000000
20
206.853919000000
30
0.0
11
170.319056000000
21
132.765734000000
31
0.0
0
LINE
5
72e
100
AcDbEntity
8
C-0
6
CONTINUOUS
62
6
100
AcDbLine
10
170.319056000000
20
132.765734000000
30
0.0
11
164.745024000000
21
130.443220000000
31
0.0
0
LINE
5
72f
100
AcDbEntity
8
C-0
6
CONTINUOUS
62
6
100
AcDbLine
10
164.745024000000
20
130.443220000000
30
0.0
11
159.635494000000
21
128.585209000000
31
0.0
0
LINE
5
730
100
AcDbEntity
8
C-0
6
CONTINUOUS
62
6
100
AcDbLine
10
159.635494000000
20
128.585209000000
30
0.0
11
156.848477000000
21
131.139974000000
31
0.0
0
LINE
5
731
100
AcDbEntity
8
C-0
6
CONTINUOUS
62
6
100
AcDbLine
10
156.848477000000
20
131.139974000000
30
0.0
11
154.525964000000
21
134.391493000000
31
0.0
0
LINE
5
732
100
AcDbEntity
8
C-0
6
CONTINUOUS
62
6
100
AcDbLine
10
154.525964000000
20
134.391493000000
30
0.0
11
152.667953000000
21
140.662280000000
31
0.0
0
LINE
5
733
100
AcDbEntity
8
C-0
6
CONTINUOUS
62
6
100
AcDbLine
10
152.667953000000
20
140.662280000000
30
0.0
11
154.525964000000
21
146.468564000000
31
0.0
0
LINE
5
734
100
AcDbEntity
8
C-0
6
CONTINUOUS
62
6
100
AcDbLine
10
154.525964000000
20
146.468564000000
30
0.0
11
161.493505000000
21
156.455373000000
31
0.0
0
LINE
5
735
100
AcDbEntity
8
C-0
6
CONTINUOUS
62
6
100
AcDbLine
10
161.493505000000
20
156.455373000000
30
0.0
11
213.982313000000
21
227.524290000000
31
0.0
0
LINE
5
736
100
AcDbEntity
8
C-0
6
CONTINUOUS
62
6
100
AcDbLine
10
213.982313000000
20
227.524290000000
30
0.0
11
213.982313000000
21
232.633820000000
31
0.0
0
LINE
5
737
100
AcDbEntity
8
C-0
6
CONTINUOUS
62
6
100
AcDbLine
10
213.982313000000
20
232.633820000000
30
0.0
11
215.375821000000
21
235.885339000000
31
0.0
0
LINE
5
738
100
AcDbEntity
8
C-0
6
CONTINUOUS
62
6
100
AcDbLine
10
215.375821000000
20
235.885339000000
30
0.0
11
219.091843000000
21
240.065864000000
31
0.0
0
LINE
5
739
100
AcDbEntity
8
C-0
6
CONTINUOUS
62
6
100
AcDbLine
10
219.091843000000
20
240.065864000000
30
0.0
11
220.253099000000
21
241.227120000000
31
0.0
0
LINE
5
73a
100
AcDbEntity
8
C-0
6
CONTINUOUS
62
6
100
AcDbLine
10
220.253099000000
20
241.227120000000
30
0.0
11
222.343362000000
21
244.246388000000
31
0.0
0
LINE
5
73b
100
AcDbEntity
8
C-0
6
CONTINUOUS
62
6
100
AcDbLine
10
222.343362000000
20
244.246388000000
30
0.0
11
225.827132000000
21
244.710891000000
31
0.0
0
LINE
5
73c
100
AcDbEntity
8
C-0
6
CONTINUOUS
62
6
100
AcDbLine
10
225.827132000000
20
244.710891000000
30
0.0
11
231.865668000000
21
245.872148000000
31
0.0
0
LINE
5
73d
100
AcDbEntity
8
C-0
6
CONTINUOUS
62
6
100
AcDbLine
10
231.865668000000
20
245.872148000000
30
0.0
11
234.188181000000
21
245.639896000000
31
0.0
0
LINE
5
73e
100
AcDbEntity
8
C-0
6
CONTINUOUS
62
6
100
AcDbLine
10
234.188181000000
20
245.639896000000
30
0.0
11
239.065460000000
21
244.014137000000
31
0.0
0
LINE
5
73f
100
AcDbEntity
8
C-0
6
CONTINUOUS
62
6
100
AcDbLine
10
239.065460000000
20
244.014137000000
30
0.0
11
240.923471000000
21
241.691623000000
31
0.0
0
LINE
5
740
100
AcDbEntity
8
C-0
6
CONTINUOUS
62
6
100
AcDbLine
10
240.923471000000
20
241.691623000000
30
0.0
11
246.033001000000
21
234.956334000000
31
0.0
0
LINE
5
741
100
AcDbEntity
8
C-0
6
CONTINUOUS
62
6
100
AcDbLine
10
246.033001000000
20
234.956334000000
30
0.0
11
261.826093000000
21
208.711930000000
31
0.0
0
LINE
5
742
100
AcDbEntity
8
C-0
6
CONTINUOUS
62
6
100
AcDbLine
10
273.014721000000
20
189.810502000000
30
0.0
11
295.493438000000
21
151.006959000000
31
0.0
0
LINE
5
743
100
AcDbEntity
8
C-0
6
CONTINUOUS
62
6
100
AcDbLine
10
295.493438000000
20
151.006959000000
30
0.0
11
297.648981000000
21
145.464136000000
31
0.0
0
LINE
5
744
100
AcDbEntity
8
C-0
6
CONTINUOUS
62
6
100
AcDbLine
10
297.648981000000
20
145.464136000000
30
0.0
11
296.725177000000
21
142.692724000000
31
0.0
0
LINE
5
745
100
AcDbEntity
8
C-0
6
CONTINUOUS
62
6
100
AcDbLine
10
296.725177000000
20
142.692724000000
30
0.0
11
293.953765000000
21
138.843541000000
31
0.0
0
LINE
5
746
100
AcDbEntity
8
C-0
6
CONTINUOUS
62
6
100
AcDbLine
10
293.953765000000
20
138.843541000000
30
0.0
11
283.176054000000
21
135.610228000000
31
0.0
0
LINE
5
747
100
AcDbEntity
8
C-0
6
CONTINUOUS
62
6
100
AcDbLine
10
283.176054000000
20
135.610228000000
30
0.0
11
276.709427000000
21
133.300718000000
31
0.0
0
LINE
5
748
100
AcDbEntity
8
C-0
6
CONTINUOUS
62
6
100
AcDbLine
10
276.709427000000
20
133.300718000000
30
0.0
11
271.012636000000
21
135.610228000000
31
0.0
0
LINE
5
749
100
AcDbEntity
8
C-0
6
CONTINUOUS
62
6
100
AcDbLine
10
271.012636000000
20
135.610228000000
30
0.0
11
262.236500000000
21
145.002234000000
31
0.0
0
LINE
5
74a
100
AcDbEntity
8
C-0
6
CONTINUOUS
62
6
100
AcDbLine
10
262.236500000000
20
145.002234000000
30
0.0
11
261.928565000000
21
150.083155000000
31
0.0
0
LINE
5
74b
100
AcDbEntity
8
C-0
6
CONTINUOUS
62
6
100
AcDbLine
10
261.928565000000
20
150.083155000000
30
0.0
11
227.220640000000
21
206.853919000000
31
0.0
0
LINE
5
74c
100
AcDbEntity
8
C-0
6
CONTINUOUS
62
6
100
AcDbLine
10
292.873235000000
20
138.519382000000
30
0.0
11
295.898718000000
21
141.544865000000
31
0.0
0
LINE
5
74d
100
AcDbEntity
8
C-0
6
CONTINUOUS
62
6
100
AcDbLine
10
288.832625000000
20
137.307199000000
30
0.0
11
297.464343000000
21
145.938917000000
31
0.0
0
LINE
5
74e
100
AcDbEntity
8
C-0
6
CONTINUOUS
62
6
100
AcDbLine
10
284.792015000000
20
136.095016000000
30
0.0
11
296.672384000000
21
147.975385000000
31
0.0
0
LINE
5
74f
100
AcDbEntity
8
C-0
6
CONTINUOUS
62
6
100
AcDbLine
10
280.535881000000
20
134.667309000000
30
0.0
11
295.880424000000
21
150.011852000000
31
0.0
0
LINE
5
750
100
AcDbEntity
8
C-0
6
CONTINUOUS
62
6
100
AcDbLine
10
276.447179000000
20
133.407035000000
30
0.0
11
294.962914000000
21
151.922769000000
31
0.0
0
LINE
5
751
100
AcDbEntity
8
C-0
6
CONTINUOUS
62
6
100
AcDbLine
10
274.434645000000
20
134.222927000000
30
0.0
11
293.925429000000
21
153.713711000000
31
0.0
0
LINE
5
752
100
AcDbEntity
8
C-0
6
CONTINUOUS
62
6
100
AcDbLine
10
272.422110000000
20
135.038820000000
30
0.0
11
292.887944000000
21
155.504654000000
31
0.0
0
LINE
5
753
100
AcDbEntity
8
C-0
6
CONTINUOUS
62
6
100
AcDbLine
10
270.603229000000
20
136.048366000000
30
0.0
11
291.850459000000
21
157.295596000000
31
0.0
0
LINE
5
754
100
AcDbEntity
8
C-0
6
CONTINUOUS
62
6
100
AcDbLine
10
269.236955000000
20
137.510519000000
30
0.0
11
290.812974000000
21
159.086538000000
31
0.0
0
LINE
5
755
100
AcDbEntity
8
C-0
6
CONTINUOUS
62
6
100
AcDbLine
10
267.870680000000
20
138.972672000000
30
0.0
11
289.775490000000
21
160.877481000000
31
0.0
0
LINE
5
756
100
AcDbEntity
8
C-0
6
CONTINUOUS
62
6
100
AcDbLine
10
266.504406000000
20
140.434825000000
30
0.0
11
288.738005000000
21
162.668423000000
31
0.0
0
LINE
5
757
100
AcDbEntity
8
C-0
6
CONTINUOUS
62
6
100
AcDbLine
10
265.138132000000
20
141.896978000000
30
0.0
11
287.700520000000
21
164.459365000000
31
0.0
0
LINE
5
758
100
AcDbEntity
8
C-0
6
CONTINUOUS
62
6
100
AcDbLine
10
263.771858000000
20
143.359131000000
30
0.0
11
286.663035000000
21
166.250308000000
31
0.0
0
LINE
5
759
100
AcDbEntity
8
C-0
6
CONTINUOUS
62
6
100
AcDbLine
10
262.405584000000
20
144.821284000000
30
0.0
11
285.625551000000
21
168.041250000000
31
0.0
0
LINE
5
75a
100
AcDbEntity
8
C-0
6
CONTINUOUS
62
6
100
AcDbLine
10
262.094877000000
20
147.339004000000
30
0.0
11
284.588066000000
21
169.832192000000
31
0.0
0
LINE
5
75b
100
AcDbEntity
8
C-0
6
CONTINUOUS
62
6
100
AcDbLine
10
261.933253000000
20
150.005807000000
30
0.0
11
283.550581000000
21
171.623135000000
31
0.0
0
LINE
5
75c
100
AcDbEntity
8
C-0
6
CONTINUOUS
62
6
100
AcDbLine
10
260.886557000000
20
151.787538000000
30
0.0
11
282.513096000000
21
173.414077000000
31
0.0
0
LINE
5
75d
100
AcDbEntity
8
C-0
6
CONTINUOUS
62
6
100
AcDbLine
10
259.813423000000
20
153.542832000000
30
0.0
11
281.475611000000
21
175.205020000000
31
0.0
0
LINE
5
75e
100
AcDbEntity
8
C-0
6
CONTINUOUS
62
6
100
AcDbLine
10
258.740290000000
20
155.298125000000
30
0.0
11
280.438127000000
21
176.995962000000
31
0.0
0
LINE
5
75f
100
AcDbEntity
8
C-0
6
CONTINUOUS
62
6
100
AcDbLine
10
257.667157000000
20
157.053419000000
30
0.0
11
279.400642000000
21
178.786904000000
31
0.0
0
LINE
5
760
100
AcDbEntity
8
C-0
6
CONTINUOUS
62
6
100
AcDbLine
10
256.594023000000
20
158.808713000000
30
0.0
11
278.363157000000
21
180.577847000000
31
0.0
0
LINE
5
761
100
AcDbEntity
8
C-0
6
CONTINUOUS
62
6
100
AcDbLine
10
255.520890000000
20
160.564006000000
30
0.0
11
277.325672000000
21
182.368789000000
31
0.0
0
LINE
5
762
100
AcDbEntity
8
C-0
6
CONTINUOUS
62
6
100
AcDbLine
10
254.447756000000
20
162.319300000000
30
0.0
11
276.288188000000
21
184.159731000000
31
0.0
0
LINE
5
763
100
AcDbEntity
8
C-0
6
CONTINUOUS
62
6
100
AcDbLine
10
253.374623000000
20
164.074594000000
30
0.0
11
275.250703000000
21
185.950674000000
31
0.0
0
LINE
5
764
100
AcDbEntity
8
C-0
6
CONTINUOUS
62
6
100
AcDbLine
10
252.301490000000
20
165.829888000000
30
0.0
11
274.213218000000
21
187.741616000000
31
0.0
0
LINE
5
765
100
AcDbEntity
8
C-0
6
CONTINUOUS
62
6
100
AcDbLine
10
251.228356000000
20
167.585181000000
30
0.0
11
273.175733000000
21
189.532558000000
31
0.0
0
LINE
5
766
100
AcDbEntity
8
C-0
6
CONTINUOUS
62
6
100
AcDbLine
10
250.155223000000
20
169.340475000000
30
0.0
11
270.625250000000
21
189.810502000000
31
0.0
0
LINE
5
767
100
AcDbEntity
8
C-0
6
CONTINUOUS
62
6
100
AcDbLine
10
249.082089000000
20
171.095769000000
30
0.0
11
267.796823000000
21
189.810502000000
31
0.0
0
LINE
5
768
100
AcDbEntity
8
C-0
6
CONTINUOUS
62
6
100
AcDbLine
10
248.008956000000
20
172.851063000000
30
0.0
11
264.968396000000
21
189.810502000000
31
0.0
0
LINE
5
769
100
AcDbEntity
8
C-0
6
CONTINUOUS
62
6
100
AcDbLine
10
246.935823000000
20
174.606356000000
30
0.0
11
262.139969000000
21
189.810502000000
31
0.0
0
LINE
5
76a
100
AcDbEntity
8
C-0
6
CONTINUOUS
62
6
100
AcDbLine
10
245.862689000000
20
176.361650000000
30
0.0
11
259.311542000000
21
189.810502000000
31
0.0
0
LINE
5
76b
100
AcDbEntity
8
C-0
6
CONTINUOUS
62
6
100
AcDbLine
10
244.789556000000
20
178.116944000000
30
0.0
11
256.483115000000
21
189.810502000000
31
0.0
0
LINE
5
76c
100
AcDbEntity
8
C-0
6
CONTINUOUS
62
6
100
AcDbLine
10
243.716423000000
20
179.872238000000
30
0.0
11
253.654687000000
21
189.810502000000
31
0.0
0
LINE
5
76d
100
AcDbEntity
8
C-0
6
CONTINUOUS
62
6
100
AcDbLine
10
242.643289000000
20
181.627531000000
30
0.0
11
251.032315000000
21
190.016557000000
31
0.0
0
LINE
5
76e
100
AcDbEntity
8
C-0
6
CONTINUOUS
62
6
100
AcDbLine
10
241.570156000000
20
183.382825000000
30
0.0
11
254.896019000000
21
196.708688000000
31
0.0
0
LINE
5
76f
100
AcDbEntity
8
C-0
6
CONTINUOUS
62
6
100
AcDbLine
10
240.497022000000
20
185.138119000000
30
0.0
11
258.759722000000
21
203.400818000000
31
0.0
0
LINE
5
770
100
AcDbEntity
8
C-0
6
CONTINUOUS
62
6
100
AcDbLine
10
239.423889000000
20
186.893412000000
30
0.0
11
261.606808000000
21
209.076331000000
31
0.0
0
LINE
5
771
100
AcDbEntity
8
C-0
6
CONTINUOUS
62
6
100
AcDbLine
10
238.350756000000
20
188.648706000000
30
0.0
11
260.544194000000
21
210.842145000000
31
0.0
0
LINE
5
772
100
AcDbEntity
8
C-0
6
CONTINUOUS
62
6
100
AcDbLine
10
237.277622000000
20
190.404000000000
30
0.0
11
259.481581000000
21
212.607958000000
31
0.0
0
LINE
5
773
100
AcDbEntity
8
C-0
6
CONTINUOUS
62
6
100
AcDbLine
10
236.204489000000
20
192.159294000000
30
0.0
11
258.418967000000
21
214.373772000000
31
0.0
0
LINE
5
774
100
AcDbEntity
8
C-0
6
CONTINUOUS
62
6
100
AcDbLine
10
235.131355000000
20
193.914587000000
30
0.0
11
257.356354000000
21
216.139586000000
31
0.0
0
LINE
5
775
100
AcDbEntity
8
C-0
6
CONTINUOUS
62
6
100
AcDbLine
10
234.058222000000
20
195.669881000000
30
0.0
11
256.293740000000
21
217.905399000000
31
0.0
0
LINE
5
776
100
AcDbEntity
8
C-0
6
CONTINUOUS
62
6
100
AcDbLine
10
166.901784000000
20
131.341870000000
30
0.0
11
176.918856000000
21
141.358942000000
31
0.0
0
LINE
5
777
100
AcDbEntity
8
C-0
6
CONTINUOUS
62
6
100
AcDbLine
10
232.985089000000
20
197.425175000000
30
0.0
11
255.231127000000
21
219.671213000000
31
0.0
0
LINE
5
778
100
AcDbEntity
8
C-0
6
CONTINUOUS
62
6
100
AcDbLine
10
162.277383000000
20
129.545896000000
30
0.0
11
186.283243000000
21
153.551756000000
31
0.0
0
LINE
5
779
100
AcDbEntity
8
C-0
6
CONTINUOUS
62
6
100
AcDbLine
10
231.911955000000
20
199.180469000000
30
0.0
11
254.168513000000
21
221.437026000000
31
0.0
0
LINE
5
77a
100
AcDbEntity
8
C-0
6
CONTINUOUS
62
6
100
AcDbLine
10
159.036942000000
20
129.133882000000
30
0.0
11
195.647630000000
21
165.744570000000
31
0.0
0
LINE
5
77b
100
AcDbEntity
8
C-0
6
CONTINUOUS
62
6
100
AcDbLine
10
230.838822000000
20
200.935762000000
30
0.0
11
253.105899000000
21
223.202840000000
31
0.0
0
LINE
5
77c
100
AcDbEntity
8
C-0
6
CONTINUOUS
62
6
100
AcDbLine
10
157.561241000000
20
130.486608000000
30
0.0
11
205.012017000000
21
177.937385000000
31
0.0
0
LINE
5
77d
100
AcDbEntity
8
C-0
6
CONTINUOUS
62
6
100
AcDbLine
10
229.765688000000
20
202.691056000000
30
0.0
11
252.043286000000
21
224.968654000000
31
0.0
0
LINE
5
77e
100
AcDbEntity
8
C-0
6
CONTINUOUS
62
6
100
AcDbLine
10
156.239187000000
20
131.992981000000
30
0.0
11
214.376404000000
21
190.130199000000
31
0.0
0
LINE
5
77f
100
AcDbEntity
8
C-0
6
CONTINUOUS
62
6
100
AcDbLine
10
228.692555000000
20
204.446350000000
30
0.0
11
250.980672000000
21
226.734467000000
31
0.0
0
LINE
5
780
100
AcDbEntity
8
C-0
6
CONTINUOUS
62
6
100
AcDbLine
10
155.060675000000
20
133.642897000000
30
0.0
11
223.740791000000
21
202.323013000000
31
0.0
0
LINE
5
781
100
AcDbEntity
8
C-0
6
CONTINUOUS
62
6
100
AcDbLine
10
227.619422000000
20
206.201643000000
30
0.0
11
249.918059000000
21
228.500281000000
31
0.0
0
LINE
5
782
100
AcDbEntity
8
C-0
6
CONTINUOUS
62
6
100
AcDbLine
10
154.172794000000
20
135.583443000000
30
0.0
11
248.855445000000
21
230.266094000000
31
0.0
0
LINE
5
783
100
AcDbEntity
8
C-0
6
CONTINUOUS
62
6
100
AcDbLine
10
153.526296000000
20
137.765372000000
30
0.0
11
247.792832000000
21
232.031908000000
31
0.0
0
LINE
5
784
100
AcDbEntity
8
C-0
6
CONTINUOUS
62
6
100
AcDbLine
10
152.879798000000
20
139.947302000000
30
0.0
11
246.730218000000
21
233.797722000000
31
0.0
0
LINE
5
785
100
AcDbEntity
8
C-0
6
CONTINUOUS
62
6
100
AcDbLine
10
153.562825000000
20
143.458755000000
30
0.0
11
245.613449000000
21
235.509379000000
31
0.0
0
LINE
5
786
100
AcDbEntity
8
C-0
6
CONTINUOUS
62
6
100
AcDbLine
10
156.330018000000
20
149.054376000000
30
0.0
11
244.393343000000
21
237.117700000000
31
0.0
0
LINE
5
787
100
AcDbEntity
8
C-0
6
CONTINUOUS
62
6
100
AcDbLine
10
163.162843000000
20
158.715628000000
30
0.0
11
243.173237000000
21
238.726022000000
31
0.0
0
LINE
5
788
100
AcDbEntity
8
C-0
6
CONTINUOUS
62
6
100
AcDbLine
10
171.153150000000
20
169.534362000000
30
0.0
11
241.953131000000
21
240.334343000000
31
0.0
0
LINE
5
789
100
AcDbEntity
8
C-0
6
CONTINUOUS
62
6
100
AcDbLine
10
179.143457000000
20
180.353095000000
30
0.0
11
240.727255000000
21
241.936893000000
31
0.0
0
LINE
5
78a
100
AcDbEntity
8
C-0
6
CONTINUOUS
62
6
100
AcDbLine
10
187.133763000000
20
191.171829000000
30
0.0
11
239.470176000000
21
243.508242000000
31
0.0
0
LINE
5
78b
100
AcDbEntity
8
C-0
6
CONTINUOUS
62
6
100
AcDbLine
10
195.124070000000
20
201.990563000000
30
0.0
11
237.627098000000
21
244.493591000000
31
0.0
0
LINE
5
78c
100
AcDbEntity
8
C-0
6
CONTINUOUS
62
6
100
AcDbLine
10
203.114377000000
20
212.809297000000
30
0.0
11
235.505777000000
21
245.200698000000
31
0.0
0
LINE
5
78d
100
AcDbEntity
8
C-0
6
CONTINUOUS
62
6
100
AcDbLine
10
211.104683000000
20
223.628030000000
30
0.0
11
233.213970000000
21
245.737317000000
31
0.0
0
LINE
5
78e
100
AcDbEntity
8
C-0
6
CONTINUOUS
62
6
100
AcDbLine
10
213.982313000000
20
229.334087000000
30
0.0
11
230.200065000000
21
245.551839000000
31
0.0
0
LINE
5
78f
100
AcDbEntity
8
C-0
6
CONTINUOUS
62
6
100
AcDbLine
10
213.982313000000
20
232.162514000000
30
0.0
11
226.698203000000
21
244.878404000000
31
0.0
0
LINE
5
790
100
AcDbEntity
8
C-0
6
CONTINUOUS
62
6
100
AcDbLine
10
220.330967000000
20
241.339596000000
30
0.0
11
223.375359000000
21
244.383988000000
31
0.0
0
LINE
5
791
100
AcDbEntity
8
C-0
6
CONTINUOUS
62
6
100
AcDbLine
10
154.445892000000
20
134.661737000000
30
0.0
11
160.285906000000
21
128.821723000000
31
0.0
0
LINE
5
792
100
AcDbEntity
8
C-0
6
CONTINUOUS
62
6
100
AcDbLine
10
153.254975000000
20
138.681081000000
30
0.0
11
162.360086000000
21
129.575970000000
31
0.0
0
LINE
5
793
100
AcDbEntity
8
C-0
6
CONTINUOUS
62
6
100
AcDbLine
10
153.015650000000
20
141.748833000000
30
0.0
11
164.434266000000
21
130.330217000000
31
0.0
0
LINE
5
794
100
AcDbEntity
8
C-0
6
CONTINUOUS
62
6
100
AcDbLine
10
153.701329000000
20
143.891581000000
30
0.0
11
166.442435000000
21
131.150475000000
31
0.0
0
LINE
5
795
100
AcDbEntity
8
C-0
6
CONTINUOUS
62
6
100
AcDbLine
10
154.387008000000
20
146.034329000000
30
0.0
11
168.438972000000
21
131.982365000000
31
0.0
0
LINE
5
796
100
AcDbEntity
8
C-0
6
CONTINUOUS
62
6
100
AcDbLine
10
155.452773000000
20
147.796991000000
30
0.0
11
170.390721000000
21
132.859044000000
31
0.0
0
LINE
5
797
100
AcDbEntity
8
C-0
6
CONTINUOUS
62
6
100
AcDbLine
10
156.615140000000
20
149.463051000000
30
0.0
11
171.619381000000
21
134.458810000000
31
0.0
0
LINE
5
798
100
AcDbEntity
8
C-0
6
CONTINUOUS
62
6
100
AcDbLine
10
157.777508000000
20
151.129111000000
30
0.0
11
172.848042000000
21
136.058576000000
31
0.0
0
LINE
5
799
100
AcDbEntity
8
C-0
6
CONTINUOUS
62
6
100
AcDbLine
10
158.939875000000
20
152.795171000000
30
0.0
11
174.076703000000
21
137.658343000000
31
0.0
0
LINE
5
79a
100
AcDbEntity
8
C-0
6
CONTINUOUS
62
6
100
AcDbLine
10
160.102242000000
20
154.461230000000
30
0.0
11
175.305364000000
21
139.258109000000
31
0.0
0
LINE
5
79b
100
AcDbEntity
8
C-0
6
CONTINUOUS
62
6
100
AcDbLine
10
161.264610000000
20
156.127290000000
30
0.0
11
176.534024000000
21
140.857876000000
31
0.0
0
LINE
5
79c
100
AcDbEntity
8
C-0
6
CONTINUOUS
62
6
100
AcDbLine
10
162.458444000000
20
157.761883000000
30
0.0
11
177.762685000000
21
142.457642000000
31
0.0
0
LINE
5
79d
100
AcDbEntity
8
C-0
6
CONTINUOUS
62
6
100
AcDbLine
10
163.659994000000
20
159.388761000000
30
0.0
11
178.991346000000
21
144.057408000000
31
0.0
0
LINE
5
79e
100
AcDbEntity
8
C-0
6
CONTINUOUS
62
6
100
AcDbLine
10
164.861543000000
20
161.015638000000
30
0.0
11
180.220006000000
21
145.657175000000
31
0.0
0
LINE
5
79f
100
AcDbEntity
8
C-0
6
CONTINUOUS
62
6
100
AcDbLine
10
166.063093000000
20
162.642515000000
30
0.0
11
181.448667000000
21
147.256941000000
31
0.0
0
LINE
5
7a0
100
AcDbEntity
8
C-0
6
CONTINUOUS
62
6
100
AcDbLine
10
167.264643000000
20
164.269392000000
30
0.0
11
182.677328000000
21
148.856708000000
31
0.0
0
LINE
5
7a1
100
AcDbEntity
8
C-0
6
CONTINUOUS
62
6
100
AcDbLine
10
168.466193000000
20
165.896270000000
30
0.0
11
183.905989000000
21
150.456474000000
31
0.0
0
LINE
5
7a2
100
AcDbEntity
8
C-0
6
CONTINUOUS
62
6
100
AcDbLine
10
169.667743000000
20
167.523147000000
30
0.0
11
185.134649000000
21
152.056240000000
31
0.0
0
LINE
5
7a3
100
AcDbEntity
8
C-0
6
CONTINUOUS
62
6
100
AcDbLine
10
170.869293000000
20
169.150024000000
30
0.0
11
186.363310000000
21
153.656007000000
31
0.0
0
LINE
5
7a4
100
AcDbEntity
8
C-0
6
CONTINUOUS
62
6
100
AcDbLine
10
172.070843000000
20
170.776901000000
30
0.0
11
187.591971000000
21
155.255773000000
31
0.0
0
LINE
5
7a5
100
AcDbEntity
8
C-0
6
CONTINUOUS
62
6
100
AcDbLine
10
173.272393000000
20
172.403779000000
30
0.0
11
188.820631000000
21
156.855540000000
31
0.0
0
LINE
5
7a6
100
AcDbEntity
8
C-0
6
CONTINUOUS
62
6
100
AcDbLine
10
174.473942000000
20
174.030656000000
30
0.0
11
190.049292000000
21
158.455306000000
31
0.0
0
LINE
5
7a7
100
AcDbEntity
8
C-0
6
CONTINUOUS
62
6
100
AcDbLine
10
175.675492000000
20
175.657533000000
30
0.0
11
191.277953000000
21
160.055072000000
31
0.0
0
LINE
5
7a8
100
AcDbEntity
8
C-0
6
CONTINUOUS
62
6
100
AcDbLine
10
176.877042000000
20
177.284410000000
30
0.0
11
192.506614000000
21
161.654839000000
31
0.0
0
LINE
5
7a9
100
AcDbEntity
8
C-0
6
CONTINUOUS
62
6
100
AcDbLine
10
178.078592000000
20
178.911288000000
30
0.0
11
193.735274000000
21
163.254605000000
31
0.0
0
LINE
5
7aa
100
AcDbEntity
8
C-0
6
CONTINUOUS
62
6
100
AcDbLine
10
179.280142000000
20
180.538165000000
30
0.0
11
194.963935000000
21
164.854372000000
31
0.0
0
LINE
5
7ab
100
AcDbEntity
8
C-0
6
CONTINUOUS
62
6
100
AcDbLine
10
180.481692000000
20
182.165042000000
30
0.0
11
196.192596000000
21
166.454138000000
31
0.0
0
LINE
5
7ac
100
AcDbEntity
8
C-0
6
CONTINUOUS
62
6
100
AcDbLine
10
181.683242000000
20
183.791919000000
30
0.0
11
197.421256000000
21
168.053905000000
31
0.0
0
LINE
5
7ad
100
AcDbEntity
8
C-0
6
CONTINUOUS
62
6
100
AcDbLine
10
182.884791000000
20
185.418797000000
30
0.0
11
198.649917000000
21
169.653671000000
31
0.0
0
LINE
5
7ae
100
AcDbEntity
8
C-0
6
CONTINUOUS
62
6
100
AcDbLine
10
184.086341000000
20
187.045674000000
30
0.0
11
199.878578000000
21
171.253437000000
31
0.0
0
LINE
5
7af
100
AcDbEntity
8
C-0
6
CONTINUOUS
62
6
100
AcDbLine
10
185.287891000000
20
188.672551000000
30
0.0
11
201.107239000000
21
172.853204000000
31
0.0
0
LINE
5
7b0
100
AcDbEntity
8
C-0
6
CONTINUOUS
62
6
100
AcDbLine
10
186.489441000000
20
190.299428000000
30
0.0
11
202.335899000000
21
174.452970000000
31
0.0
0
LINE
5
7b1
100
AcDbEntity
8
C-0
6
CONTINUOUS
62
6
100
AcDbLine
10
187.690991000000
20
191.926306000000
30
0.0
11
203.564560000000
21
176.052737000000
31
0.0
0
LINE
5
7b2
100
AcDbEntity
8
C-0
6
CONTINUOUS
62
6
100
AcDbLine
10
188.892541000000
20
193.553183000000
30
0.0
11
204.793221000000
21
177.652503000000
31
0.0
0
LINE
5
7b3
100
AcDbEntity
8
C-0
6
CONTINUOUS
62
6
100
AcDbLine
10
190.094091000000
20
195.180060000000
30
0.0
11
206.021881000000
21
179.252269000000
31
0.0
0
LINE
5
7b4
100
AcDbEntity
8
C-0
6
CONTINUOUS
62
6
100
AcDbLine
10
191.295641000000
20
196.806937000000
30
0.0
11
207.250542000000
21
180.852036000000
31
0.0
0
LINE
5
7b5
100
AcDbEntity
8
C-0
6
CONTINUOUS
62
6
100
AcDbLine
10
192.497190000000
20
198.433815000000
30
0.0
11
208.479203000000
21
182.451802000000
31
0.0
0
LINE
5
7b6
100
AcDbEntity
8
C-0
6
CONTINUOUS
62
6
100
AcDbLine
10
193.698740000000
20
200.060692000000
30
0.0
11
209.707864000000
21
184.051569000000
31
0.0
0
LINE
5
7b7
100
AcDbEntity
8
C-0
6
CONTINUOUS
62
6
100
AcDbLine
10
194.900290000000
20
201.687569000000
30
0.0
11
210.936524000000
21
185.651335000000
31
0.0
0
LINE
5
7b8
100
AcDbEntity
8
C-0
6
CONTINUOUS
62
6
100
AcDbLine
10
196.101840000000
20
203.314446000000
30
0.0
11
212.165185000000
21
187.251101000000
31
0.0
0
LINE
5
7b9
100
AcDbEntity
8
C-0
6
CONTINUOUS
62
6
100
AcDbLine
10
197.303390000000
20
204.941324000000
30
0.0
11
213.393846000000
21
188.850868000000
31
0.0
0
LINE
5
7ba
100
AcDbEntity
8
C-0
6
CONTINUOUS
62
6
100
AcDbLine
10
198.504940000000
20
206.568201000000
30
0.0
11
214.622507000000
21
190.450634000000
31
0.0
0
LINE
5
7bb
100
AcDbEntity
8
C-0
6
CONTINUOUS
62
6
100
AcDbLine
10
199.706490000000
20
208.195078000000
30
0.0
11
215.851167000000
21
192.050401000000
31
0.0
0
LINE
5
7bc
100
AcDbEntity
8
C-0
6
CONTINUOUS
62
6
100
AcDbLine
10
262.193736000000
20
145.707832000000
30
0.0
11
273.163184000000
21
134.738384000000
31
0.0
0
LINE
5
7bd
100
AcDbEntity
8
C-0
6
CONTINUOUS
62
6
100
AcDbLine
10
200.908039000000
20
209.821955000000
30
0.0
11
217.079828000000
21
193.650167000000
31
0.0
0
LINE
5
7be
100
AcDbEntity
8
C-0
6
CONTINUOUS
62
6
100
AcDbLine
10
262.011257000000
20
148.718738000000
30
0.0
11
277.239842000000
21
133.490153000000
31
0.0
0
LINE
5
7bf
100
AcDbEntity
8
C-0
6
CONTINUOUS
62
6
100
AcDbLine
10
202.109589000000
20
211.448833000000
30
0.0
11
218.308489000000
21
195.249933000000
31
0.0
0
LINE
5
7c0
100
AcDbEntity
8
C-0
6
CONTINUOUS
62
6
100
AcDbLine
10
259.495386000000
20
154.063036000000
30
0.0
11
279.323947000000
21
134.234475000000
31
0.0
0
LINE
5
7c1
100
AcDbEntity
8
C-0
6
CONTINUOUS
62
6
100
AcDbLine
10
203.311139000000
20
213.075710000000
30
0.0
11
219.537149000000
21
196.849700000000
31
0.0
0
LINE
5
7c2
100
AcDbEntity
8
C-0
6
CONTINUOUS
62
6
100
AcDbLine
10
255.045876000000
20
161.340973000000
30
0.0
11
281.408051000000
21
134.978798000000
31
0.0
0
LINE
5
7c3
100
AcDbEntity
8
C-0
6
CONTINUOUS
62
6
100
AcDbLine
10
204.512689000000
20
214.702587000000
30
0.0
11
220.765810000000
21
198.449466000000
31
0.0
0
LINE
5
7c4
100
AcDbEntity
8
C-0
6
CONTINUOUS
62
6
100
AcDbLine
10
250.596365000000
20
168.618911000000
30
0.0
11
283.506050000000
21
135.709227000000
31
0.0
0
LINE
5
7c5
100
AcDbEntity
8
C-0
6
CONTINUOUS
62
6
100
AcDbLine
10
205.714239000000
20
216.329464000000
30
0.0
11
221.994471000000
21
200.049233000000
31
0.0
0
LINE
5
7c6
100
AcDbEntity
8
C-0
6
CONTINUOUS
62
6
100
AcDbLine
10
246.146855000000
20
175.896849000000
30
0.0
11
285.681763000000
21
136.361941000000
31
0.0
0
LINE
5
7c7
100
AcDbEntity
8
C-0
6
CONTINUOUS
62
6
100
AcDbLine
10
206.915789000000
20
217.956342000000
30
0.0
11
223.223132000000
21
201.648999000000
31
0.0
0
LINE
5
7c8
100
AcDbEntity
8
C-0
6
CONTINUOUS
62
6
100
AcDbLine
10
241.697344000000
20
183.174786000000
30
0.0
11
287.857476000000
21
137.014655000000
31
0.0
0
LINE
5
7c9
100
AcDbEntity
8
C-0
6
CONTINUOUS
62
6
100
AcDbLine
10
208.117339000000
20
219.583219000000
30
0.0
11
224.451792000000
21
203.248765000000
31
0.0
0
LINE
5
7ca
100
AcDbEntity
8
C-0
6
CONTINUOUS
62
6
100
AcDbLine
10
237.247834000000
20
190.452724000000
30
0.0
11
290.033189000000
21
137.667369000000
31
0.0
0
LINE
5
7cb
100
AcDbEntity
8
C-0
6
CONTINUOUS
62
6
100
AcDbLine
10
209.318889000000
20
221.210096000000
30
0.0
11
225.680453000000
21
204.848532000000
31
0.0
0
LINE
5
7cc
100
AcDbEntity
8
C-0
6
CONTINUOUS
62
6
100
AcDbLine
10
232.798323000000
20
197.730662000000
30
0.0
11
292.208902000000
21
138.320083000000
31
0.0
0
LINE
5
7cd
100
AcDbEntity
8
C-0
6
CONTINUOUS
62
6
100
AcDbLine
10
210.520438000000
20
222.836974000000
30
0.0
11
226.909114000000
21
206.448298000000
31
0.0
0
LINE
5
7ce
100
AcDbEntity
8
C-0
6
CONTINUOUS
62
6
100
AcDbLine
10
228.348813000000
20
205.008599000000
30
0.0
11
294.188228000000
21
139.169184000000
31
0.0
0
LINE
5
7cf
100
AcDbEntity
8
C-0
6
CONTINUOUS
62
6
100
AcDbLine
10
211.721988000000
20
224.463851000000
30
0.0
11
295.372221000000
21
140.813618000000
31
0.0
0
LINE
5
7d0
100
AcDbEntity
8
C-0
6
CONTINUOUS
62
6
100
AcDbLine
10
212.923538000000
20
226.090728000000
30
0.0
11
296.556213000000
21
142.458053000000
31
0.0
0
LINE
5
7d1
100
AcDbEntity
8
C-0
6
CONTINUOUS
62
6
100
AcDbLine
10
213.982313000000
20
227.860381000000
30
0.0
11
251.322874000000
21
190.519820000000
31
0.0
0
LINE
5
7d2
100
AcDbEntity
8
C-0
6
CONTINUOUS
62
6
100
AcDbLine
10
252.032191000000
20
189.810502000000
30
0.0
11
297.331375000000
21
144.511319000000
31
0.0
0
LINE
5
7d3
100
AcDbEntity
8
C-0
6
CONTINUOUS
62
6
100
AcDbLine
10
213.982313000000
20
230.688808000000
30
0.0
11
252.358150000000
21
192.312970000000
31
0.0
0
LINE
5
7d4
100
AcDbEntity
8
C-0
6
CONTINUOUS
62
6
100
AcDbLine
10
254.860618000000
20
189.810502000000
30
0.0
11
296.657523000000
21
148.013597000000
31
0.0
0
LINE
5
7d5
100
AcDbEntity
8
C-0
6
CONTINUOUS
62
6
100
AcDbLine
10
214.247337000000
20
233.252210000000
30
0.0
11
253.393426000000
21
194.106121000000
31
0.0
0
LINE
5
7d6
100
AcDbEntity
8
C-0
6
CONTINUOUS
62
6
100
AcDbLine
10
257.689045000000
20
189.810502000000
30
0.0
11
294.117643000000
21
153.381905000000
31
0.0
0
LINE
5
7d7
100
AcDbEntity
8
C-0
6
CONTINUOUS
62
6
100
AcDbLine
10
215.095865000000
20
235.232109000000
30
0.0
11
254.428702000000
21
195.899272000000
31
0.0
0
LINE
5
7d8
100
AcDbEntity
8
C-0
6
CONTINUOUS
62
6
100
AcDbLine
10
260.517472000000
20
189.810502000000
30
0.0
11
290.222997000000
21
160.104977000000
31
0.0
0
LINE
5
7d9
100
AcDbEntity
8
C-0
6
CONTINUOUS
62
6
100
AcDbLine
10
216.267699000000
20
236.888702000000
30
0.0
11
255.463979000000
21
197.692423000000
31
0.0
0
LINE
5
7da
100
AcDbEntity
8
C-0
6
CONTINUOUS
62
6
100
AcDbLine
10
263.345899000000
20
189.810502000000
30
0.0
11
286.328352000000
21
166.828050000000
31
0.0
0
LINE
5
7db
100
AcDbEntity
8
C-0
6
CONTINUOUS
62
6
100
AcDbLine
10
217.598724000000
20
238.386105000000
30
0.0
11
256.499255000000
21
199.485574000000
31
0.0
0
LINE
5
7dc
100
AcDbEntity
8
C-0
6
CONTINUOUS
62
6
100
AcDbLine
10
266.174327000000
20
189.810502000000
30
0.0
11
282.433706000000
21
173.551123000000
31
0.0
0
LINE
5
7dd
100
AcDbEntity
8
C-0
6
CONTINUOUS
62
6
100
AcDbLine
10
218.929748000000
20
239.883508000000
30
0.0
11
257.534531000000
21
201.278725000000
31
0.0
0
LINE
5
7de
100
AcDbEntity
8
C-0
6
CONTINUOUS
62
6
100
AcDbLine
10
269.002754000000
20
189.810502000000
30
0.0
11
278.539061000000
21
180.274195000000
31
0.0
0
LINE
5
7df
100
AcDbEntity
8
C-0
6
CONTINUOUS
62
6
100
AcDbLine
10
220.319153000000
20
241.322531000000
30
0.0
11
258.569807000000
21
203.071876000000
31
0.0
0
LINE
5
7e0
100
AcDbEntity
8
C-0
6
CONTINUOUS
62
6
100
AcDbLine
10
271.831181000000
20
189.810502000000
30
0.0
11
274.644416000000
21
186.997268000000
31
0.0
0
LINE
5
7e1
100
AcDbEntity
8
C-0
6
CONTINUOUS
62
6
100
AcDbLine
10
221.476236000000
20
242.993874000000
30
0.0
11
259.605083000000
21
204.865027000000
31
0.0
0
LINE
5
7e2
100
AcDbEntity
8
C-0
6
CONTINUOUS
62
6
100
AcDbLine
10
222.968763000000
20
244.329775000000
30
0.0
11
260.640359000000
21
206.658178000000
31
0.0
0
LINE
5
7e3
100
AcDbEntity
8
C-0
6
CONTINUOUS
62
6
100
AcDbLine
10
225.464434000000
20
244.662531000000
30
0.0
11
261.675636000000
21
208.451329000000
31
0.0
0
LINE
5
7e4
100
AcDbEntity
8
C-0
6
CONTINUOUS
62
6
100
AcDbLine
10
227.854603000000
20
245.100789000000
30
0.0
11
258.173181000000
21
214.782211000000
31
0.0
0
LINE
5
7e5
100
AcDbEntity
8
C-0
6
CONTINUOUS
62
6
100
AcDbLine
10
230.226832000000
20
245.556987000000
30
0.0
11
253.899113000000
21
221.884706000000
31
0.0
0
LINE
5
7e6
100
AcDbEntity
8
C-0
6
CONTINUOUS
62
6
100
AcDbLine
10
232.837257000000
20
245.774989000000
30
0.0
11
249.625045000000
21
228.987201000000
31
0.0
0
LINE
5
7e7
100
AcDbEntity
8
C-0
6
CONTINUOUS
62
6
100
AcDbLine
10
236.607075000000
20
244.833598000000
30
0.0
11
244.614507000000
21
236.826166000000
31
0.0
0
LINE
5
7e8
100
AcDbEntity
8
C-0
6
CONTINUOUS
62
6
100
AcDbLine
10
304.223165000000
20
220.387176000000
30
0.0
11
304.223165000000
21
249.627413000000
31
0.0
0
LINE
5
7e9
100
AcDbEntity
8
C-0
6
CONTINUOUS
62
6
100
AcDbLine
10
302.223165000000
20
220.806015000000
30
0.0
11
302.223165000000
21
249.208574000000
31
0.0
0
LINE
5
7ea
100
AcDbEntity
8
C-0
6
CONTINUOUS
62
6
100
AcDbLine
10
300.223165000000
20
221.531211000000
30
0.0
11
300.223165000000
21
248.483378000000
31
0.0
0
LINE
5
7eb
100
AcDbEntity
8
C-0
6
CONTINUOUS
62
6
100
AcDbLine
10
298.223165000000
20
222.616439000000
30
0.0
11
298.223165000000
21
247.398150000000
31
0.0
0
LINE
5
7ec
100
AcDbEntity
8
C-0
6
CONTINUOUS
62
6
100
AcDbLine
10
296.223165000000
20
224.169315000000
30
0.0
11
296.223165000000
21
245.845274000000
31
0.0
0
LINE
5
7ed
100
AcDbEntity
8
C-0
6
CONTINUOUS
62
6
100
AcDbLine
10
294.223165000000
20
226.440482000000
30
0.0
11
294.223165000000
21
243.574107000000
31
0.0
0
LINE
5
7ee
100
AcDbEntity
8
C-0
6
CONTINUOUS
62
6
100
AcDbLine
10
292.223165000000
20
230.390070000000
30
0.0
11
292.223165000000
21
239.624519000000
31
0.0
0
LINE
5
7ef
100
AcDbEntity
8
C-0
6
CONTINUOUS
62
6
100
AcDbLine
10
251.132754000000
20
190.190522000000
30
0.0
11
293.693945000000
21
190.190522000000
31
0.0
0
LINE
5
7f0
100
AcDbEntity
8
C-0
6
CONTINUOUS
62
6
100
AcDbLine
10
252.287454000000
20
192.190522000000
30
0.0
11
292.539244000000
21
192.190522000000
31
0.0
0
LINE
5
7f1
100
AcDbEntity
8
C-0
6
CONTINUOUS
62
6
100
AcDbLine
10
253.442155000000
20
194.190522000000
30
0.0
11
291.384544000000
21
194.190522000000
31
0.0
0
LINE
5
7f2
100
AcDbEntity
8
C-0
6
CONTINUOUS
62
6
100
AcDbLine
10
254.596855000000
20
196.190522000000
30
0.0
11
290.229843000000
21
196.190522000000
31
0.0
0
LINE
5
7f3
100
AcDbEntity
8
C-0
6
CONTINUOUS
62
6
100
AcDbLine
10
255.751556000000
20
198.190522000000
30
0.0
11
289.075143000000
21
198.190522000000
31
0.0
0
LINE
5
7f4
100
AcDbEntity
8
C-0
6
CONTINUOUS
62
6
100
AcDbLine
10
256.906256000000
20
200.190522000000
30
0.0
11
287.920442000000
21
200.190522000000
31
0.0
0
LINE
5
7f5
100
AcDbEntity
8
C-0
6
CONTINUOUS
62
6
100
AcDbLine
10
258.060957000000
20
202.190522000000
30
0.0
11
286.765742000000
21
202.190522000000
31
0.0
0
LINE
5
7f6
100
AcDbEntity
8
C-0
6
CONTINUOUS
62
6
100
AcDbLine
10
259.215658000000
20
204.190522000000
30
0.0
11
285.611041000000
21
204.190522000000
31
0.0
0
LINE
5
7f7
100
AcDbEntity
8
C-0
6
CONTINUOUS
62
6
100
AcDbLine
10
260.370358000000
20
206.190522000000
30
0.0
11
284.456341000000
21
206.190522000000
31
0.0
0
LINE
5
7f8
100
AcDbEntity
8
C-0
6
CONTINUOUS
62
6
100
AcDbLine
10
261.525059000000
20
208.190522000000
30
0.0
11
283.301640000000
21
208.190522000000
31
0.0
0
LINE
5
7f9
100
AcDbEntity
8
C-0
6
CONTINUOUS
62
6
100
AcDbLine
10
262.679759000000
20
210.190522000000
30
0.0
11
282.146940000000
21
210.190522000000
31
0.0
0
LINE
5
7fa
100
AcDbEntity
8
C-0
6
CONTINUOUS
62
6
100
AcDbLine
10
263.834460000000
20
212.190522000000
30
0.0
11
280.992239000000
21
212.190522000000
31
0.0
0
LINE
5
7fb
100
AcDbEntity
8
C-0
6
CONTINUOUS
62
6
100
AcDbLine
10
264.989160000000
20
214.190522000000
30
0.0
11
279.837539000000
21
214.190522000000
31
0.0
0
LINE
5
7fc
100
AcDbEntity
8
C-0
6
CONTINUOUS
62
6
100
AcDbLine
10
266.143861000000
20
216.190522000000
30
0.0
11
278.682838000000
21
216.190522000000
31
0.0
0
LINE
5
7fd
100
AcDbEntity
8
C-0
6
CONTINUOUS
62
6
100
AcDbLine
10
267.298561000000
20
218.190522000000
30
0.0
11
277.528137000000
21
218.190522000000
31
0.0
0
LINE
5
7fe
100
AcDbEntity
8
C-0
6
CONTINUOUS
62
6
100
AcDbLine
10
268.453262000000
20
220.190522000000
30
0.0
11
276.373437000000
21
220.190522000000
31
0.0
0
LINE
5
7ff
100
AcDbEntity
8
C-0
6
CONTINUOUS
62
6
100
AcDbLine
10
269.607962000000
20
222.190522000000
30
0.0
11
275.218736000000
21
222.190522000000
31
0.0
0
LINE
5
800
100
AcDbEntity
8
C-0
6
CONTINUOUS
62
6
100
AcDbLine
10
270.762663000000
20
224.190522000000
30
0.0
11
274.064036000000
21
224.190522000000
31
0.0
0
LINE
5
801
100
AcDbEntity
8
C-0
6
CONTINUOUS
62
6
100
AcDbLine
10
271.917363000000
20
226.190522000000
30
0.0
11
272.909335000000
21
226.190522000000
31
0.0
0
LINE
5
802
100
AcDbEntity
8
C-0
6
CONTINUOUS
62
6
100
AcDbLine
10
292.223165000000
20
189.810502000000
30
0.0
11
292.223165000000
21
192.737988000000
31
0.0
0
LINE
5
803
100
AcDbEntity
8
C-0
6
CONTINUOUS
62
6
100
AcDbLine
10
290.223165000000
20
189.810502000000
30
0.0
11
290.223165000000
21
196.202089000000
31
0.0
0
LINE
5
804
100
AcDbEntity
8
C-0
6
CONTINUOUS
62
6
100
AcDbLine
10
288.223165000000
20
189.810502000000
30
0.0
11
288.223165000000
21
199.666191000000
31
0.0
0
LINE
5
805
100
AcDbEntity
8
C-0
6
CONTINUOUS
62
6
100
AcDbLine
10
286.223165000000
20
189.810502000000
30
0.0
11
286.223165000000
21
203.130293000000
31
0.0
0
LINE
5
806
100
AcDbEntity
8
C-0
6
CONTINUOUS
62
6
100
AcDbLine
10
284.223165000000
20
189.810502000000
30
0.0
11
284.223165000000
21
206.594394000000
31
0.0
0
LINE
5
807
100
AcDbEntity
8
C-0
6
CONTINUOUS
62
6
100
AcDbLine
10
282.223165000000
20
189.810502000000
30
0.0
11
282.223165000000
21
210.058496000000
31
0.0
0
LINE
5
808
100
AcDbEntity
8
C-0
6
CONTINUOUS
62
6
100
AcDbLine
10
280.223165000000
20
189.810502000000
30
0.0
11
280.223165000000
21
213.522598000000
31
0.0
0
LINE
5
809
100
AcDbEntity
8
C-0
6
CONTINUOUS
62
6
100
AcDbLine
10
278.223165000000
20
189.810502000000
30
0.0
11
278.223165000000
21
216.986699000000
31
0.0
0
LINE
5
80a
100
AcDbEntity
8
C-0
6
CONTINUOUS
62
6
100
AcDbLine
10
276.223165000000
20
189.810502000000
30
0.0
11
276.223165000000
21
220.450801000000
31
0.0
0
LINE
5
80b
100
AcDbEntity
8
C-0
6
CONTINUOUS
62
6
100
AcDbLine
10
274.223165000000
20
189.810502000000
30
0.0
11
274.223165000000
21
223.914902000000
31
0.0
0
LINE
5
80c
100
AcDbEntity
8
C-0
6
CONTINUOUS
62
6
100
AcDbLine
10
272.223165000000
20
189.810502000000
30
0.0
11
272.223165000000
21
226.720186000000
31
0.0
0
LINE
5
80d
100
AcDbEntity
8
C-0
6
CONTINUOUS
62
6
100
AcDbLine
10
270.223165000000
20
189.810502000000
30
0.0
11
270.223165000000
21
223.256084000000
31
0.0
0
LINE
5
80e
100
AcDbEntity
8
C-0
6
CONTINUOUS
62
6
100
AcDbLine
10
268.223165000000
20
189.810502000000
30
0.0
11
268.223165000000
21
219.791982000000
31
0.0
0
LINE
5
80f
100
AcDbEntity
8
C-0
6
CONTINUOUS
62
6
100
AcDbLine
10
266.223165000000
20
189.810502000000
30
0.0
11
266.223165000000
21
216.327881000000
31
0.0
0
LINE
5
810
100
AcDbEntity
8
C-0
6
CONTINUOUS
62
6
100
AcDbLine
10
264.223165000000
20
189.810502000000
30
0.0
11
264.223165000000
21
212.863779000000
31
0.0
0
LINE
5
811
100
AcDbEntity
8
C-0
6
CONTINUOUS
62
6
100
AcDbLine
10
262.223165000000
20
189.810502000000
30
0.0
11
262.223165000000
21
209.399677000000
31
0.0
0
LINE
5
812
100
AcDbEntity
8
C-0
6
CONTINUOUS
62
6
100
AcDbLine
10
260.223165000000
20
189.810502000000
30
0.0
11
260.223165000000
21
205.935576000000
31
0.0
0
LINE
5
813
100
AcDbEntity
8
C-0
6
CONTINUOUS
62
6
100
AcDbLine
10
258.223165000000
20
189.810502000000
30
0.0
11
258.223165000000
21
202.471474000000
31
0.0
0
LINE
5
814
100
AcDbEntity
8
C-0
6
CONTINUOUS
62
6
100
AcDbLine
10
256.223165000000
20
189.810502000000
30
0.0
11
256.223165000000
21
199.007373000000
31
0.0
0
LINE
5
815
100
AcDbEntity
8
C-0
6
CONTINUOUS
62
6
100
AcDbLine
10
254.223165000000
20
189.810502000000
30
0.0
11
254.223165000000
21
195.543271000000
31
0.0
0
LINE
5
816
100
AcDbEntity
8
C-0
6
CONTINUOUS
62
6
100
AcDbLine
10
252.223165000000
20
189.810502000000
30
0.0
11
252.223165000000
21
192.079169000000
31
0.0
0
LINE
5
817
100
AcDbEntity
8
D-0
6
CONTINUOUS
62
6
100
AcDbLine
10
1562.232788000000
20
211.675604000000
30
0.0
11
1562.232788000000
21
99.175604000000
31
0.0
0
LINE
5
818
100
AcDbEntity
8
D-0
6
CONTINUOUS
62
6
100
AcDbLine
10
1712.232788000000
20
211.675604000000
30
0.0
11
1712.232788000000
21
99.175604000000
31
0.0
0
LINE
5
819
100
AcDbEntity
8
D-0
6
CONTINUOUS
62
6
100
AcDbLine
10
2012.232788000000
20
181.675604000000
30
0.0
11
1362.232788000000
21
181.675604000000
31
0.0
0
LINE
5
81a
100
AcDbEntity
8
D-0
6
CONTINUOUS
62
6
100
AcDbLine
10
1812.232788000000
20
279.175604000000
30
0.0
11
1812.232788000000
21
99.175604000000
31
0.0
0
LINE
5
81b
100
AcDbEntity
8
D-0
6
CONTINUOUS
62
6
100
AcDbLine
10
1912.232788000000
20
279.175604000000
30
0.0
11
1912.232788000000
21
99.175604000000
31
0.0
0
LINE
5
81c
100
AcDbEntity
8
D-0
6
CONTINUOUS
62
6
100
AcDbLine
10
2012.232788000000
20
245.425604000000
30
0.0
11
1912.232788000000
21
245.425604000000
31
0.0
0
LINE
5
81d
100
AcDbEntity
8
D-0
6
CONTINUOUS
62
6
100
AcDbLine
10
2012.232788000000
20
211.675604000000
30
0.0
11
1362.232788000000
21
211.675604000000
31
0.0
0
CIRCLE
5
81e
100
AcDbEntity
8
3-0
6
CONTINUOUS
62
2
100
AcDbCircle
10
1837.232788000000
20
245.425604000000
30
0.0
40
20.000000000000
0
CIRCLE
5
81f
100
AcDbEntity
8
3-0
6
CONTINUOUS
62
2
100
AcDbCircle
10
1837.232788000000
20
245.425604000000
30
0.0
40
10.000000000000
0
LINE
5
820
100
AcDbEntity
8
0-1
6
CENTER2
62
16
100
AcDbLine
10
1837.232788000000
20
270.425604000000
30
0.0
11
1837.232788000000
21
220.425604000000
31
0.0
0
LINE
5
821
100
AcDbEntity
8
3-0
6
CONTINUOUS
62
2
100
AcDbLine
10
1867.232788000000
20
255.425604000000
30
0.0
11
1902.232788000000
21
265.425604000000
31
0.0
0
LINE
5
822
100
AcDbEntity
8
3-0
6
CONTINUOUS
62
2
100
AcDbLine
10
1902.232788000000
20
265.425604000000
30
0.0
11
1902.232788000000
21
225.425604000000
31
0.0
0
LINE
5
823
100
AcDbEntity
8
3-0
6
CONTINUOUS
62
2
100
AcDbLine
10
1867.232788000000
20
235.425604000000
30
0.0
11
1902.232788000000
21
225.425604000000
31
0.0
0
LINE
5
824
100
AcDbEntity
8
3-0
6
CONTINUOUS
62
2
100
AcDbLine
10
1867.232788000000
20
255.425604000000
30
0.0
11
1867.232788000000
21
235.425604000000
31
0.0
0
LINE
5
825
100
AcDbEntity
8
0-1
6
CENTER2
62
16
100
AcDbLine
10
1812.232788000000
20
245.425604000000
30
0.0
11
1907.232788000000
21
245.425604000000
31
0.0
0
LINE
5
826
100
AcDbEntity
8
D-0
6
CONTINUOUS
62
6
100
AcDbLine
10
1362.232788000000
20
189.175604000000
30
0.0
11
687.767218000000
21
189.175604000000
31
0.0
0
LINE
5
827
100
AcDbEntity
8
D-0
6
CONTINUOUS
62
6
100
AcDbLine
10
687.767218000000
20
99.175604000000
30
0.0
11
687.767218000000
21
279.175604000000
31
0.0
0
TEXT
5
828
100
AcDbEntity
8
2-1
62
4
100
AcDbText
10
697.767
20
252.477
30
0.0
40
25.600
1
品番
41
1.000
50
0.000
100
AcDbText
0
TEXT
5
829
100
AcDbEntity
8
2-1
62
4
100
AcDbText
10
697.767
20
162.516
30
0.0
40
25.600
1
名称
41
1.000
50
0.000
100
AcDbText
0
TEXT
5
82a
100
AcDbEntity
8
2-1
62
4
100
AcDbText
10
1840.640
20
183.593
30
0.0
40
25.600
1
検図
41
1.000
50
0.000
100
AcDbText
0
TEXT
5
82b
100
AcDbEntity
8
2-1
62
4
100
AcDbText
10
1940.899
20
249.741
30
0.0
40
25.600
1
単位
41
1.000
50
0.000
100
AcDbText
0
TEXT
5
82c
100
AcDbEntity
8
2-1
62
4
100
AcDbText
10
1933.661
20
219.324
30
0.0
40
25.600
1
mm
41
1.000
50
0.000
100
AcDbText
0
TEXT
5
82d
100
AcDbEntity
8
2-1
62
4
100
AcDbText
10
1574.757
20
127.866
30
0.0
40
25.600
1
S=1：10
41
1.000
50
0.000
100
AcDbText
0
TEXT
5
82e
100
AcDbEntity
8
2-1
62
4
100
AcDbText
10
1394.138
20
127.866
30
0.0
40
25.600
1
12.07.26
41
1.000
50
0.000
100
AcDbText
0
TEXT
5
82f
100
AcDbEntity
8
2-1
62
4
100
AcDbText
10
1741.566
20
127.866
30
0.0
40
25.600
1
竹内
41
1.000
50
0.000
100
AcDbText
0
TEXT
5
830
100
AcDbEntity
8
2-1
62
4
100
AcDbText
10
1439.566
20
184.116
30
0.0
40
25.600
1
日付
41
1.000
50
0.000
100
AcDbText
0
TEXT
5
831
100
AcDbEntity
8
2-1
62
4
100
AcDbText
10
1591.519
20
184.116
30
0.0
40
25.600
1
SCALE
41
1.000
50
0.000
100
AcDbText
0
TEXT
5
832
100
AcDbEntity
8
2-1
62
4
100
AcDbText
10
1741.566
20
184.116
30
0.0
40
25.600
1
製図
41
1.000
50
0.000
100
AcDbText
0
TEXT
5
833
100
AcDbEntity
8
2-1
62
4
100
AcDbText
10
823.662
20
203.286
30
0.0
40
51.200
1
GIW-13001F
41
1.000
50
0.000
100
AcDbText
0
TEXT
5
834
100
AcDbEntity
8
2-1
62
4
100
AcDbText
10
838.994
20
115.269
30
0.0
40
51.200
1
LAVABO JAS
41
1.000
50
0.000
100
AcDbText
0
LINE
5
835
100
AcDbEntity
8
5-0
6
CONTINUOUS
62
5
100
AcDbLine
10
470.114520819412
20
1941.916272667431
30
0.0
11
805.114520819412
21
1941.916272667431
31
0.0
0
ARC
5
836
100
AcDbEntity
8
5-0
6
CONTINUOUS
62
5
100
AcDbCircle
10
805.114521000000
20
1946.916273000000
30
0.0
40
5.000000000000
100
AcDbArc
50
270.000000000000
51
359.999999999708
0
LINE
5
837
100
AcDbEntity
8
5-0
6
CONTINUOUS
62
5
100
AcDbLine
10
810.114520819412
20
1946.916272667431
30
0.0
11
810.114520819412
21
2186.916272667431
31
0.0
0
ARC
5
838
100
AcDbEntity
8
5-0
6
CONTINUOUS
62
5
100
AcDbCircle
10
805.114521000000
20
2186.916273000000
30
0.0
40
5.000000000000
100
AcDbArc
50
360.000000000292
51
450.000000000000
0
LINE
5
839
100
AcDbEntity
8
5-0
6
CONTINUOUS
62
5
100
AcDbLine
10
805.114520819412
20
2191.916272667431
30
0.0
11
470.114520819412
21
2191.916272667431
31
0.0
0
ARC
5
83a
100
AcDbEntity
8
5-0
6
CONTINUOUS
62
5
100
AcDbCircle
10
470.114521000000
20
2186.916273000000
30
0.0
40
5.000000000000
100
AcDbArc
50
450.000000000000
51
539.999999999708
0
LINE
5
83b
100
AcDbEntity
8
5-0
6
CONTINUOUS
62
5
100
AcDbLine
10
465.114520819412
20
2186.916272667431
30
0.0
11
465.114520819412
21
1946.916272667431
31
0.0
0
ARC
5
83c
100
AcDbEntity
8
5-0
6
CONTINUOUS
62
5
100
AcDbCircle
10
470.114521000000
20
1946.916273000000
30
0.0
40
5.000000000000
100
AcDbArc
50
180.000000000292
51
270.000000000000
0
LINE
5
83d
100
AcDbEntity
8
0-1
6
CENTER2
62
16
100
AcDbLine
10
440.114521000000
20
2153.916273000000
30
0.0
11
835.114521000000
21
2153.916273000000
31
0.0
0
LINE
5
83e
100
AcDbEntity
8
5-0
6
CONTINUOUS
62
5
100
AcDbLine
10
470.114521000000
20
2091.916273000000
30
0.0
11
810.114521000000
21
2091.916273000000
31
0.0
0
LINE
5
83f
100
AcDbEntity
8
5-0
6
CONTINUOUS
62
5
100
AcDbLine
10
537.614521000000
20
2084.916273000000
30
0.0
11
737.614521000000
21
2084.916273000000
31
0.0
0
LINE
5
840
100
AcDbEntity
8
0-1
6
CENTER2
62
16
100
AcDbLine
10
637.614521000000
20
1916.916273000000
30
0.0
11
637.614521000000
21
2216.916273000000
31
0.0
0
LINE
5
841
100
AcDbEntity
8
5-0
6
CONTINUOUS
62
5
100
AcDbLine
10
737.614521000000
20
1981.916273000000
30
0.0
11
737.614521000000
21
2084.916273000000
31
0.0
0
LINE
5
842
100
AcDbEntity
8
5-0
6
CONTINUOUS
62
5
100
AcDbLine
10
537.614521000000
20
1981.916273000000
30
0.0
11
537.614521000000
21
2084.916273000000
31
0.0
0
LINE
5
843
100
AcDbEntity
8
5-0
6
CONTINUOUS
62
5
100
AcDbLine
10
475.114521000000
20
1951.916273000000
30
0.0
11
800.114521000000
21
1951.916273000000
31
0.0
0
LINE
5
844
100
AcDbEntity
8
5-0
6
CONTINUOUS
62
5
100
AcDbLine
10
537.614521000000
20
1981.916273000000
30
0.0
11
737.614521000000
21
1981.916273000000
31
0.0
0
LINE
5
845
100
AcDbEntity
8
5-0
6
CONTINUOUS
62
5
100
AcDbLine
10
537.614521000000
20
2084.916273000000
30
0.0
11
475.114521000000
21
2091.916273000000
31
0.0
0
LINE
5
846
100
AcDbEntity
8
5-0
6
CONTINUOUS
62
5
100
AcDbLine
10
537.614521000000
20
1981.916273000000
30
0.0
11
475.114521000000
21
1951.916273000000
31
0.0
0
LINE
5
847
100
AcDbEntity
8
5-0
6
CONTINUOUS
62
5
100
AcDbLine
10
737.614521000000
20
1981.916273000000
30
0.0
11
800.114521000000
21
1951.916273000000
31
0.0
0
LINE
5
848
100
AcDbEntity
8
5-0
6
CONTINUOUS
62
5
100
AcDbLine
10
737.614521000000
20
2084.916273000000
30
0.0
11
800.114521000000
21
2091.916273000000
31
0.0
0
LINE
5
849
100
AcDbEntity
8
0-1
6
CENTER2
62
16
100
AcDbLine
10
440.114521000000
20
2026.916273000000
30
0.0
11
835.114521000000
21
2026.916273000000
31
0.0
0
CIRCLE
5
84a
100
AcDbEntity
8
5-0
6
CONTINUOUS
62
5
100
AcDbCircle
10
637.626581000000
20
2026.916273000000
30
0.0
40
37.503310000000
0
CIRCLE
5
84b
100
AcDbEntity
8
5-0
6
CONTINUOUS
62
5
100
AcDbCircle
10
637.614521000000
20
2026.916273000000
30
0.0
40
25.000000000000
0
LINE
5
84c
100
AcDbEntity
8
E-0
6
CONTINUOUS
62
0
100
AcDbLine
10
588.988319000000
20
2015.276146000000
30
0.0
11
564.675219000000
21
2009.456083000000
31
0.0
0
LINE
5
84d
100
AcDbEntity
8
E-0
6
CONTINUOUS
62
0
100
AcDbLine
10
686.240722000000
20
2038.556399000000
30
0.0
11
791.365938000000
21
2063.721244000000
31
0.0
0
LINE
5
84e
100
AcDbEntity
8
E-0
6
CONTINUOUS
62
0
100
AcDbLine
10
613.301420000000
20
2021.096209000000
30
0.0
11
661.927621000000
21
2032.736336000000
31
0.0
0
LINE
5
84f
100
AcDbEntity
8
E-0
6
BYLAYER
62
0
100
AcDbLine
10
587.428839360079
20
2021.790817264443
30
0.0
11
613.301420147927
21
2021.096209460037
31
0.0
0
LINE
5
850
100
AcDbEntity
8
E-0
6
BYLAYER
62
0
100
AcDbLine
10
613.301420147927
20
2021.096209460037
30
0.0
11
590.547799592808
21
2008.761475240797
31
0.0
0
LINE
5
851
100
AcDbEntity
8
E-0
6
BYLAYER
62
0
100
AcDbLine
10
613.301420147927
20
2021.096209460037
30
0.0
11
588.988319476444
21
2015.276146252620
31
0.0
0
LINE
5
852
100
AcDbEntity
8
E-0
6
BYLAYER
62
0
100
AcDbLine
10
687.800202278754
20
2032.041728070692
30
0.0
11
661.927621490900
21
2032.736335874834
31
0.0
0
LINE
5
853
100
AcDbEntity
8
E-0
6
BYLAYER
62
0
100
AcDbLine
10
661.927621490900
20
2032.736335874834
30
0.0
11
684.681242045893
21
2045.071070094306
31
0.0
0
LINE
5
854
100
AcDbEntity
8
E-0
6
BYLAYER
62
0
100
AcDbLine
10
661.927621490900
20
2032.736335874834
30
0.0
11
686.240722162324
21
2038.556399082499
31
0.0
0
TEXT
5
855
100
AcDbEntity
8
E-0
62
0
100
AcDbText
10
719.071
20
2049.809
30
0.0
40
32.000
1
φ50
41
1.000
50
13.462
100
AcDbText
0
LINE
5
856
100
AcDbEntity
8
E-0
6
CONTINUOUS
62
0
100
AcDbLine
10
450.114521000000
20
2191.916273000000
30
0.0
11
363.145123000000
21
2191.916273000000
31
0.0
0
LINE
5
857
100
AcDbEntity
8
E-0
6
CONTINUOUS
62
0
100
AcDbLine
10
420.114521000000
20
2153.916273000000
30
0.0
11
363.145123000000
21
2153.916273000000
31
0.0
0
LINE
5
858
100
AcDbEntity
8
E-0
6
CONTINUOUS
62
0
100
AcDbLine
10
363.145123000000
20
2128.916273000000
30
0.0
11
363.145123000000
21
2103.916273000000
31
0.0
0
LINE
5
859
100
AcDbEntity
8
E-0
6
CONTINUOUS
62
0
100
AcDbLine
10
363.145123000000
20
2216.916273000000
30
0.0
11
363.145123000000
21
2302.392463000000
31
0.0
0
LINE
5
85a
100
AcDbEntity
8
E-0
6
CONTINUOUS
62
0
100
AcDbLine
10
363.145123000000
20
2153.916273000000
30
0.0
11
363.145123000000
21
2191.916273000000
31
0.0
0
LINE
5
85b
100
AcDbEntity
8
E-0
6
BYLAYER
62
0
100
AcDbLine
10
356.446398370789
20
2128.916272667397
30
0.0
11
363.145123370661
21
2153.916272667431
31
0.0
0
LINE
5
85c
100
AcDbEntity
8
E-0
6
BYLAYER
62
0
100
AcDbLine
10
363.145123370661
20
2153.916272667431
30
0.0
11
369.843848370789
21
2128.916272667465
31
0.0
0
LINE
5
85d
100
AcDbEntity
8
E-0
6
BYLAYER
62
0
100
AcDbLine
10
363.145123370661
20
2153.916272667431
30
0.0
11
363.145123370789
21
2128.916272667431
31
0.0
0
LINE
5
85e
100
AcDbEntity
8
E-0
6
BYLAYER
62
0
100
AcDbLine
10
369.843848370278
20
2216.916272667534
30
0.0
11
363.145123370661
21
2191.916272667431
31
0.0
0
LINE
5
85f
100
AcDbEntity
8
E-0
6
BYLAYER
62
0
100
AcDbLine
10
363.145123370661
20
2191.916272667431
30
0.0
11
356.446398370278
21
2216.916272667328
31
0.0
0
LINE
5
860
100
AcDbEntity
8
E-0
6
BYLAYER
62
0
100
AcDbLine
10
363.145123370661
20
2191.916272667431
30
0.0
11
363.145123370278
21
2216.916272667431
31
0.0
0
TEXT
5
861
100
AcDbEntity
8
E-0
62
0
100
AcDbText
10
359.845
20
2256.154
30
0.0
40
32.000
1
38
41
1.000
50
90.000
100
AcDbText
0
LINE
5
862
100
AcDbEntity
8
E-0
6
CONTINUOUS
62
0
100
AcDbLine
10
450.114521000000
20
2191.916273000000
30
0.0
11
312.548065000000
21
2191.916273000000
31
0.0
0
LINE
5
863
100
AcDbEntity
8
E-0
6
CONTINUOUS
62
0
100
AcDbLine
10
420.114521000000
20
2026.916273000000
30
0.0
11
312.548065000000
21
2026.916273000000
31
0.0
0
TEXT
5
864
100
AcDbEntity
8
E-0
62
0
100
AcDbText
10
309.248
20
2085.416
30
0.0
40
32.000
1
165
41
1.000
50
90.000
100
AcDbText
0
LINE
5
865
100
AcDbEntity
8
E-0
6
CONTINUOUS
62
0
100
AcDbLine
10
312.548064603688
20
2026.916272667431
30
0.0
11
312.548064603689
21
2191.916272667431
31
0.0
0
POINT
5
866
100
AcDbEntity
8
E-0
62
0
100
AcDbPoint
10
312.548064603688
20
2026.916272667431
30
0.0
0
POINT
5
867
100
AcDbEntity
8
E-0
62
0
100
AcDbPoint
10
312.548064603689
20
2191.916272667431
30
0.0
0
LINE
5
868
100
AcDbEntity
8
5-0
6
CONTINUOUS
62
5
100
AcDbLine
10
470.114521000000
20
1302.433279000000
30
0.0
11
805.114521000000
21
1302.433279000000
31
0.0
0
LINE
5
869
100
AcDbEntity
8
5-0
6
CONTINUOUS
62
5
100
AcDbLine
10
602.614521000000
20
1152.433279000000
30
0.0
11
672.614521000000
21
1152.433279000000
31
0.0
0
LINE
5
86a
100
AcDbEntity
8
5-0
6
CONTINUOUS
62
5
100
AcDbLine
10
506.290475000000
20
1182.433279000000
30
0.0
11
768.938566000000
21
1182.433279000000
31
0.0
0
LINE
5
86b
100
AcDbEntity
8
0-1
6
CENTER2
62
16
100
AcDbLine
10
637.614521000000
20
1426.990875000000
30
0.0
11
637.614521000000
21
1020.751924000000
31
0.0
0
LINE
5
86c
100
AcDbEntity
8
5-0
6
CONTINUOUS
62
5
100
AcDbLine
10
672.614521000000
20
1182.433279000000
30
0.0
11
672.614521000000
21
1152.433279000000
31
0.0
0
LINE
5
86d
100
AcDbEntity
8
5-0
6
CONTINUOUS
62
5
100
AcDbLine
10
602.614521000000
20
1182.433279000000
30
0.0
11
602.614521000000
21
1152.433279000000
31
0.0
0
LINE
5
86e
100
AcDbEntity
8
5-0
6
CONTINUOUS
62
5
100
AcDbLine
10
465.342121000000
20
1295.941904000000
30
0.0
11
501.518075000000
21
1185.941904000000
31
0.0
0
ARC
5
86f
100
AcDbEntity
8
5-0
6
CONTINUOUS
62
5
100
AcDbCircle
10
470.114521000000
20
1297.433279000000
30
0.0
40
5.000000000000
100
AcDbArc
50
90.000000000000
51
197.354000000000
0
ARC
5
870
100
AcDbEntity
8
5-0
6
CONTINUOUS
62
5
100
AcDbCircle
10
506.290475000000
20
1187.433279000000
30
0.0
40
5.000000000000
100
AcDbArc
50
197.354000000000
51
270.000000000000
0
LINE
5
871
100
AcDbEntity
8
5-0
6
CONTINUOUS
62
5
100
AcDbLine
10
809.886921000000
20
1295.941904000000
30
0.0
11
773.710966000000
21
1185.941904000000
31
0.0
0
ARC
5
872
100
AcDbEntity
8
5-0
6
CONTINUOUS
62
5
100
AcDbCircle
10
768.938566000000
20
1187.433279000000
30
0.0
40
5.000000000000
100
AcDbArc
50
270.000000000000
51
342.646000000000
0
ARC
5
873
100
AcDbEntity
8
5-0
6
CONTINUOUS
62
5
100
AcDbCircle
10
805.114521000000
20
1297.433279000000
30
0.0
40
5.000000000000
100
AcDbArc
50
342.646000000000
51
90.000000000000
0
LINE
5
874
100
AcDbEntity
8
E-0
6
CONTINUOUS
62
0
100
AcDbLine
10
465.114521000000
20
2206.916273000000
30
0.0
11
465.114521000000
21
2315.458966000000
31
0.0
0
LINE
5
875
100
AcDbEntity
8
E-0
6
CONTINUOUS
62
0
100
AcDbLine
10
810.114521000000
20
2206.916273000000
30
0.0
11
810.114521000000
21
2315.458966000000
31
0.0
0
TEXT
5
876
100
AcDbEntity
8
E-0
62
0
100
AcDbText
10
613.615
20
2318.759
30
0.0
40
32.000
1
345
41
1.000
50
0.000
100
AcDbText
0
LINE
5
877
100
AcDbEntity
8
E-0
6
CONTINUOUS
62
0
100
AcDbLine
10
810.114520819412
20
2315.458965729384
30
0.0
11
465.114520819412
21
2315.458965729384
31
0.0
0
POINT
5
878
100
AcDbEntity
8
E-0
62
0
100
AcDbPoint
10
810.114520819412
20
2315.458965729384
30
0.0
0
POINT
5
879
100
AcDbEntity
8
E-0
62
0
100
AcDbPoint
10
465.114520819412
20
2315.458965729384
30
0.0
0
CIRCLE
5
87a
100
AcDbEntity
8
5-0
6
DOT
62
5
100
AcDbCircle
10
582.614521000000
20
1252.433279000000
30
0.0
40
10.000000000000
0
CIRCLE
5
87b
100
AcDbEntity
8
5-0
6
DOT
62
5
100
AcDbCircle
10
692.614521000000
20
1252.433279000000
30
0.0
40
10.000000000000
0
LINE
5
87c
100
AcDbEntity
8
5-0
6
CONTINUOUS
62
5
100
AcDbLine
10
1201.764550000000
20
2638.250018000000
30
0.0
11
1536.764550000000
21
2638.250018000000
31
0.0
0
LINE
5
87d
100
AcDbEntity
8
0-1
6
CENTER2
62
16
100
AcDbLine
10
1289.264550000000
20
2588.250018000000
30
0.0
11
1449.264550000000
21
2588.250018000000
31
0.0
0
LINE
5
87e
100
AcDbEntity
8
5-0
6
CONTINUOUS
62
5
100
AcDbLine
10
1334.264550000000
20
2488.250018000000
30
0.0
11
1404.264550000000
21
2488.250018000000
31
0.0
0
LINE
5
87f
100
AcDbEntity
8
5-0
6
CONTINUOUS
62
5
100
AcDbLine
10
1237.940504000000
20
2518.250018000000
30
0.0
11
1337.947488000000
21
2518.250018000000
31
0.0
0
LINE
5
880
100
AcDbEntity
8
0-1
6
CENTER2
62
16
100
AcDbLine
10
1369.264550000000
20
2713.743163000000
30
0.0
11
1369.264550000000
21
2419.204848000000
31
0.0
0
LINE
5
881
100
AcDbEntity
8
0-1
6
CENTER2
62
16
100
AcDbLine
10
1314.264550000000
20
2613.250018000000
30
0.0
11
1314.264550000000
21
2563.250018000000
31
0.0
0
LINE
5
882
100
AcDbEntity
8
5-0
6
CONTINUOUS
62
5
100
AcDbLine
10
1404.264550000000
20
2518.250018000000
30
0.0
11
1404.264550000000
21
2488.250018000000
31
0.0
0
LINE
5
883
100
AcDbEntity
8
5-0
6
CONTINUOUS
62
5
100
AcDbLine
10
1334.264550000000
20
2518.250018000000
30
0.0
11
1334.264550000000
21
2488.250018000000
31
0.0
0
LINE
5
884
100
AcDbEntity
8
5-0
6
CONTINUOUS
62
5
100
AcDbLine
10
1196.992150000000
20
2631.758643000000
30
0.0
11
1233.168104000000
21
2521.758643000000
31
0.0
0
ARC
5
885
100
AcDbEntity
8
5-0
6
CONTINUOUS
62
5
100
AcDbCircle
10
1201.764550000000
20
2633.250018000000
30
0.0
40
5.000000000000
100
AcDbArc
50
90.000000000000
51
197.354000000000
0
ARC
5
886
100
AcDbEntity
8
5-0
6
CONTINUOUS
62
5
100
AcDbCircle
10
1237.940504000000
20
2523.250018000000
30
0.0
40
5.000000000000
100
AcDbArc
50
197.354000000000
51
270.000000000000
0
LINE
5
887
100
AcDbEntity
8
5-0
6
CONTINUOUS
62
5
100
AcDbLine
10
1541.536949000000
20
2631.758643000000
30
0.0
11
1505.360995000000
21
2521.758643000000
31
0.0
0
ARC
5
888
100
AcDbEntity
8
5-0
6
CONTINUOUS
62
5
100
AcDbCircle
10
1500.588595000000
20
2523.250018000000
30
0.0
40
5.000000000000
100
AcDbArc
50
270.000000000000
51
342.646000000000
0
ARC
5
889
100
AcDbEntity
8
5-0
6
CONTINUOUS
62
5
100
AcDbCircle
10
1536.764550000000
20
2633.250018000000
30
0.0
40
5.000000000000
100
AcDbArc
50
342.646000000000
51
90.000000000000
0
CIRCLE
5
88a
100
AcDbEntity
8
5-0
6
DOT
62
5
100
AcDbCircle
10
1314.264550000000
20
2588.250018000000
30
0.0
40
10.000000000000
0
LINE
5
88b
100
AcDbEntity
8
0-1
6
CENTER2
62
16
100
AcDbLine
10
1424.264550000000
20
2613.250018000000
30
0.0
11
1424.264550000000
21
2563.250018000000
31
0.0
0
CIRCLE
5
88c
100
AcDbEntity
8
5-0
6
DOT
62
5
100
AcDbCircle
10
1424.264550000000
20
2588.250018000000
30
0.0
40
10.000000000000
0
LINE
5
88d
100
AcDbEntity
8
E-0
6
CONTINUOUS
62
0
100
AcDbLine
10
1469.264550000000
20
2588.250018000000
30
0.0
11
1490.944688000000
21
2588.250018000000
31
0.0
0
LINE
5
88e
100
AcDbEntity
8
E-0
6
CONTINUOUS
62
0
100
AcDbLine
10
1469.264550000000
20
2638.250018000000
30
0.0
11
1490.944688000000
21
2638.250018000000
31
0.0
0
TEXT
5
88f
100
AcDbEntity
8
E-0
62
0
100
AcDbText
10
1487.645
20
2702.488
30
0.0
40
32.000
1
50
41
1.000
50
90.000
100
AcDbText
0
LINE
5
890
100
AcDbEntity
8
E-0
6
CONTINUOUS
62
0
100
AcDbLine
10
1490.944688208188
20
2638.250018304212
30
0.0
11
1490.944688208188
21
2588.250018304212
31
0.0
0
POINT
5
891
100
AcDbEntity
8
E-0
62
0
100
AcDbPoint
10
1490.944688208188
20
2638.250018304212
30
0.0
0
POINT
5
892
100
AcDbEntity
8
E-0
62
0
100
AcDbPoint
10
1490.944688208188
20
2588.250018304212
30
0.0
0
LINE
5
893
100
AcDbEntity
8
E-0
6
CONTINUOUS
62
0
100
AcDbLine
10
1314.264550000000
20
2633.250018000000
30
0.0
11
1314.264550000000
21
2734.290913000000
31
0.0
0
LINE
5
894
100
AcDbEntity
8
E-0
6
CONTINUOUS
62
0
100
AcDbLine
10
1424.264550000000
20
2633.250018000000
30
0.0
11
1424.264550000000
21
2734.290913000000
31
0.0
0
TEXT
5
895
100
AcDbEntity
8
E-0
62
0
100
AcDbText
10
1345.265
20
2737.591
30
0.0
40
32.000
1
110
41
1.000
50
0.000
100
AcDbText
0
LINE
5
896
100
AcDbEntity
8
E-0
6
CONTINUOUS
62
0
100
AcDbLine
10
1424.264549585339
20
2734.290912766406
30
0.0
11
1314.264549585339
21
2734.290912766406
31
0.0
0
POINT
5
897
100
AcDbEntity
8
E-0
62
0
100
AcDbPoint
10
1424.264549585339
20
2734.290912766406
30
0.0
0
POINT
5
898
100
AcDbEntity
8
E-0
62
0
100
AcDbPoint
10
1314.264549585339
20
2734.290912766406
30
0.0
0
ARC
5
899
100
AcDbEntity
8
5-0
6
CONTINUOUS
62
5
100
AcDbCircle
10
1282.940504000000
20
2523.250018000000
30
0.0
40
5.000000000000
100
AcDbArc
50
270.000000000000
51
342.646000000000
0
ARC
5
89a
100
AcDbEntity
8
5-0
6
CONTINUOUS
62
5
100
AcDbCircle
10
1455.588595000000
20
2523.250018000000
30
0.0
40
5.000000000000
100
AcDbArc
50
197.354000000000
51
270.000000000000
0
ARC
5
89b
100
AcDbEntity
8
5-0
6
CONTINUOUS
62
5
100
AcDbCircle
10
1369.264550000000
20
2491.139850000000
30
0.0
40
87.110168000000
100
AcDbArc
50
20.579000000000
51
159.421000000000
0
LINE
5
89c
100
AcDbEntity
8
5-0
6
CONTINUOUS
62
5
100
AcDbLine
10
1290.454545000000
20
2528.250018000000
30
0.0
11
1337.396974000000
21
2528.250018000000
31
0.0
0
LINE
5
89d
100
AcDbEntity
8
5-0
6
CONTINUOUS
62
5
100
AcDbLine
10
1335.030261000000
20
2571.241004000000
30
0.0
11
1339.323772000000
21
2493.250018000000
31
0.0
0
LINE
5
89e
100
AcDbEntity
8
5-0
6
CONTINUOUS
62
5
100
AcDbLine
10
1339.323772000000
20
2493.250018000000
30
0.0
11
1399.205327000000
21
2493.250018000000
31
0.0
0
LINE
5
89f
100
AcDbEntity
8
5-0
6
CONTINUOUS
62
5
100
AcDbLine
10
1403.498838000000
20
2571.241004000000
30
0.0
11
1399.205327000000
21
2493.250018000000
31
0.0
0
LINE
5
8a0
100
AcDbEntity
8
5-0
6
CONTINUOUS
62
5
100
AcDbLine
10
1401.132125000000
20
2528.250018000000
30
0.0
11
1448.074554000000
21
2528.250018000000
31
0.0
0
LINE
5
8a1
100
AcDbEntity
8
5-0
6
CONTINUOUS
62
5
100
AcDbLine
10
1400.581611000000
20
2518.250018000000
30
0.0
11
1500.588595000000
21
2518.250018000000
31
0.0
0
LINE
5
8a2
100
AcDbEntity
8
5-0
6
CONTINUOUS
62
5
100
AcDbLine
10
1645.606655000000
20
1302.433279000000
30
0.0
11
1645.606655000000
21
1182.433279000000
31
0.0
0
LINE
5
8a3
100
AcDbEntity
8
0-1
6
CENTER2
62
16
100
AcDbLine
10
1480.606655000000
20
1426.990875000000
30
0.0
11
1480.606655000000
21
1020.751924000000
31
0.0
0
LINE
5
8a4
100
AcDbEntity
8
5-0
6
CONTINUOUS
62
5
100
AcDbLine
10
1572.364991000000
20
1182.433279000000
30
0.0
11
1570.606655000000
21
1171.709573000000
31
0.0
0
ARC
5
8a5
100
AcDbEntity
8
5-0
6
CONTINUOUS
62
5
100
AcDbCircle
10
1560.606655000000
20
1171.709573000000
30
0.0
40
10.000000000000
100
AcDbArc
50
275.373000000000
51
0.000000000000
0
LINE
5
8a6
100
AcDbEntity
8
5-0
6
CONTINUOUS
62
5
100
AcDbLine
10
1395.606655000000
20
1302.433279000000
30
0.0
11
1645.606655000000
21
1302.433279000000
31
0.0
0
LINE
5
8a7
100
AcDbEntity
8
5-0
6
CONTINUOUS
62
5
100
AcDbLine
10
1430.606655000000
20
1182.433279000000
30
0.0
11
1645.606655000000
21
1182.433279000000
31
0.0
0
LINE
5
8a8
100
AcDbEntity
8
5-0
6
CONTINUOUS
62
5
100
AcDbLine
10
1430.606655000000
20
1182.433279000000
30
0.0
11
1395.606655000000
21
1302.433279000000
31
0.0
0
LINE
5
8a9
100
AcDbEntity
8
5-0
6
CONTINUOUS
62
5
100
AcDbLine
10
1448.606655000000
20
1152.433279000000
30
0.0
11
1512.606655000000
21
1152.433279000000
31
0.0
0
ARC
5
8aa
100
AcDbEntity
8
5-0
6
CONTINUOUS
62
5
100
AcDbCircle
10
1512.606655000000
20
1155.433279000000
30
0.0
40
3.000000000000
100
AcDbArc
50
270.000000000000
51
360.000000000000
0
ARC
5
8ab
100
AcDbEntity
8
5-0
6
CONTINUOUS
62
5
100
AcDbCircle
10
1448.606655000000
20
1155.433279000000
30
0.0
40
3.000000000000
100
AcDbArc
50
180.000000000000
51
270.000000000000
0
LINE
5
8ac
100
AcDbEntity
8
5-0
6
CONTINUOUS
62
5
100
AcDbLine
10
1515.606655000000
20
1182.433279000000
30
0.0
11
1515.606655000000
21
1155.433279000000
31
0.0
0
LINE
5
8ad
100
AcDbEntity
8
5-0
6
CONTINUOUS
62
5
100
AcDbLine
10
1445.606655000000
20
1182.433279000000
30
0.0
11
1445.606655000000
21
1155.433279000000
31
0.0
0
LINE
5
8ae
100
AcDbEntity
8
5-0
6
CONTINUOUS
62
5
100
AcDbLine
10
1515.606655000000
20
1157.433279000000
30
0.0
11
1561.543004000000
21
1161.753507000000
31
0.0
0
LINE
5
8af
100
AcDbEntity
8
E-0
6
CONTINUOUS
62
0
100
AcDbLine
10
1480.606655000000
20
1446.990875000000
30
0.0
11
1480.606655000000
21
1489.379671000000
31
0.0
0
LINE
5
8b0
100
AcDbEntity
8
E-0
6
CONTINUOUS
62
0
100
AcDbLine
10
1645.606655000000
20
1322.433279000000
30
0.0
11
1645.606655000000
21
1489.379671000000
31
0.0
0
TEXT
5
8b1
100
AcDbEntity
8
E-0
62
0
100
AcDbText
10
1539.107
20
1492.680
30
0.0
40
32.000
1
165
41
1.000
50
0.000
100
AcDbText
0
LINE
5
8b2
100
AcDbEntity
8
E-0
6
CONTINUOUS
62
0
100
AcDbLine
10
1645.606654645467
20
1489.379671136318
30
0.0
11
1480.606654645467
21
1489.379671136318
31
0.0
0
POINT
5
8b3
100
AcDbEntity
8
E-0
62
0
100
AcDbPoint
10
1645.606654645467
20
1489.379671136318
30
0.0
0
POINT
5
8b4
100
AcDbEntity
8
E-0
62
0
100
AcDbPoint
10
1480.606654645467
20
1489.379671136318
30
0.0
0
LINE
5
8b5
100
AcDbEntity
8
E-0
6
CONTINUOUS
62
0
100
AcDbLine
10
450.114521000000
20
1302.433279000000
30
0.0
11
397.226245000000
21
1302.433279000000
31
0.0
0
LINE
5
8b6
100
AcDbEntity
8
E-0
6
CONTINUOUS
62
0
100
AcDbLine
10
485.114521000000
20
1182.433279000000
30
0.0
11
397.226245000000
21
1182.433279000000
31
0.0
0
TEXT
5
8b7
100
AcDbEntity
8
E-0
62
0
100
AcDbText
10
393.926
20
1218.433
30
0.0
40
32.000
1
120
41
1.000
50
90.000
100
AcDbText
0
LINE
5
8b8
100
AcDbEntity
8
E-0
6
CONTINUOUS
62
0
100
AcDbLine
10
397.226244925982
20
1182.433278731122
30
0.0
11
397.226244925982
21
1302.433278731123
31
0.0
0
POINT
5
8b9
100
AcDbEntity
8
E-0
62
0
100
AcDbPoint
10
397.226244925982
20
1182.433278731122
30
0.0
0
POINT
5
8ba
100
AcDbEntity
8
E-0
62
0
100
AcDbPoint
10
397.226244925982
20
1302.433278731123
30
0.0
0
LINE
5
8bb
100
AcDbEntity
8
E-0
6
CONTINUOUS
62
0
100
AcDbLine
10
450.114521000000
20
1302.433279000000
30
0.0
11
322.255520000000
21
1302.433279000000
31
0.0
0
LINE
5
8bc
100
AcDbEntity
8
E-0
6
CONTINUOUS
62
0
100
AcDbLine
10
582.614521000000
20
1152.433279000000
30
0.0
11
322.255520000000
21
1152.433279000000
31
0.0
0
TEXT
5
8bd
100
AcDbEntity
8
E-0
62
0
100
AcDbText
10
318.956
20
1203.433
30
0.0
40
32.000
1
150
41
1.000
50
90.000
100
AcDbText
0
LINE
5
8be
100
AcDbEntity
8
E-0
6
CONTINUOUS
62
0
100
AcDbLine
10
322.255519823308
20
1152.433278731123
30
0.0
11
322.255519823308
21
1302.433278731123
31
0.0
0
POINT
5
8bf
100
AcDbEntity
8
E-0
62
0
100
AcDbPoint
10
322.255519823308
20
1152.433278731123
30
0.0
0
POINT
5
8c0
100
AcDbEntity
8
E-0
62
0
100
AcDbPoint
10
322.255519823308
20
1302.433278731123
30
0.0
0
TEXT
5
8c1
100
AcDbEntity
8
2-1
62
4
100
AcDbText
10
130.467
20
695.174
30
0.0
40
25.600
1
タイプ：壁付け型、置き型
41
1.000
50
0.000
100
AcDbText
0
TEXT
5
8c2
100
AcDbEntity
8
2-1
62
4
100
AcDbText
10
130.467
20
655.174
30
0.0
40
25.600
1
重量：3Kg
41
1.000
50
0.000
100
AcDbText
0
TEXT
5
8c3
100
AcDbEntity
8
2-1
62
4
100
AcDbText
10
130.467
20
615.174
30
0.0
40
25.600
1
容量：2.5?ため、RP-8530.360.5をお勧めします。）
41
1.000
50
0.000
100
AcDbText
0
TEXT
5
8c4
100
AcDbEntity
8
2-1
62
4
100
AcDbText
10
130.467
20
575.174
30
0.0
40
25.600
1
※壁付けで使用の場合、壁付ビスGI-FLAVABOで壁へ固定して下さい。
41
1.000
50
0.000
100
AcDbText
0
TEXT
5
8c5
100
AcDbEntity
8
2-1
62
4
100
AcDbText
10
130.467
20
535.174
30
0.0
40
25.600
1
　下地には商品本体を支えられるだけの強度を持たせて下さい。
41
1.000
50
0.000
100
AcDbText
0
TEXT
5
8c6
100
AcDbEntity
8
2-1
62
4
100
AcDbText
10
130.467
20
495.174
30
0.0
40
25.600
1
　取り付け位置は現物合わせによるスミ出しを行って下さい。
41
1.000
50
0.000
100
AcDbText
0
TEXT
5
8c7
100
AcDbEntity
8
2-1
62
4
100
AcDbText
10
130.467
20
455.174
30
0.0
40
25.600
1
※陶器製洗面器のため、焼成による寸法誤差が生じる場合がございますので、予めご了承下さい。
41
1.000
50
0.000
100
AcDbText
0
LINE
5
8c8
100
AcDbEntity
8
E-0
6
CONTINUOUS
62
0
100
AcDbLine
10
450.114521000000
20
2191.916273000000
30
0.0
11
255.527590000000
21
2191.916273000000
31
0.0
0
LINE
5
8c9
100
AcDbEntity
8
E-0
6
CONTINUOUS
62
0
100
AcDbLine
10
450.114521000000
20
1941.916273000000
30
0.0
11
255.527590000000
21
1941.916273000000
31
0.0
0
TEXT
5
8ca
100
AcDbEntity
8
E-0
62
0
100
AcDbText
10
252.228
20
2042.916
30
0.0
40
32.000
1
250
41
1.000
50
90.000
100
AcDbText
0
LINE
5
8cb
100
AcDbEntity
8
E-0
6
CONTINUOUS
62
0
100
AcDbLine
10
255.527589935515
20
1941.916272667431
30
0.0
11
255.527589935515
21
2191.916272667431
31
0.0
0
POINT
5
8cc
100
AcDbEntity
8
E-0
62
0
100
AcDbPoint
10
255.527589935515
20
1941.916272667431
30
0.0
0
POINT
5
8cd
100
AcDbEntity
8
E-0
62
0
100
AcDbPoint
10
255.527589935515
20
2191.916272667431
30
0.0
0
CIRCLE
5
8ce
100
AcDbEntity
8
5-0
6
CONTINUOUS
62
5
100
AcDbCircle
10
637.614521000000
20
2153.916273000000
30
0.0
40
17.500000000000
0
LINE
5
8cf
100
AcDbEntity
8
E-0
6
CONTINUOUS
62
0
100
AcDbLine
10
596.189645000000
20
2144.417344000000
30
0.0
11
571.822070000000
21
2138.829740000000
31
0.0
0
LINE
5
8d0
100
AcDbEntity
8
E-0
6
CONTINUOUS
62
0
100
AcDbLine
10
679.039397000000
20
2163.415201000000
30
0.0
11
784.400146000000
21
2187.574940000000
31
0.0
0
LINE
5
8d1
100
AcDbEntity
8
E-0
6
CONTINUOUS
62
0
100
AcDbLine
10
620.557219000000
20
2150.004949000000
30
0.0
11
654.671823000000
21
2157.827596000000
31
0.0
0
LINE
5
8d2
100
AcDbEntity
8
E-0
6
BYLAYER
62
0
100
AcDbLine
10
594.692451555415
20
2150.946611622388
30
0.0
11
620.557218878767
21
2150.004949297307
31
0.0
0
LINE
5
8d3
100
AcDbEntity
8
E-0
6
BYLAYER
62
0
100
AcDbLine
10
620.557218878767
20
2150.004949297307
30
0.0
11
597.686837800286
21
2137.888077343265
31
0.0
0
LINE
5
8d4
100
AcDbEntity
8
E-0
6
BYLAYER
62
0
100
AcDbLine
10
620.557218878767
20
2150.004949297307
30
0.0
11
596.189644677850
21
2144.417344482827
31
0.0
0
LINE
5
8d5
100
AcDbEntity
8
E-0
6
BYLAYER
62
0
100
AcDbLine
10
680.536590083419
20
2156.885933712738
30
0.0
11
654.671822760057
21
2157.827596037555
31
0.0
0
LINE
5
8d6
100
AcDbEntity
8
E-0
6
BYLAYER
62
0
100
AcDbLine
10
654.671822760057
20
2157.827596037555
30
0.0
11
677.542203838415
21
2169.944467991831
31
0.0
0
LINE
5
8d7
100
AcDbEntity
8
E-0
6
BYLAYER
62
0
100
AcDbLine
10
654.671822760057
20
2157.827596037555
30
0.0
11
679.039396960917
21
2163.415200852284
31
0.0
0
TEXT
5
8d8
100
AcDbEntity
8
E-0
62
0
100
AcDbText
10
711.975
20
2174.353
30
0.0
40
32.000
1
φ35
41
1.000
50
12.915
100
AcDbText
0
LINE
5
8d9
100
AcDbEntity
8
2-1
6
CONTINUOUS
62
4
100
AcDbLine
10
1294.264550000000
20
2347.144805000000
30
0.0
11
1444.264550000000
21
2347.144805000000
31
0.0
0
LINE
5
8da
100
AcDbEntity
8
2-1
6
CONTINUOUS
62
4
100
AcDbLine
10
1444.264550000000
20
2347.144805000000
30
0.0
11
1444.264550000000
21
2397.144805000000
31
0.0
0
LINE
5
8db
100
AcDbEntity
8
2-1
6
CONTINUOUS
62
4
100
AcDbLine
10
1444.264550000000
20
2397.144805000000
30
0.0
11
1294.264550000000
21
2397.144805000000
31
0.0
0
LINE
5
8dc
100
AcDbEntity
8
2-1
6
CONTINUOUS
62
4
100
AcDbLine
10
1294.264550000000
20
2397.144805000000
30
0.0
11
1294.264550000000
21
2347.144805000000
31
0.0
0
TEXT
5
8dd
100
AcDbEntity
8
2-1
62
4
100
AcDbText
10
1336.810
20
2353.305
30
0.0
40
38.400
1
背面
41
1.000
50
0.000
100
AcDbText
0
LINE
5
8de
100
AcDbEntity
8
5-0
6
DOT
62
5
100
AcDbLine
10
1201.764549585339
20
1941.916272667431
30
0.0
11
1536.764549585339
21
1941.916272667431
31
0.0
0
ARC
5
8df
100
AcDbEntity
8
5-0
6
DOT
62
5
100
AcDbCircle
10
1536.764550000000
20
1946.916273000000
30
0.0
40
5.000000000000
100
AcDbArc
50
270.000000000000
51
359.999999999708
0
LINE
5
8e0
100
AcDbEntity
8
5-0
6
DOT
62
5
100
AcDbLine
10
1541.764549585339
20
1946.916272667431
30
0.0
11
1541.764549585339
21
2186.916272667431
31
0.0
0
ARC
5
8e1
100
AcDbEntity
8
5-0
6
DOT
62
5
100
AcDbCircle
10
1536.764550000000
20
2186.916273000000
30
0.0
40
5.000000000000
100
AcDbArc
50
360.000000000292
51
450.000000000000
0
LINE
5
8e2
100
AcDbEntity
8
5-0
6
DOT
62
5
100
AcDbLine
10
1536.764549585339
20
2191.916272667431
30
0.0
11
1201.764549585339
21
2191.916272667431
31
0.0
0
ARC
5
8e3
100
AcDbEntity
8
5-0
6
DOT
62
5
100
AcDbCircle
10
1201.764550000000
20
2186.916273000000
30
0.0
40
5.000000000000
100
AcDbArc
50
450.000000000000
51
539.999999999708
0
LINE
5
8e4
100
AcDbEntity
8
5-0
6
DOT
62
5
100
AcDbLine
10
1196.764549585339
20
2186.916272667431
30
0.0
11
1196.764549585339
21
1946.916272667431
31
0.0
0
ARC
5
8e5
100
AcDbEntity
8
5-0
6
DOT
62
5
100
AcDbCircle
10
1201.764550000000
20
1946.916273000000
30
0.0
40
5.000000000000
100
AcDbArc
50
180.000000000292
51
270.000000000000
0
LINE
5
8e6
100
AcDbEntity
8
0-1
6
CENTER2
62
16
100
AcDbLine
10
1369.264550000000
20
1916.916273000000
30
0.0
11
1369.264550000000
21
2216.916273000000
31
0.0
0
LINE
5
8e7
100
AcDbEntity
8
5-0
6
CONTINUOUS
62
5
100
AcDbLine
10
1309.264549585339
20
1986.916272667431
30
0.0
11
1429.264549585339
21
1986.916272667431
31
0.0
0
LINE
5
8e8
100
AcDbEntity
8
5-0
6
CONTINUOUS
62
5
100
AcDbLine
10
1429.264549585339
20
1986.916272667431
30
0.0
11
1429.264549585339
21
2191.916272667431
31
0.0
0
LINE
5
8e9
100
AcDbEntity
8
5-0
6
CONTINUOUS
62
5
100
AcDbLine
10
1429.264549585339
20
2191.916272667431
30
0.0
11
1309.264549585339
21
2191.916272667431
31
0.0
0
LINE
5
8ea
100
AcDbEntity
8
5-0
6
CONTINUOUS
62
5
100
AcDbLine
10
1309.264549585339
20
2191.916272667431
30
0.0
11
1309.264549585339
21
1986.916272667431
31
0.0
0
LINE
5
8eb
100
AcDbEntity
8
E-0
6
CONTINUOUS
62
0
100
AcDbLine
10
1449.264550000000
20
2191.916273000000
30
0.0
11
1643.397393000000
21
2191.916273000000
31
0.0
0
LINE
5
8ec
100
AcDbEntity
8
E-0
6
CONTINUOUS
62
0
100
AcDbLine
10
1449.264550000000
20
1986.916273000000
30
0.0
11
1643.397393000000
21
1986.916273000000
31
0.0
0
TEXT
5
8ed
100
AcDbEntity
8
E-0
62
0
100
AcDbText
10
1640.097
20
2065.416
30
0.0
40
32.000
1
205
41
1.000
50
90.000
100
AcDbText
0
LINE
5
8ee
100
AcDbEntity
8
E-0
6
CONTINUOUS
62
0
100
AcDbLine
10
1643.397392563986
20
1986.916272667431
30
0.0
11
1643.397392563986
21
2191.916272667431
31
0.0
0
POINT
5
8ef
100
AcDbEntity
8
E-0
62
0
100
AcDbPoint
10
1643.397392563986
20
1986.916272667431
30
0.0
0
POINT
5
8f0
100
AcDbEntity
8
E-0
62
0
100
AcDbPoint
10
1643.397392563986
20
2191.916272667431
30
0.0
0
LINE
5
8f1
100
AcDbEntity
8
E-0
6
CONTINUOUS
62
0
100
AcDbLine
10
1309.264550000000
20
2211.916273000000
30
0.0
11
1309.264550000000
21
2245.347954000000
31
0.0
0
LINE
5
8f2
100
AcDbEntity
8
E-0
6
CONTINUOUS
62
0
100
AcDbLine
10
1429.264550000000
20
2211.916273000000
30
0.0
11
1429.264550000000
21
2245.347954000000
31
0.0
0
TEXT
5
8f3
100
AcDbEntity
8
E-0
62
0
100
AcDbText
10
1345.265
20
2248.648
30
0.0
40
32.000
1
120
41
1.000
50
0.000
100
AcDbText
0
LINE
5
8f4
100
AcDbEntity
8
E-0
6
CONTINUOUS
62
0
100
AcDbLine
10
1429.264549585339
20
2245.347954245145
30
0.0
11
1309.264549585339
21
2245.347954245145
31
0.0
0
POINT
5
8f5
100
AcDbEntity
8
E-0
62
0
100
AcDbPoint
10
1429.264549585339
20
2245.347954245145
30
0.0
0
POINT
5
8f6
100
AcDbEntity
8
E-0
62
0
100
AcDbPoint
10
1309.264549585339
20
2245.347954245145
30
0.0
0
LINE
5
8f7
100
AcDbEntity
8
2-1
6
CONTINUOUS
62
4
100
AcDbLine
10
1180.299198000000
20
1781.445523000000
30
0.0
11
1558.229901000000
21
1781.445523000000
31
0.0
0
LINE
5
8f8
100
AcDbEntity
8
2-1
6
CONTINUOUS
62
4
100
AcDbLine
10
1558.229901000000
20
1781.445523000000
30
0.0
11
1558.229901000000
21
1831.445523000000
31
0.0
0
LINE
5
8f9
100
AcDbEntity
8
2-1
6
CONTINUOUS
62
4
100
AcDbLine
10
1558.229901000000
20
1831.445523000000
30
0.0
11
1180.299198000000
21
1831.445523000000
31
0.0
0
LINE
5
8fa
100
AcDbEntity
8
2-1
6
CONTINUOUS
62
4
100
AcDbLine
10
1180.299198000000
20
1831.445523000000
30
0.0
11
1180.299198000000
21
1781.445523000000
31
0.0
0
TEXT
5
8fb
100
AcDbEntity
8
2-1
62
4
100
AcDbText
10
1205.299
20
1787.606
30
0.0
40
38.400
1
カウンター開口寸法
41
1.000
50
0.000
100
AcDbText
0
ENDSEC
0
EOF
