  0
SECTION
  2
HEADER
  9
$ACADVER
  1
AC1009
  9
$INSBASE
 10
0
 20
0
 30
0
  9
$EXTMIN
 10
0
 20
0
  9
$EXTMAX
 10
4200
 20
2970
  9
$LIMMIN
 10
0
 20
0
  9
$LIMMAX
 10
4200
 20
2970
  9
$LTSCALE
 40
10
  0
ENDSEC
  0
SECTION
  2
TABLES
  0
TABLE
  2
LTYPE
 70
     9
  0
LTYPE
  2
CONTINUOUS
 70
    64
  3
実線
 72
    65
 73
     0
 40
0.0
  0
LTYPE
  2
DASHED1
 70
    64
  3
--  --  --  --  --  --  --  --  
 72
    65
 73
     2
 40
2.5
 49
1.25
 49
-1.25
  0
LTYPE
  2
DASHED2
 70
    64
  3
----    ----    ----    ----    
 72
    65
 73
     2
 40
5.0
 49
2.5
 49
-2.5
  0
LTYPE
  2
DASHED3
 70
    64
  3
------  ------  ------  ------  
 72
    65
 73
     2
 40
5.0
 49
3.75
 49
-1.25
  0
LTYPE
  2
CENTER1
 70
    64
  3
----- - ----- - ----- - ----- - 
 72
    65
 73
     4
 40
10.0
 49
6.25
 49
-1.25
 49
1.25
 49
-1.25
  0
LTYPE
  2
CENTER2
 70
    64
  3
----------  --  ----------  --  
 72
    65
 73
     4
 40
20.0
 49
12.5
 49
-2.5
 49
2.5
 49
-2.5
  0
LTYPE
  2
PHANTOM1
 70
    64
  3
--- - - --- - - --- - - --- - - 
 72
    65
 73
     6
 40
10.0
 49
3.25
 49
-1.25
 49
1.25
 49
-1.25
 49
1.25
 49
-1.25
  0
LTYPE
  2
PHANTOM2
 70
    64
  3
--------  -  -  --------  -  -  
 72
    65
 73
     6
 40
20.0
 49
10.0
 49
-2.5
 49
1.25
 49
-2.5
 49
1.25
 49
-2.5
  0
LTYPE
  2
DOT
 70
    64
  3
-   -   -   -   -   -   -   -   
 72
    65
 73
     2
 40
2.5
 49
0.625
 49
-1.875
  0
LTYPE
  2
DUMMY
 70
    64
  3
ダミー
 72
    65
 73
     0
 40
0.0
  0
LTYPE
  2
RAND1
 70
    64
  3
----- - ----- - ----- - ----- - 
 72
    65
 73
     4
 40
10.0
 49
6.25
 49
-1.25
 49
1.25
 49
-1.25
  0
LTYPE
  2
RAND2
 70
    64
  3
----------  --  ----------  --  
 72
    65
 73
     4
 40
20.0
 49
12.5
 49
-2.5
 49
2.5
 49
-2.5
  0
LTYPE
  2
RAND3
 70
    64
  3
--- - - --- - - --- - - --- - - 
 72
    65
 73
     6
 40
10.0
 49
3.25
 49
-1.25
 49
1.25
 49
-1.25
 49
1.25
 49
-1.25
  0
LTYPE
  2
RAND4
 70
    64
  3
--------  -  -  --------  -  -  
 72
    65
 73
     6
 40
20.0
 49
10.0
 49
-2.5
 49
1.25
 49
-2.5
 49
1.25
 49
-2.5
  0
LTYPE
  2
RAND5
 70
    64
  3
----- - ----- - ----- - ----- - 
 72
    65
 73
     4
 40
10.0
 49
6.25
 49
-1.25
 49
1.25
 49
-1.25
  0
LTYPE
  2
LONG1
 70
    64
  3
----------  --  ----------  --  
 72
    65
 73
     4
 40
20.0
 49
12.5
 49
-2.5
 49
2.5
 49
-2.5
  0
LTYPE
  2
LONG2
 70
    64
  3
--- - - --- - - --- - - --- - - 
 72
    65
 73
     6
 40
10.0
 49
3.25
 49
-1.25
 49
1.25
 49
-1.25
 49
1.25
 49
-1.25
  0
LTYPE
  2
LONG3
 70
    64
  3
--------  -  -  --------  -  -  
 72
    65
 73
     6
 40
20.0
 49
10.0
 49
-2.5
 49
1.25
 49
-2.5
 49
1.25
 49
-2.5
  0
LTYPE
  2
LONG4
 70
    64
  3
----- - ----- - ----- - ----- - 
 72
    65
 73
     4
 40
10.0
 49
6.25
 49
-1.25
 49
1.25
 49
-1.25
  0
LTYPE
  2
LONG5
 70
    64
  3
----------  --  ----------  --  
 72
    65
 73
     4
 40
20.0
 49
12.5
 49
-2.5
 49
2.5
 49
-2.5
  0
ENDTAB
  0
TABLE
  2
STYLE
  5
3
100
AcDbSymbolTable
 70
     1
  0
STYLE
  5
10
100
AcDbSymbolTableRecord
100
AcDbTextStyleTableRecord
  2
STANDARD
 70
     0
 40
0.0
 41
1.0
 50
0.0
 71
     0
 42
0.2
  3
txt
  4
bigfont.shx
  0
STYLE
  5
26
100
AcDbSymbolTableRecord
100
AcDbTextStyleTableRecord
  2
TATEGAKI
 70
    68
 40
0.0
 41
1.0
 50
0.0
 71
     0
 42
1.0
  3
txt
  4
bigfont.shx
  0
ENDTAB
  0
TABLE
  2
LAYER
 70
    6
  0
LAYER
  2
_0-0_
 70
   64
 62
    7
  6
CONTINUOUS
  0
LAYER
  2
_0-1_
 70
   64
 62
    7
  6
CONTINUOUS
  0
LAYER
  2
_0-2_
 70
   64
 62
    7
  6
CONTINUOUS
  0
LAYER
  2
_0-3_
 70
   64
 62
    7
  6
CONTINUOUS
  0
LAYER
  2
_0-9_
 70
   64
 62
    7
  6
CONTINUOUS
  0
LAYER
  2
ADD_LINE
 70
   64
 62
    7
  6
CONTINUOUS
  0
ENDTAB
  0
ENDSEC
  0
SECTION
  2
BLOCKS
  0
ENDSEC
  0
SECTION
  2
ENTITIES
  0
LINE
  8
ADD_LINE
  6
DOT
 62
    7
 10
3100
 20
2914.9999997140012
 11
1100.0000001999992
 21
2914.9999997140012
  0
LINE
  8
ADD_LINE
  6
DOT
 62
    7
 10
1100.0000001999992
 20
2914.9999997140012
 11
1100.0000001999992
 21
55
  0
LINE
  8
ADD_LINE
  6
DOT
 62
    7
 10
1100.0000001999992
 20
55
 11
3100
 21
55
  0
LINE
  8
ADD_LINE
  6
DOT
 62
    7
 10
3100
 20
55
 11
3100
 21
2914.9999997140012
  0
LINE
  8
_0-0_
  6
CONTINUOUS
 62
    1
 10
2417.512115868371
 20
283.38966595007275
 11
2417.512115868371
 21
103.38966596807296
  0
LINE
  8
_0-0_
  6
CONTINUOUS
 62
    1
 10
3067.512115868371
 20
2875.0384481419569
 11
3067.512115868371
 21
103.38966596807296
  0
LINE
  8
_0-0_
  6
CONTINUOUS
 62
    1
 10
1143.0465463589576
 20
103.38966596807296
 11
1143.0465463589576
 21
2875.0384481419569
  0
LINE
  8
_0-0_
  6
CONTINUOUS
 62
    1
 10
1143.0465463589576
 20
2875.0384481419569
 11
3067.512115868371
 21
2875.0384481419569
  0
LINE
  8
_0-0_
  6
CONTINUOUS
 62
    1
 10
3067.512115868371
 20
283.38966595007207
 11
1143.0465463589576
 21
283.38966595007207
  0
LINE
  8
_0-0_
  6
CONTINUOUS
 62
    1
 10
3067.512115868371
 20
103.38966596807296
 11
1143.0465463589576
 21
103.38966596807296
  0
LINE
  8
_0-0_
  6
CONTINUOUS
 62
    7
 10
1259.3909576693918
 20
138.19895418957401
 11
1301.4294556913719
 21
138.19895418957401
  0
LINE
  8
_0-0_
  6
CONTINUOUS
 62
    7
 10
1301.4294556913719
 20
138.19895418957401
 11
1301.4294556913719
 21
180.29664629699312
  0
LINE
  8
_0-0_
  6
CONTINUOUS
 62
    7
 10
1259.3909576693918
 20
180.29664629699312
 11
1259.3909576693918
 21
138.19895418957401
  0
LINE
  8
_0-0_
  6
CONTINUOUS
 62
    7
 10
1301.4294556913719
 20
180.29664629699312
 11
1259.3909576693918
 21
180.29664629699312
  0
LINE
  8
_0-0_
  6
CONTINUOUS
 62
    7
 10
1306.1926773159562
 20
194.0245639282324
 11
1327.692677315956
 21
231.26365629096227
  0
LINE
  8
_0-0_
  6
CONTINUOUS
 62
    7
 10
1306.1926773159562
 20
194.0245639282324
 11
1349.1926773159562
 21
194.0245639282324
  0
LINE
  8
_0-0_
  6
CONTINUOUS
 62
    7
 10
1327.692677315956
 20
231.26365629096227
 11
1349.1926773159562
 21
194.0245639282324
  0
CIRCLE
  8
_0-0_
  6
CONTINUOUS
 62
    7
 10
1361.5203719176552
 20
239.22135607101382
 40
14.758715835162384
  0
LINE
  8
_0-0_
  6
CONTINUOUS
 62
    2
 10
1391.188330892161
 20
160.16395581136806
 11
1409.3109805806157
 21
160.16395581136806
  0
LINE
  8
_0-0_
  6
CONTINUOUS
 62
    2
 10
1413.9740571621658
 20
150.16395581136862
 11
1420.0360567181813
 21
137.16395581136794
  0
LINE
  8
_0-0_
  6
CONTINUOUS
 62
    2
 10
1386.525254310611
 20
150.16395581136862
 11
1380.4632547545962
 21
137.16395581136794
  0
LINE
  8
_0-0_
  6
CONTINUOUS
 62
    2
 10
1400.2496557363886
 20
179.59602964879934
 11
1409.3109805806157
 21
160.16395581136806
  0
LINE
  8
_0-0_
  6
CONTINUOUS
 62
    2
 10
1400.2496557363886
 20
179.59602964879934
 11
1391.188330892161
 21
160.16395581136806
  0
LINE
  8
_0-0_
  6
CONTINUOUS
 62
    2
 10
1394.2998575752379
 20
194.71523628320085
 11
1367.4632547545959
 21
137.16395581136794
  0
LINE
  8
_0-0_
  6
CONTINUOUS
 62
    2
 10
1472.7285854661895
 20
184.71523628320085
 11
1473.4767255487232
 21
184.30466883560598
  0
LINE
  8
_0-0_
  6
CONTINUOUS
 62
    2
 10
1473.4767255487232
 20
184.30466883560598
 11
1474.7526900767029
 21
183.58737350812589
  0
LINE
  8
_0-0_
  6
CONTINUOUS
 62
    2
 10
1474.7526900767029
 20
183.58737350812589
 11
1475.9899541434502
 21
182.84391035332021
  0
LINE
  8
_0-0_
  6
CONTINUOUS
 62
    2
 10
1475.9899541434502
 20
182.84391035332021
 11
1477.164023786157
 21
182.05771745516529
  0
LINE
  8
_0-0_
  6
CONTINUOUS
 62
    2
 10
1477.164023786157
 20
182.05771745516529
 11
1478.2504050420187
 21
181.21223289763122
  0
LINE
  8
_0-0_
  6
CONTINUOUS
 62
    2
 10
1478.2504050420187
 20
181.21223289763122
 11
1479.2246039482293
 21
180.2908947646921
  0
LINE
  8
_0-0_
  6
CONTINUOUS
 62
    2
 10
1479.2246039482293
 20
180.2908947646921
 11
1479.7285854661895
 21
179.71523628320085
  0
LINE
  8
_0-0_
  6
CONTINUOUS
 62
    2
 10
1479.7285854661895
 20
179.71523628320085
 11
1480.4480718385194
 21
178.69989098545545
  0
LINE
  8
_0-0_
  6
CONTINUOUS
 62
    2
 10
1480.4480718385194
 20
178.69989098545545
 11
1481.4026275460756
 21
176.75811149029926
  0
LINE
  8
_0-0_
  6
CONTINUOUS
 62
    2
 10
1481.4026275460756
 20
176.75811149029926
 11
1482.0469952799201
 21
174.61258492089144
  0
LINE
  8
_0-0_
  6
CONTINUOUS
 62
    2
 10
1482.0469952799201
 20
174.61258492089144
 11
1482.4413598186936
 21
172.30779753798288
  0
LINE
  8
_0-0_
  6
CONTINUOUS
 62
    2
 10
1482.4413598186936
 20
172.30779753798288
 11
1482.6459059410372
 21
169.88823560233072
  0
LINE
  8
_0-0_
  6
CONTINUOUS
 62
    2
 10
1482.6459059410372
 20
169.88823560233072
 11
1482.720818425591
 21
167.39838537468643
  0
LINE
  8
_0-0_
  6
CONTINUOUS
 62
    2
 10
1482.720818425591
 20
167.39838537468643
 11
1482.7285854661895
 21
165.93959604728468
  0
LINE
  8
_0-0_
  6
CONTINUOUS
 62
    2
 10
1482.7285854661895
 20
165.93959604728468
 11
1482.720818425591
 21
164.4808067198835
  0
LINE
  8
_0-0_
  6
CONTINUOUS
 62
    2
 10
1482.720818425591
 20
164.4808067198835
 11
1482.6459059410372
 21
161.99095649223921
  0
LINE
  8
_0-0_
  6
CONTINUOUS
 62
    2
 10
1482.6459059410372
 20
161.99095649223921
 11
1482.4413598186936
 21
159.57139455658762
  0
LINE
  8
_0-0_
  6
CONTINUOUS
 62
    2
 10
1482.4413598186936
 20
159.57139455658762
 11
1482.0469952799201
 21
157.26660717367906
  0
LINE
  8
_0-0_
  6
CONTINUOUS
 62
    2
 10
1482.0469952799201
 20
157.26660717367906
 11
1481.4026275460756
 21
155.12108060426954
  0
LINE
  8
_0-0_
  6
CONTINUOUS
 62
    2
 10
1481.4026275460756
 20
155.12108060426954
 11
1480.4480718385194
 21
153.17930110911391
  0
LINE
  8
_0-0_
  6
CONTINUOUS
 62
    2
 10
1480.4480718385194
 20
153.17930110911391
 11
1479.7285854661895
 21
152.16395581136794
  0
LINE
  8
_0-0_
  6
CONTINUOUS
 62
    2
 10
1479.7285854661895
 20
152.16395581136794
 11
1479.2246039482293
 21
151.5882973298784
  0
LINE
  8
_0-0_
  6
CONTINUOUS
 62
    2
 10
1479.2246039482293
 20
151.5882973298784
 11
1478.2504050420187
 21
150.66695919693927
  0
LINE
  8
_0-0_
  6
CONTINUOUS
 62
    2
 10
1478.2504050420187
 20
150.66695919693927
 11
1477.164023786157
 21
149.82147463940407
  0
LINE
  8
_0-0_
  6
CONTINUOUS
 62
    2
 10
1477.164023786157
 20
149.82147463940407
 11
1475.9899541434502
 21
149.03528174124915
  0
LINE
  8
_0-0_
  6
CONTINUOUS
 62
    2
 10
1475.9899541434502
 20
149.03528174124915
 11
1474.7526900767029
 21
148.29181858644404
  0
LINE
  8
_0-0_
  6
CONTINUOUS
 62
    2
 10
1474.7526900767029
 20
148.29181858644404
 11
1473.4767255487232
 21
147.57452325896224
  0
LINE
  8
_0-0_
  6
CONTINUOUS
 62
    2
 10
1473.4767255487232
 20
147.57452325896224
 11
1472.7285854661895
 21
147.16395581136794
  0
LINE
  8
_0-0_
  6
CONTINUOUS
 62
    2
 10
1472.7285854661895
 20
137.16395581136794
 11
1473.3834727314331
 21
137.33349386091561
  0
LINE
  8
_0-0_
  6
CONTINUOUS
 62
    2
 10
1473.3834727314331
 20
137.33349386091561
 11
1474.5132463860327
 21
137.62873806782579
  0
LINE
  8
_0-0_
  6
CONTINUOUS
 62
    2
 10
1474.5132463860327
 20
137.62873806782579
 11
1475.6448469296361
 21
137.93214123288578
  0
LINE
  8
_0-0_
  6
CONTINUOUS
 62
    2
 10
1475.6448469296361
 20
137.93214123288578
 11
1476.7794306211063
 21
138.24886725365559
  0
LINE
  8
_0-0_
  6
CONTINUOUS
 62
    2
 10
1476.7794306211063
 20
138.24886725365559
 11
1477.9181537193058
 21
138.58408002769409
  0
LINE
  8
_0-0_
  6
CONTINUOUS
 62
    2
 10
1477.9181537193058
 20
138.58408002769409
 11
1479.0621724830978
 21
138.9429434525681
  0
LINE
  8
_0-0_
  6
CONTINUOUS
 62
    2
 10
1479.0621724830978
 20
138.9429434525681
 11
1479.7285854661895
 21
139.16395581136783
  0
LINE
  8
_0-0_
  6
CONTINUOUS
 62
    2
 10
1479.7285854661895
 20
139.16395581136783
 11
1481.0536278591226
 21
139.63378314317424
  0
LINE
  8
_0-0_
  6
CONTINUOUS
 62
    2
 10
1481.0536278591226
 20
139.63378314317424
 11
1483.3226537700955
 21
140.55518857610366
  0
LINE
  8
_0-0_
  6
CONTINUOUS
 62
    2
 10
1483.3226537700955
 20
140.55518857610366
 11
1485.5151530539515
 21
141.636810935467
  0
LINE
  8
_0-0_
  6
CONTINUOUS
 62
    2
 10
1485.5151530539515
 20
141.636810935467
 11
1487.5649995751119
 21
142.90104212994493
  0
LINE
  8
_0-0_
  6
CONTINUOUS
 62
    2
 10
1487.5649995751119
 20
142.90104212994493
 11
1489.4060671979987
 21
144.37027406821926
  0
LINE
  8
_0-0_
  6
CONTINUOUS
 62
    2
 10
1489.4060671979987
 20
144.37027406821926
 11
1490.9722297870358
 21
146.06689865896897
  0
LINE
  8
_0-0_
  6
CONTINUOUS
 62
    2
 10
1490.9722297870358
 20
146.06689865896897
 11
1491.7285854661893
 21
147.16395581136794
  0
LINE
  8
_0-0_
  6
CONTINUOUS
 62
    2
 10
1491.7285854661893
 20
147.16395581136794
 11
1491.9792904736582
 21
147.59580204159704
  0
LINE
  8
_0-0_
  6
CONTINUOUS
 62
    2
 10
1491.9792904736582
 20
147.59580204159704
 11
1492.3733834384079
 21
148.36612312496584
  0
LINE
  8
_0-0_
  6
CONTINUOUS
 62
    2
 10
1492.3733834384079
 20
148.36612312496584
 11
1492.7246646585077
 21
149.16423570451684
  0
LINE
  8
_0-0_
  6
CONTINUOUS
 62
    2
 10
1492.7246646585077
 20
149.16423570451684
 11
1493.0395158970609
 21
149.98454170037064
  0
LINE
  8
_0-0_
  6
CONTINUOUS
 62
    2
 10
1493.0395158970609
 20
149.98454170037064
 11
1493.3243189171708
 21
150.82144303264954
  0
LINE
  8
_0-0_
  6
CONTINUOUS
 62
    2
 10
1493.3243189171708
 20
150.82144303264954
 11
1493.585455481943
 21
151.66934162147356
  0
LINE
  8
_0-0_
  6
CONTINUOUS
 62
    2
 10
1493.585455481943
 20
151.66934162147356
 11
1493.7285854661895
 21
152.16395581136794
  0
LINE
  8
_0-0_
  6
CONTINUOUS
 62
    2
 10
1493.7285854661895
 20
152.16395581136794
 11
1494.0767371155894
 21
153.44622912301872
  0
LINE
  8
_0-0_
  6
CONTINUOUS
 62
    2
 10
1494.0767371155894
 20
153.44622912301872
 11
1494.6032692476097
 21
155.66707817695317
  0
LINE
  8
_0-0_
  6
CONTINUOUS
 62
    2
 10
1494.6032692476097
 20
155.66707817695317
 11
1495.0334040794346
 21
157.8986195096229
  0
LINE
  8
_0-0_
  6
CONTINUOUS
 62
    2
 10
1495.0334040794346
 20
157.8986195096229
 11
1495.3635729700623
 21
160.13851856235192
  0
LINE
  8
_0-0_
  6
CONTINUOUS
 62
    2
 10
1495.3635729700623
 20
160.13851856235192
 11
1495.5902072784963
 21
162.3844407764642
  0
LINE
  8
_0-0_
  6
CONTINUOUS
 62
    2
 10
1495.5902072784963
 20
162.3844407764642
 11
1495.709738363739
 21
164.63405159328431
  0
LINE
  8
_0-0_
  6
CONTINUOUS
 62
    2
 10
1495.709738363739
 20
164.63405159328431
 11
1495.7285854661893
 21
165.93959604728468
  0
LINE
  8
_0-0_
  6
CONTINUOUS
 62
    2
 10
1495.7285854661893
 20
165.93959604728468
 11
1495.709738363739
 21
167.24514050128562
  0
LINE
  8
_0-0_
  6
CONTINUOUS
 62
    2
 10
1495.709738363739
 20
167.24514050128562
 11
1495.5902072784963
 21
169.49475131810516
  0
LINE
  8
_0-0_
  6
CONTINUOUS
 62
    2
 10
1495.5902072784963
 20
169.49475131810516
 11
1495.3635729700623
 21
171.74067353221631
  0
LINE
  8
_0-0_
  6
CONTINUOUS
 62
    2
 10
1495.3635729700623
 20
171.74067353221631
 11
1495.0334040794346
 21
173.98057258494532
  0
LINE
  8
_0-0_
  6
CONTINUOUS
 62
    2
 10
1495.0334040794346
 20
173.98057258494532
 11
1494.6032692476097
 21
176.21211391761619
  0
LINE
  8
_0-0_
  6
CONTINUOUS
 62
    2
 10
1494.6032692476097
 20
176.21211391761619
 11
1494.0767371155894
 21
178.43296297155007
  0
LINE
  8
_0-0_
  6
CONTINUOUS
 62
    2
 10
1494.0767371155894
 20
178.43296297155007
 11
1493.7285854661895
 21
179.71523628320085
  0
LINE
  8
_0-0_
  6
CONTINUOUS
 62
    2
 10
1493.7285854661895
 20
179.71523628320085
 11
1493.585455481943
 21
180.2098504730958
  0
LINE
  8
_0-0_
  6
CONTINUOUS
 62
    2
 10
1493.585455481943
 20
180.2098504730958
 11
1493.3243189171708
 21
181.05774906191868
  0
LINE
  8
_0-0_
  6
CONTINUOUS
 62
    2
 10
1493.3243189171708
 20
181.05774906191868
 11
1493.0395158970609
 21
181.89465039419758
  0
LINE
  8
_0-0_
  6
CONTINUOUS
 62
    2
 10
1493.0395158970609
 20
181.89465039419758
 11
1492.7246646585077
 21
182.71495639005309
  0
LINE
  8
_0-0_
  6
CONTINUOUS
 62
    2
 10
1492.7246646585077
 20
182.71495639005309
 11
1492.3733834384079
 21
183.51306896960352
  0
LINE
  8
_0-0_
  6
CONTINUOUS
 62
    2
 10
1492.3733834384079
 20
183.51306896960352
 11
1491.9792904736582
 21
184.28339005297119
  0
LINE
  8
_0-0_
  6
CONTINUOUS
 62
    2
 10
1491.9792904736582
 20
184.28339005297119
 11
1491.7285854661893
 21
184.71523628320085
  0
LINE
  8
_0-0_
  6
CONTINUOUS
 62
    2
 10
1491.7285854661893
 20
184.71523628320085
 11
1490.9722297870358
 21
185.81229343560096
  0
LINE
  8
_0-0_
  6
CONTINUOUS
 62
    2
 10
1490.9722297870358
 20
185.81229343560096
 11
1489.4060671979987
 21
187.50891802635067
  0
LINE
  8
_0-0_
  6
CONTINUOUS
 62
    2
 10
1489.4060671979987
 20
187.50891802635067
 11
1487.5649995751119
 21
188.97814996462387
  0
LINE
  8
_0-0_
  6
CONTINUOUS
 62
    2
 10
1487.5649995751119
 20
188.97814996462387
 11
1485.5151530539515
 21
190.24238115910123
  0
LINE
  8
_0-0_
  6
CONTINUOUS
 62
    2
 10
1485.5151530539515
 20
190.24238115910123
 11
1483.3226537700955
 21
191.32400351846513
  0
LINE
  8
_0-0_
  6
CONTINUOUS
 62
    2
 10
1483.3226537700955
 20
191.32400351846513
 11
1481.0536278591226
 21
192.24540895139455
  0
LINE
  8
_0-0_
  6
CONTINUOUS
 62
    2
 10
1481.0536278591226
 20
192.24540895139455
 11
1479.7285854661895
 21
192.71523628320097
  0
LINE
  8
_0-0_
  6
CONTINUOUS
 62
    2
 10
1479.7285854661895
 20
192.71523628320097
 11
1479.0621724830978
 21
192.93624864200012
  0
LINE
  8
_0-0_
  6
CONTINUOUS
 62
    2
 10
1479.0621724830978
 20
192.93624864200012
 11
1477.9181537193058
 21
193.29511206687528
  0
LINE
  8
_0-0_
  6
CONTINUOUS
 62
    2
 10
1477.9181537193058
 20
193.29511206687528
 11
1476.7794306211063
 21
193.63032484091491
  0
LINE
  8
_0-0_
  6
CONTINUOUS
 62
    2
 10
1476.7794306211063
 20
193.63032484091491
 11
1475.6448469296361
 21
193.94705086168301
  0
LINE
  8
_0-0_
  6
CONTINUOUS
 62
    2
 10
1475.6448469296361
 20
193.94705086168301
 11
1474.5132463860327
 21
194.25045402674243
  0
LINE
  8
_0-0_
  6
CONTINUOUS
 62
    2
 10
1474.5132463860327
 20
194.25045402674243
 11
1473.3834727314331
 21
194.54569823365262
  0
LINE
  8
_0-0_
  6
CONTINUOUS
 62
    2
 10
1473.3834727314331
 20
194.54569823365262
 11
1472.7285854661895
 21
194.71523628320085
  0
LINE
  8
_0-0_
  6
CONTINUOUS
 62
    2
 10
1508.7285854661898
 20
194.71523628320085
 11
1529.0651882868312
 21
151.10325079467998
  0
LINE
  8
_0-0_
  6
CONTINUOUS
 62
    2
 10
1549.4017911074732
 20
194.71523628320085
 11
1529.0651882868312
 21
151.10325079467998
  0
LINE
  8
_0-0_
  6
CONTINUOUS
 62
    2
 10
1495.7285854661893
 20
194.71523628320085
 11
1522.5651882868315
 21
137.16395581136794
  0
LINE
  8
_0-0_
  6
CONTINUOUS
 62
    2
 10
1535.5651882868315
 20
137.16395581136794
 11
1562.4017911074729
 21
194.71523628320085
  0
LINE
  8
_0-0_
  6
CONTINUOUS
 62
    2
 10
1572.4017911074734
 20
194.71523628320085
 11
1545.5651882868312
 21
137.16395581136794
  0
LINE
  8
_0-0_
  6
CONTINUOUS
 62
    2
 10
1585.7561307119427
 20
194.71523628320085
 11
1612.5927335325841
 21
137.16395581136794
  0
LINE
  8
_0-0_
  6
CONTINUOUS
 62
    2
 10
1386.525254310611
 20
150.16395581136862
 11
1413.9740571621658
 21
150.16395581136862
  0
LINE
  8
_0-0_
  6
CONTINUOUS
 62
    2
 10
1564.6271878428465
 20
150.16395581136862
 11
1593.5307339765698
 21
150.16395581136862
  0
LINE
  8
_0-0_
  6
CONTINUOUS
 62
    2
 10
1569.2902644243966
 20
160.16395581136806
 11
1588.8676573950193
 21
160.16395581136806
  0
LINE
  8
_0-0_
  6
CONTINUOUS
 62
    2
 10
1631.3582181464142
 20
184.71523628320085
 11
1661.0715559573075
 21
137.16395581136794
  0
LINE
  8
_0-0_
  6
CONTINUOUS
 62
    2
 10
1667.1458119226625
 20
148.20099331457641
 11
1667.1458119226625
 21
194.71523628320085
  0
LINE
  8
_0-0_
  6
CONTINUOUS
 62
    2
 10
1678.1458119226627
 20
137.16395581136794
 11
1678.1458119226627
 21
194.71523628320085
  0
LINE
  8
_0-0_
  6
CONTINUOUS
 62
    2
 10
1638.0804870643046
 20
194.71523628320085
 11
1667.1458119226625
 21
148.20099331457641
  0
LINE
  8
_0-0_
  6
CONTINUOUS
 62
    2
 10
1618.3582181464144
 20
194.71523628320085
 11
1618.3582181464144
 21
137.16395581136794
  0
LINE
  8
_0-0_
  6
CONTINUOUS
 62
    2
 10
1472.7285854661895
 20
184.71523628320085
 11
1452.7285854661895
 21
184.71523628320085
  0
LINE
  8
_0-0_
  6
CONTINUOUS
 62
    2
 10
1452.7285854661895
 20
147.16395581136794
 11
1472.7285854661895
 21
147.16395581136794
  0
LINE
  8
_0-0_
  6
CONTINUOUS
 62
    2
 10
1588.8676573950193
 20
160.16395581136806
 11
1579.0789609097078
 21
181.15588316688672
  0
LINE
  8
_0-0_
  6
CONTINUOUS
 62
    2
 10
1569.2902644243966
 20
160.16395581136806
 11
1579.0789609097078
 21
181.15588316688672
  0
LINE
  8
_0-0_
  6
CONTINUOUS
 62
    2
 10
1558.5651882868317
 20
137.16395581136794
 11
1564.6271878428465
 21
150.16395581136862
  0
LINE
  8
_0-0_
  6
CONTINUOUS
 62
    2
 10
1599.5927335325846
 20
137.16395581136794
 11
1593.5307339765698
 21
150.16395581136862
  0
LINE
  8
_0-0_
  6
CONTINUOUS
 62
    2
 10
1631.3582181464142
 20
184.71523628320085
 11
1631.3582181464142
 21
137.16395581136794
  0
LINE
  8
_0-0_
  6
CONTINUOUS
 62
    2
 10
1367.4632547545959
 20
137.16395581136794
 11
1380.4632547545962
 21
137.16395581136794
  0
LINE
  8
_0-0_
  6
CONTINUOUS
 62
    2
 10
1420.0360567181813
 20
137.16395581136794
 11
1433.0360567181808
 21
137.16395581136794
  0
LINE
  8
_0-0_
  6
CONTINUOUS
 62
    2
 10
1406.1994538975396
 20
194.71523628320085
 11
1433.0360567181808
 21
137.16395581136794
  0
LINE
  8
_0-0_
  6
CONTINUOUS
 62
    2
 10
1406.1994538975396
 20
194.71523628320085
 11
1394.2998575752379
 21
194.71523628320085
  0
LINE
  8
_0-0_
  6
CONTINUOUS
 62
    2
 10
1439.72858546619
 20
194.71523628320085
 11
1439.72858546619
 21
137.16395581136794
  0
LINE
  8
_0-0_
  6
CONTINUOUS
 62
    2
 10
1452.7285854661895
 20
184.71523628320085
 11
1452.7285854661895
 21
147.16395581136794
  0
LINE
  8
_0-0_
  6
CONTINUOUS
 62
    2
 10
1439.72858546619
 20
137.16395581136794
 11
1472.7285854661895
 21
137.16395581136794
  0
LINE
  8
_0-0_
  6
CONTINUOUS
 62
    2
 10
1472.7285854661895
 20
194.71523628320085
 11
1439.72858546619
 21
194.71523628320085
  0
LINE
  8
_0-0_
  6
CONTINUOUS
 62
    2
 10
1508.7285854661898
 20
194.71523628320085
 11
1495.7285854661893
 21
194.71523628320085
  0
LINE
  8
_0-0_
  6
CONTINUOUS
 62
    2
 10
1522.5651882868315
 20
137.16395581136794
 11
1535.5651882868315
 21
137.16395581136794
  0
LINE
  8
_0-0_
  6
CONTINUOUS
 62
    2
 10
1562.4017911074729
 20
194.71523628320085
 11
1549.4017911074732
 21
194.71523628320085
  0
LINE
  8
_0-0_
  6
CONTINUOUS
 62
    2
 10
1545.5651882868312
 20
137.16395581136794
 11
1558.5651882868317
 21
137.16395581136794
  0
LINE
  8
_0-0_
  6
CONTINUOUS
 62
    2
 10
1599.5927335325846
 20
137.16395581136794
 11
1612.5927335325841
 21
137.16395581136794
  0
LINE
  8
_0-0_
  6
CONTINUOUS
 62
    2
 10
1618.3582181464144
 20
137.16395581136794
 11
1631.3582181464142
 21
137.16395581136794
  0
LINE
  8
_0-0_
  6
CONTINUOUS
 62
    2
 10
1661.0715559573075
 20
137.16395581136794
 11
1678.1458119226627
 21
137.16395581136794
  0
LINE
  8
_0-0_
  6
CONTINUOUS
 62
    2
 10
1678.1458119226627
 20
194.71523628320085
 11
1667.1458119226625
 21
194.71523628320085
  0
LINE
  8
_0-0_
  6
CONTINUOUS
 62
    2
 10
1638.0804870643046
 20
194.71523628320085
 11
1618.3582181464144
 21
194.71523628320085
  0
LINE
  8
_0-0_
  6
CONTINUOUS
 62
    2
 10
1585.7561307119427
 20
194.71523628320085
 11
1572.4017911074734
 21
194.71523628320085
  0
LINE
  8
_0-0_
  6
CONTINUOUS
 62
    2
 10
1368.1866287185576
 20
138.71523628320062
 11
1381.1866287185578
 21
138.71523628320062
  0
LINE
  8
_0-0_
  6
CONTINUOUS
 62
    2
 10
1419.3126827542196
 20
138.71523628320062
 11
1432.3126827542192
 21
138.71523628320062
  0
LINE
  8
_0-0_
  6
CONTINUOUS
 62
    2
 10
1439.72858546619
 20
138.71523628320062
 11
1478.3362660341538
 21
138.71523628320062
  0
LINE
  8
_0-0_
  6
CONTINUOUS
 62
    2
 10
1521.8418143228698
 20
138.71523628320062
 11
1536.2885622507931
 21
138.71523628320062
  0
LINE
  8
_0-0_
  6
CONTINUOUS
 62
    2
 10
1546.2885622507938
 20
138.71523628320062
 11
1559.2885622507933
 21
138.71523628320062
  0
LINE
  8
_0-0_
  6
CONTINUOUS
 62
    2
 10
1598.8693595686229
 20
138.71523628320062
 11
1611.8693595686225
 21
138.71523628320062
  0
LINE
  8
_0-0_
  6
CONTINUOUS
 62
    2
 10
1618.3582181464144
 20
138.71523628320062
 11
1631.3582181464142
 21
138.71523628320062
  0
LINE
  8
_0-0_
  6
CONTINUOUS
 62
    2
 10
1660.1022083342436
 20
138.71523628320062
 11
1678.1458119226627
 21
138.71523628320062
  0
LINE
  8
_0-0_
  6
CONTINUOUS
 62
    2
 10
1369.1192440348677
 20
140.71523628320108
 11
1382.119244034868
 21
140.71523628320108
  0
LINE
  8
_0-0_
  6
CONTINUOUS
 62
    2
 10
1418.3800674379095
 20
140.71523628320108
 11
1431.380067437909
 21
140.71523628320108
  0
LINE
  8
_0-0_
  6
CONTINUOUS
 62
    2
 10
1439.72858546619
 20
140.71523628320108
 11
1483.6470779835518
 21
140.71523628320108
  0
LINE
  8
_0-0_
  6
CONTINUOUS
 62
    2
 10
1520.9091990065597
 20
140.71523628320108
 11
1537.2211775671033
 21
140.71523628320108
  0
LINE
  8
_0-0_
  6
CONTINUOUS
 62
    2
 10
1547.221177567103
 20
140.71523628320108
 11
1560.2211775671035
 21
140.71523628320108
  0
LINE
  8
_0-0_
  6
CONTINUOUS
 62
    2
 10
1597.9367442523128
 20
140.71523628320108
 11
1610.9367442523123
 21
140.71523628320108
  0
LINE
  8
_0-0_
  6
CONTINUOUS
 62
    2
 10
1618.3582181464144
 20
140.71523628320108
 11
1631.3582181464142
 21
140.71523628320108
  0
LINE
  8
_0-0_
  6
CONTINUOUS
 62
    2
 10
1658.8524696304253
 20
140.71523628320108
 11
1678.1458119226627
 21
140.71523628320108
  0
LINE
  8
_0-0_
  6
CONTINUOUS
 62
    2
 10
1370.0518593511779
 20
142.71523628320097
 11
1383.0518593511781
 21
142.71523628320097
  0
LINE
  8
_0-0_
  6
CONTINUOUS
 62
    2
 10
1417.4474521215993
 20
142.71523628320097
 11
1430.4474521215989
 21
142.71523628320097
  0
LINE
  8
_0-0_
  6
CONTINUOUS
 62
    2
 10
1439.72858546619
 20
142.71523628320097
 11
1487.2637307326543
 21
142.71523628320097
  0
LINE
  8
_0-0_
  6
CONTINUOUS
 62
    2
 10
1519.9765836902495
 20
142.71523628320097
 11
1538.1537928834134
 21
142.71523628320097
  0
LINE
  8
_0-0_
  6
CONTINUOUS
 62
    2
 10
1548.1537928834132
 20
142.71523628320097
 11
1561.1537928834136
 21
142.71523628320097
  0
LINE
  8
_0-0_
  6
CONTINUOUS
 62
    2
 10
1597.0041289360026
 20
142.71523628320097
 11
1610.0041289360022
 21
142.71523628320097
  0
LINE
  8
_0-0_
  6
CONTINUOUS
 62
    2
 10
1618.3582181464144
 20
142.71523628320097
 11
1631.3582181464142
 21
142.71523628320097
  0
LINE
  8
_0-0_
  6
CONTINUOUS
 62
    2
 10
1657.6027309266065
 20
142.71523628320097
 11
1678.1458119226627
 21
142.71523628320097
  0
LINE
  8
_0-0_
  6
CONTINUOUS
 62
    2
 10
1370.9844746674876
 20
144.71523628320142
 11
1383.9844746674883
 21
144.71523628320142
  0
LINE
  8
_0-0_
  6
CONTINUOUS
 62
    2
 10
1416.5148368052892
 20
144.71523628320142
 11
1429.5148368052892
 21
144.71523628320142
  0
LINE
  8
_0-0_
  6
CONTINUOUS
 62
    2
 10
1439.72858546619
 20
144.71523628320142
 11
1489.72450353252
 21
144.71523628320142
  0
LINE
  8
_0-0_
  6
CONTINUOUS
 62
    2
 10
1519.0439683739394
 20
144.71523628320142
 11
1539.0864081997231
 21
144.71523628320142
  0
LINE
  8
_0-0_
  6
CONTINUOUS
 62
    2
 10
1549.0864081997231
 20
144.71523628320142
 11
1562.0864081997229
 21
144.71523628320142
  0
LINE
  8
_0-0_
  6
CONTINUOUS
 62
    2
 10
1596.0715136196925
 20
144.71523628320142
 11
1609.0715136196923
 21
144.71523628320142
  0
LINE
  8
_0-0_
  6
CONTINUOUS
 62
    2
 10
1618.3582181464144
 20
144.71523628320142
 11
1631.3582181464142
 21
144.71523628320142
  0
LINE
  8
_0-0_
  6
CONTINUOUS
 62
    2
 10
1656.3529922227881
 20
144.71523628320142
 11
1678.1458119226627
 21
144.71523628320142
  0
LINE
  8
_0-0_
  6
CONTINUOUS
 62
    2
 10
1371.9170899837977
 20
146.71523628320074
 11
1384.9170899837977
 21
146.71523628320074
  0
LINE
  8
_0-0_
  6
CONTINUOUS
 62
    2
 10
1415.582221488979
 20
146.71523628320074
 11
1428.582221488979
 21
146.71523628320074
  0
LINE
  8
_0-0_
  6
CONTINUOUS
 62
    2
 10
1439.72858546619
 20
146.71523628320074
 11
1491.4192200309114
 21
146.71523628320074
  0
LINE
  8
_0-0_
  6
CONTINUOUS
 62
    2
 10
1518.1113530576297
 20
146.71523628320074
 11
1540.0190235160333
 21
146.71523628320074
  0
LINE
  8
_0-0_
  6
CONTINUOUS
 62
    2
 10
1550.0190235160333
 20
146.71523628320074
 11
1563.019023516033
 21
146.71523628320074
  0
LINE
  8
_0-0_
  6
CONTINUOUS
 62
    2
 10
1595.1388983033823
 20
146.71523628320074
 11
1608.138898303383
 21
146.71523628320074
  0
LINE
  8
_0-0_
  6
CONTINUOUS
 62
    2
 10
1618.3582181464144
 20
146.71523628320074
 11
1631.3582181464142
 21
146.71523628320074
  0
LINE
  8
_0-0_
  6
CONTINUOUS
 62
    2
 10
1655.103253518969
 20
146.71523628320074
 11
1678.1458119226627
 21
146.71523628320074
  0
LINE
  8
_0-0_
  6
CONTINUOUS
 62
    2
 10
1372.8497053001079
 20
148.71523628320006
 11
1385.8497053001079
 21
148.71523628320006
  0
LINE
  8
_0-0_
  6
CONTINUOUS
 62
    2
 10
1414.6496061726689
 20
148.71523628320006
 11
1427.6496061726696
 21
148.71523628320006
  0
LINE
  8
_0-0_
  6
CONTINUOUS
 62
    2
 10
1439.72858546619
 20
148.71523628320006
 11
1452.7285854661895
 21
148.71523628320006
  0
LINE
  8
_0-0_
  6
CONTINUOUS
 62
    2
 10
1475.4573376413284
 20
148.71523628320006
 11
1492.5270420817126
 21
148.71523628320006
  0
LINE
  8
_0-0_
  6
CONTINUOUS
 62
    2
 10
1517.1787377413195
 20
148.71523628320006
 11
1540.9516388323434
 21
148.71523628320006
  0
LINE
  8
_0-0_
  6
CONTINUOUS
 62
    2
 10
1550.9516388323434
 20
148.71523628320006
 11
1563.9516388323432
 21
148.71523628320006
  0
LINE
  8
_0-0_
  6
CONTINUOUS
 62
    2
 10
1594.2062829870724
 20
148.71523628320006
 11
1607.2062829870729
 21
148.71523628320006
  0
LINE
  8
_0-0_
  6
CONTINUOUS
 62
    2
 10
1618.3582181464144
 20
148.71523628320006
 11
1631.3582181464142
 21
148.71523628320006
  0
LINE
  8
_0-0_
  6
CONTINUOUS
 62
    2
 10
1653.8535148151502
 20
148.71523628320006
 11
1666.8244772521334
 21
148.71523628320006
  0
LINE
  8
_0-0_
  6
CONTINUOUS
 62
    2
 10
1667.1458119226625
 20
148.71523628320006
 11
1678.1458119226627
 21
148.71523628320006
  0
LINE
  8
_0-0_
  6
CONTINUOUS
 62
    2
 10
1373.782320616418
 20
150.71523628320108
 11
1426.7169908563594
 21
150.71523628320108
  0
LINE
  8
_0-0_
  6
CONTINUOUS
 62
    2
 10
1439.72858546619
 20
150.71523628320108
 11
1452.7285854661895
 21
150.71523628320108
  0
LINE
  8
_0-0_
  6
CONTINUOUS
 62
    2
 10
1478.3014519735966
 20
150.71523628320108
 11
1493.2881760627718
 21
150.71523628320108
  0
LINE
  8
_0-0_
  6
CONTINUOUS
 62
    2
 10
1516.2461224250094
 20
150.71523628320108
 11
1541.8842541486536
 21
150.71523628320108
  0
LINE
  8
_0-0_
  6
CONTINUOUS
 62
    2
 10
1551.8842541486536
 20
150.71523628320108
 11
1606.2736676707627
 21
150.71523628320108
  0
LINE
  8
_0-0_
  6
CONTINUOUS
 62
    2
 10
1618.3582181464144
 20
150.71523628320108
 11
1631.3582181464142
 21
150.71523628320108
  0
LINE
  8
_0-0_
  6
CONTINUOUS
 62
    2
 10
1652.6037761113316
 20
150.71523628320108
 11
1665.5747385483151
 21
150.71523628320108
  0
LINE
  8
_0-0_
  6
CONTINUOUS
 62
    2
 10
1667.1458119226625
 20
150.71523628320108
 11
1678.1458119226627
 21
150.71523628320108
  0
LINE
  8
_0-0_
  6
CONTINUOUS
 62
    2
 10
1374.7149359327282
 20
152.71523628320153
 11
1425.7843755400493
 21
152.71523628320153
  0
LINE
  8
_0-0_
  6
CONTINUOUS
 62
    2
 10
1439.72858546619
 20
152.71523628320153
 11
1452.7285854661895
 21
152.71523628320153
  0
LINE
  8
_0-0_
  6
CONTINUOUS
 62
    2
 10
1480.1192297009104
 20
152.71523628320153
 11
1493.8782643246723
 21
152.71523628320153
  0
LINE
  8
_0-0_
  6
CONTINUOUS
 62
    2
 10
1515.3135071086995
 20
152.71523628320153
 11
1528.313507108699
 21
152.71523628320153
  0
LINE
  8
_0-0_
  6
CONTINUOUS
 62
    2
 10
1529.8168694649632
 20
152.71523628320153
 11
1542.8168694649637
 21
152.71523628320153
  0
LINE
  8
_0-0_
  6
CONTINUOUS
 62
    2
 10
1552.8168694649637
 20
152.71523628320153
 11
1605.3410523544526
 21
152.71523628320153
  0
LINE
  8
_0-0_
  6
CONTINUOUS
 62
    2
 10
1618.3582181464144
 20
152.71523628320153
 11
1631.3582181464142
 21
152.71523628320153
  0
LINE
  8
_0-0_
  6
CONTINUOUS
 62
    2
 10
1651.3540374075135
 20
152.71523628320153
 11
1664.3249998444958
 21
152.71523628320153
  0
LINE
  8
_0-0_
  6
CONTINUOUS
 62
    2
 10
1667.1458119226625
 20
152.71523628320153
 11
1678.1458119226627
 21
152.71523628320153
  0
LINE
  8
_0-0_
  6
CONTINUOUS
 62
    2
 10
1375.6475512490383
 20
154.71523628320142
 11
1424.8517602237391
 21
154.71523628320142
  0
LINE
  8
_0-0_
  6
CONTINUOUS
 62
    2
 10
1439.72858546619
 20
154.71523628320142
 11
1452.7285854661895
 21
154.71523628320142
  0
LINE
  8
_0-0_
  6
CONTINUOUS
 62
    2
 10
1481.2031193042685
 20
154.71523628320142
 11
1494.3776008975815
 21
154.71523628320142
  0
LINE
  8
_0-0_
  6
CONTINUOUS
 62
    2
 10
1514.3808917923893
 20
154.71523628320142
 11
1527.3808917923889
 21
154.71523628320142
  0
LINE
  8
_0-0_
  6
CONTINUOUS
 62
    2
 10
1530.7494847812732
 20
154.71523628320142
 11
1543.7494847812729
 21
154.71523628320142
  0
LINE
  8
_0-0_
  6
CONTINUOUS
 62
    2
 10
1553.7494847812732
 20
154.71523628320142
 11
1604.4084370381424
 21
154.71523628320142
  0
LINE
  8
_0-0_
  6
CONTINUOUS
 62
    2
 10
1618.3582181464144
 20
154.71523628320142
 11
1631.3582181464142
 21
154.71523628320142
  0
LINE
  8
_0-0_
  6
CONTINUOUS
 62
    2
 10
1650.1042987036944
 20
154.71523628320142
 11
1663.0752611406776
 21
154.71523628320142
  0
LINE
  8
_0-0_
  6
CONTINUOUS
 62
    2
 10
1667.1458119226625
 20
154.71523628320142
 11
1678.1458119226627
 21
154.71523628320142
  0
LINE
  8
_0-0_
  6
CONTINUOUS
 62
    2
 10
1376.5801665653478
 20
156.71523628320074
 11
1423.919144907429
 21
156.71523628320074
  0
LINE
  8
_0-0_
  6
CONTINUOUS
 62
    2
 10
1439.72858546619
 20
156.71523628320074
 11
1452.7285854661895
 21
156.71523628320074
  0
LINE
  8
_0-0_
  6
CONTINUOUS
 62
    2
 10
1481.8814016134183
 20
156.71523628320074
 11
1494.805304183802
 21
156.71523628320074
  0
LINE
  8
_0-0_
  6
CONTINUOUS
 62
    2
 10
1513.4482764760792
 20
156.71523628320074
 11
1526.4482764760796
 21
156.71523628320074
  0
LINE
  8
_0-0_
  6
CONTINUOUS
 62
    2
 10
1531.6821000975833
 20
156.71523628320074
 11
1544.6821000975831
 21
156.71523628320074
  0
LINE
  8
_0-0_
  6
CONTINUOUS
 62
    2
 10
1554.6821000975833
 20
156.71523628320074
 11
1603.4758217218323
 21
156.71523628320074
  0
LINE
  8
_0-0_
  6
CONTINUOUS
 62
    2
 10
1618.3582181464144
 20
156.71523628320074
 11
1631.3582181464142
 21
156.71523628320074
  0
LINE
  8
_0-0_
  6
CONTINUOUS
 62
    2
 10
1648.8545599998758
 20
156.71523628320074
 11
1661.8255224368588
 21
156.71523628320074
  0
LINE
  8
_0-0_
  6
CONTINUOUS
 62
    2
 10
1667.1458119226625
 20
156.71523628320074
 11
1678.1458119226627
 21
156.71523628320074
  0
LINE
  8
_0-0_
  6
CONTINUOUS
 62
    2
 10
1377.5127818816579
 20
158.71523628320062
 11
1422.9865295911188
 21
158.71523628320062
  0
LINE
  8
_0-0_
  6
CONTINUOUS
 62
    2
 10
1439.72858546619
 20
158.71523628320062
 11
1452.7285854661895
 21
158.71523628320062
  0
LINE
  8
_0-0_
  6
CONTINUOUS
 62
    2
 10
1482.2948654109646
 20
158.71523628320062
 11
1495.1537762247196
 21
158.71523628320062
  0
LINE
  8
_0-0_
  6
CONTINUOUS
 62
    2
 10
1512.515661159769
 20
158.71523628320062
 11
1525.5156611597695
 21
158.71523628320062
  0
LINE
  8
_0-0_
  6
CONTINUOUS
 62
    2
 10
1532.6147154138935
 20
158.71523628320062
 11
1545.614715413893
 21
158.71523628320062
  0
LINE
  8
_0-0_
  6
CONTINUOUS
 62
    2
 10
1555.6147154138935
 20
158.71523628320062
 11
1602.5432064055224
 21
158.71523628320062
  0
LINE
  8
_0-0_
  6
CONTINUOUS
 62
    2
 10
1618.3582181464144
 20
158.71523628320062
 11
1631.3582181464142
 21
158.71523628320062
  0
LINE
  8
_0-0_
  6
CONTINUOUS
 62
    2
 10
1647.6048212960573
 20
158.71523628320062
 11
1660.5757837330402
 21
158.71523628320062
  0
LINE
  8
_0-0_
  6
CONTINUOUS
 62
    2
 10
1667.1458119226625
 20
158.71523628320062
 11
1678.1458119226627
 21
158.71523628320062
  0
LINE
  8
_0-0_
  6
CONTINUOUS
 62
    2
 10
1378.4453971979676
 20
160.71523628320108
 11
1391.4453971979676
 21
160.71523628320108
  0
LINE
  8
_0-0_
  6
CONTINUOUS
 62
    2
 10
1409.0539142748091
 20
160.71523628320108
 11
1422.0539142748091
 21
160.71523628320108
  0
LINE
  8
_0-0_
  6
CONTINUOUS
 62
    2
 10
1439.72858546619
 20
160.71523628320108
 11
1452.7285854661895
 21
160.71523628320108
  0
LINE
  8
_0-0_
  6
CONTINUOUS
 62
    2
 10
1482.5380584757131
 20
160.71523628320108
 11
1495.4217691181768
 21
160.71523628320108
  0
LINE
  8
_0-0_
  6
CONTINUOUS
 62
    2
 10
1511.5830458434589
 20
160.71523628320108
 11
1524.5830458434598
 21
160.71523628320108
  0
LINE
  8
_0-0_
  6
CONTINUOUS
 62
    2
 10
1533.5473307302036
 20
160.71523628320108
 11
1546.5473307302032
 21
160.71523628320108
  0
LINE
  8
_0-0_
  6
CONTINUOUS
 62
    2
 10
1556.5473307302027
 20
160.71523628320108
 11
1569.5473307302032
 21
160.71523628320108
  0
LINE
  8
_0-0_
  6
CONTINUOUS
 62
    2
 10
1588.6105910892124
 20
160.71523628320108
 11
1601.6105910892122
 21
160.71523628320108
  0
LINE
  8
_0-0_
  6
CONTINUOUS
 62
    2
 10
1618.3582181464144
 20
160.71523628320108
 11
1631.3582181464142
 21
160.71523628320108
  0
LINE
  8
_0-0_
  6
CONTINUOUS
 62
    2
 10
1646.3550825922389
 20
160.71523628320108
 11
1659.3260450292214
 21
160.71523628320108
  0
LINE
  8
_0-0_
  6
CONTINUOUS
 62
    2
 10
1667.1458119226625
 20
160.71523628320108
 11
1678.1458119226627
 21
160.71523628320108
  0
LINE
  8
_0-0_
  6
CONTINUOUS
 62
    2
 10
1379.3780125142778
 20
162.7152362832021
 11
1392.3780125142778
 21
162.7152362832021
  0
LINE
  8
_0-0_
  6
CONTINUOUS
 62
    2
 10
1408.121298958499
 20
162.7152362832021
 11
1421.121298958499
 21
162.7152362832021
  0
LINE
  8
_0-0_
  6
CONTINUOUS
 62
    2
 10
1439.72858546619
 20
162.7152362832021
 11
1452.7285854661895
 21
162.7152362832021
  0
LINE
  8
_0-0_
  6
CONTINUOUS
 62
    2
 10
1482.6676974520483
 20
162.7152362832021
 11
1495.6077838057863
 21
162.7152362832021
  0
LINE
  8
_0-0_
  6
CONTINUOUS
 62
    2
 10
1510.6504305271487
 20
162.7152362832021
 11
1523.6504305271496
 21
162.7152362832021
  0
LINE
  8
_0-0_
  6
CONTINUOUS
 62
    2
 10
1534.4799460465138
 20
162.7152362832021
 11
1547.4799460465133
 21
162.7152362832021
  0
LINE
  8
_0-0_
  6
CONTINUOUS
 62
    2
 10
1557.4799460465129
 20
162.7152362832021
 11
1570.4799460465133
 21
162.7152362832021
  0
LINE
  8
_0-0_
  6
CONTINUOUS
 62
    2
 10
1587.6779757729025
 20
162.7152362832021
 11
1600.677975772903
 21
162.7152362832021
  0
LINE
  8
_0-0_
  6
CONTINUOUS
 62
    2
 10
1618.3582181464144
 20
162.7152362832021
 11
1631.3582181464142
 21
162.7152362832021
  0
LINE
  8
_0-0_
  6
CONTINUOUS
 62
    2
 10
1645.1053438884198
 20
162.7152362832021
 11
1658.076306325403
 21
162.7152362832021
  0
LINE
  8
_0-0_
  6
CONTINUOUS
 62
    2
 10
1667.1458119226625
 20
162.7152362832021
 11
1678.1458119226627
 21
162.7152362832021
  0
LINE
  8
_0-0_
  6
CONTINUOUS
 62
    2
 10
1380.3106278305879
 20
164.71523628320085
 11
1393.3106278305875
 21
164.71523628320085
  0
LINE
  8
_0-0_
  6
CONTINUOUS
 62
    2
 10
1407.1886836421888
 20
164.71523628320085
 11
1420.1886836421895
 21
164.71523628320085
  0
LINE
  8
_0-0_
  6
CONTINUOUS
 62
    2
 10
1439.72858546619
 20
164.71523628320085
 11
1452.7285854661895
 21
164.71523628320085
  0
LINE
  8
_0-0_
  6
CONTINUOUS
 62
    2
 10
1482.7220666002941
 20
164.71523628320085
 11
1495.7109103622588
 21
164.71523628320085
  0
LINE
  8
_0-0_
  6
CONTINUOUS
 62
    2
 10
1509.7178152108395
 20
164.71523628320085
 11
1522.7178152108395
 21
164.71523628320085
  0
LINE
  8
_0-0_
  6
CONTINUOUS
 62
    2
 10
1535.412561362823
 20
164.71523628320085
 11
1548.4125613628235
 21
164.71523628320085
  0
LINE
  8
_0-0_
  6
CONTINUOUS
 62
    2
 10
1558.412561362823
 20
164.71523628320085
 11
1571.4125613628225
 21
164.71523628320085
  0
LINE
  8
_0-0_
  6
CONTINUOUS
 62
    2
 10
1586.7453604565924
 20
164.71523628320085
 11
1599.7453604565928
 21
164.71523628320085
  0
LINE
  8
_0-0_
  6
CONTINUOUS
 62
    2
 10
1618.3582181464144
 20
164.71523628320085
 11
1631.3582181464142
 21
164.71523628320085
  0
LINE
  8
_0-0_
  6
CONTINUOUS
 62
    2
 10
1643.8556051846015
 20
164.71523628320085
 11
1656.8265676215842
 21
164.71523628320085
  0
LINE
  8
_0-0_
  6
CONTINUOUS
 62
    2
 10
1667.1458119226625
 20
164.71523628320085
 11
1678.1458119226627
 21
164.71523628320085
  0
LINE
  8
_0-0_
  6
CONTINUOUS
 62
    2
 10
1381.2432431468981
 20
166.71523628320131
 11
1394.2432431468976
 21
166.71523628320131
  0
LINE
  8
_0-0_
  6
CONTINUOUS
 62
    2
 10
1406.2560683258791
 20
166.71523628320131
 11
1419.2560683258794
 21
166.71523628320131
  0
LINE
  8
_0-0_
  6
CONTINUOUS
 62
    2
 10
1439.72858546619
 20
166.71523628320131
 11
1452.7285854661895
 21
166.71523628320131
  0
LINE
  8
_0-0_
  6
CONTINUOUS
 62
    2
 10
1482.7244557203176
 20
166.71523628320131
 11
1495.7173881676624
 21
166.71523628320131
  0
LINE
  8
_0-0_
  6
CONTINUOUS
 62
    2
 10
1508.7851998945298
 20
166.71523628320131
 11
1521.7851998945293
 21
166.71523628320131
  0
LINE
  8
_0-0_
  6
CONTINUOUS
 62
    2
 10
1536.3451766791331
 20
166.71523628320131
 11
1549.3451766791336
 21
166.71523628320131
  0
LINE
  8
_0-0_
  6
CONTINUOUS
 62
    2
 10
1559.3451766791331
 20
166.71523628320131
 11
1572.3451766791327
 21
166.71523628320131
  0
LINE
  8
_0-0_
  6
CONTINUOUS
 62
    2
 10
1585.8127451402831
 20
166.71523628320131
 11
1598.8127451402827
 21
166.71523628320131
  0
LINE
  8
_0-0_
  6
CONTINUOUS
 62
    2
 10
1618.3582181464144
 20
166.71523628320131
 11
1631.3582181464142
 21
166.71523628320131
  0
LINE
  8
_0-0_
  6
CONTINUOUS
 62
    2
 10
1642.6058664807827
 20
166.71523628320131
 11
1655.5768289177659
 21
166.71523628320131
  0
LINE
  8
_0-0_
  6
CONTINUOUS
 62
    2
 10
1667.1458119226625
 20
166.71523628320131
 11
1678.1458119226627
 21
166.71523628320131
  0
LINE
  8
_0-0_
  6
CONTINUOUS
 62
    2
 10
1382.1758584632082
 20
168.71523628320119
 11
1395.1758584632078
 21
168.71523628320119
  0
LINE
  8
_0-0_
  6
CONTINUOUS
 62
    2
 10
1405.3234530095697
 20
168.71523628320119
 11
1418.3234530095692
 21
168.71523628320119
  0
LINE
  8
_0-0_
  6
CONTINUOUS
 62
    2
 10
1439.72858546619
 20
168.71523628320119
 11
1452.7285854661895
 21
168.71523628320119
  0
LINE
  8
_0-0_
  6
CONTINUOUS
 62
    2
 10
1482.6811981415076
 20
168.71523628320119
 11
1495.6316261218744
 21
168.71523628320119
  0
LINE
  8
_0-0_
  6
CONTINUOUS
 62
    2
 10
1507.8525845782196
 20
168.71523628320119
 11
1520.8525845782192
 21
168.71523628320119
  0
LINE
  8
_0-0_
  6
CONTINUOUS
 62
    2
 10
1537.2777919954431
 20
168.71523628320119
 11
1550.2777919954428
 21
168.71523628320119
  0
LINE
  8
_0-0_
  6
CONTINUOUS
 62
    2
 10
1560.2777919954433
 20
168.71523628320119
 11
1573.2777919954428
 21
168.71523628320119
  0
LINE
  8
_0-0_
  6
CONTINUOUS
 62
    2
 10
1584.880129823973
 20
168.71523628320119
 11
1597.8801298239725
 21
168.71523628320119
  0
LINE
  8
_0-0_
  6
CONTINUOUS
 62
    2
 10
1618.3582181464144
 20
168.71523628320119
 11
1631.3582181464142
 21
168.71523628320119
  0
LINE
  8
_0-0_
  6
CONTINUOUS
 62
    2
 10
1641.3561277769636
 20
168.71523628320119
 11
1654.3270902139468
 21
168.71523628320119
  0
LINE
  8
_0-0_
  6
CONTINUOUS
 62
    2
 10
1667.1458119226625
 20
168.71523628320119
 11
1678.1458119226627
 21
168.71523628320119
  0
LINE
  8
_0-0_
  6
CONTINUOUS
 62
    2
 10
1383.1084737795177
 20
170.71523628319994
 11
1396.1084737795179
 21
170.71523628319994
  0
LINE
  8
_0-0_
  6
CONTINUOUS
 62
    2
 10
1404.3908376932595
 20
170.71523628319994
 11
1417.3908376932591
 21
170.71523628319994
  0
LINE
  8
_0-0_
  6
CONTINUOUS
 62
    2
 10
1439.72858546619
 20
170.71523628319994
 11
1452.7285854661895
 21
170.71523628319994
  0
LINE
  8
_0-0_
  6
CONTINUOUS
 62
    2
 10
1482.5759925488833
 20
170.71523628319994
 11
1495.4670490656781
 21
170.71523628319994
  0
LINE
  8
_0-0_
  6
CONTINUOUS
 62
    2
 10
1506.9199692619095
 20
170.71523628319994
 11
1519.9199692619097
 21
170.71523628319994
  0
LINE
  8
_0-0_
  6
CONTINUOUS
 62
    2
 10
1538.2104073117532
 20
170.71523628319994
 11
1551.210407311753
 21
170.71523628319994
  0
LINE
  8
_0-0_
  6
CONTINUOUS
 62
    2
 10
1561.2104073117532
 20
170.71523628319994
 11
1574.210407311753
 21
170.71523628319994
  0
LINE
  8
_0-0_
  6
CONTINUOUS
 62
    2
 10
1583.9475145076628
 20
170.71523628319994
 11
1596.9475145076628
 21
170.71523628319994
  0
LINE
  8
_0-0_
  6
CONTINUOUS
 62
    2
 10
1618.3582181464144
 20
170.71523628319994
 11
1631.3582181464142
 21
170.71523628319994
  0
LINE
  8
_0-0_
  6
CONTINUOUS
 62
    2
 10
1640.106389073145
 20
170.71523628319994
 11
1653.0773515101284
 21
170.71523628319994
  0
LINE
  8
_0-0_
  6
CONTINUOUS
 62
    2
 10
1667.1458119226625
 20
170.71523628319994
 11
1678.1458119226627
 21
170.71523628319994
  0
LINE
  8
_0-0_
  6
CONTINUOUS
 62
    2
 10
1384.0410890958278
 20
172.7152362832021
 11
1397.0410890958281
 21
172.7152362832021
  0
LINE
  8
_0-0_
  6
CONTINUOUS
 62
    2
 10
1403.4582223769494
 20
172.7152362832021
 11
1416.4582223769489
 21
172.7152362832021
  0
LINE
  8
_0-0_
  6
CONTINUOUS
 62
    2
 10
1439.72858546619
 20
172.7152362832021
 11
1452.7285854661895
 21
172.7152362832021
  0
LINE
  8
_0-0_
  6
CONTINUOUS
 62
    2
 10
1482.3716443238811
 20
172.7152362832021
 11
1495.2199190397889
 21
172.7152362832021
  0
LINE
  8
_0-0_
  6
CONTINUOUS
 62
    2
 10
1505.9873539455994
 20
172.7152362832021
 11
1518.9873539455996
 21
172.7152362832021
  0
LINE
  8
_0-0_
  6
CONTINUOUS
 62
    2
 10
1539.1430226280634
 20
172.7152362832021
 11
1552.1430226280631
 21
172.7152362832021
  0
LINE
  8
_0-0_
  6
CONTINUOUS
 62
    2
 10
1562.1430226280634
 20
172.7152362832021
 11
1575.1430226280631
 21
172.7152362832021
  0
LINE
  8
_0-0_
  6
CONTINUOUS
 62
    2
 10
1583.0148991913527
 20
172.7152362832021
 11
1596.0148991913527
 21
172.7152362832021
  0
LINE
  8
_0-0_
  6
CONTINUOUS
 62
    2
 10
1618.3582181464144
 20
172.7152362832021
 11
1631.3582181464142
 21
172.7152362832021
  0
LINE
  8
_0-0_
  6
CONTINUOUS
 62
    2
 10
1638.8566503693269
 20
172.7152362832021
 11
1651.8276128063094
 21
172.7152362832021
  0
LINE
  8
_0-0_
  6
CONTINUOUS
 62
    2
 10
1667.1458119226625
 20
172.7152362832021
 11
1678.1458119226627
 21
172.7152362832021
  0
LINE
  8
_0-0_
  6
CONTINUOUS
 62
    2
 10
1384.9737044121375
 20
174.71523628320085
 11
1397.9737044121382
 21
174.71523628320085
  0
LINE
  8
_0-0_
  6
CONTINUOUS
 62
    2
 10
1402.5256070606392
 20
174.71523628320085
 11
1415.5256070606392
 21
174.71523628320085
  0
LINE
  8
_0-0_
  6
CONTINUOUS
 62
    2
 10
1439.72858546619
 20
174.71523628320085
 11
1452.7285854661895
 21
174.71523628320085
  0
LINE
  8
_0-0_
  6
CONTINUOUS
 62
    2
 10
1482.0161659130642
 20
174.71523628320085
 11
1494.8917959265086
 21
174.71523628320085
  0
LINE
  8
_0-0_
  6
CONTINUOUS
 62
    2
 10
1505.0547386292892
 20
174.71523628320085
 11
1518.0547386292894
 21
174.71523628320085
  0
LINE
  8
_0-0_
  6
CONTINUOUS
 62
    2
 10
1540.0756379443735
 20
174.71523628320085
 11
1553.0756379443731
 21
174.71523628320085
  0
LINE
  8
_0-0_
  6
CONTINUOUS
 62
    2
 10
1563.0756379443728
 20
174.71523628320085
 11
1576.0756379443733
 21
174.71523628320085
  0
LINE
  8
_0-0_
  6
CONTINUOUS
 62
    2
 10
1582.0822838750425
 20
174.71523628320085
 11
1595.0822838750425
 21
174.71523628320085
  0
LINE
  8
_0-0_
  6
CONTINUOUS
 62
    2
 10
1618.3582181464144
 20
174.71523628320085
 11
1631.3582181464142
 21
174.71523628320085
  0
LINE
  8
_0-0_
  6
CONTINUOUS
 62
    2
 10
1637.6069116655081
 20
174.71523628320085
 11
1650.5778741024913
 21
174.71523628320085
  0
LINE
  8
_0-0_
  6
CONTINUOUS
 62
    2
 10
1667.1458119226625
 20
174.71523628320085
 11
1678.1458119226627
 21
174.71523628320085
  0
LINE
  8
_0-0_
  6
CONTINUOUS
 62
    2
 10
1385.9063197284477
 20
176.71523628320131
 11
1398.9063197284484
 21
176.71523628320131
  0
LINE
  8
_0-0_
  6
CONTINUOUS
 62
    2
 10
1401.5929917443291
 20
176.71523628320131
 11
1414.5929917443291
 21
176.71523628320131
  0
LINE
  8
_0-0_
  6
CONTINUOUS
 62
    2
 10
1439.72858546619
 20
176.71523628320131
 11
1452.7285854661895
 21
176.71523628320131
  0
LINE
  8
_0-0_
  6
CONTINUOUS
 62
    2
 10
1481.4155042917791
 20
176.71523628320131
 11
1494.483985998103
 21
176.71523628320131
  0
LINE
  8
_0-0_
  6
CONTINUOUS
 62
    2
 10
1504.1221233129791
 20
176.71523628320131
 11
1517.12212331298
 21
176.71523628320131
  0
LINE
  8
_0-0_
  6
CONTINUOUS
 62
    2
 10
1541.0082532606837
 20
176.71523628320131
 11
1554.0082532606832
 21
176.71523628320131
  0
LINE
  8
_0-0_
  6
CONTINUOUS
 62
    2
 10
1564.008253260683
 20
176.71523628320131
 11
1577.0082532606832
 21
176.71523628320131
  0
LINE
  8
_0-0_
  6
CONTINUOUS
 62
    2
 10
1581.1496685587324
 20
176.71523628320131
 11
1594.1496685587324
 21
176.71523628320131
  0
LINE
  8
_0-0_
  6
CONTINUOUS
 62
    2
 10
1618.3582181464144
 20
176.71523628320131
 11
1631.3582181464142
 21
176.71523628320131
  0
LINE
  8
_0-0_
  6
CONTINUOUS
 62
    2
 10
1636.357172961689
 20
176.71523628320131
 11
1649.3281353986722
 21
176.71523628320131
  0
LINE
  8
_0-0_
  6
CONTINUOUS
 62
    2
 10
1667.1458119226625
 20
176.71523628320131
 11
1678.1458119226627
 21
176.71523628320131
  0
LINE
  8
_0-0_
  6
CONTINUOUS
 62
    2
 10
1386.8389350447578
 20
178.71523628320119
 11
1399.8389350447578
 21
178.71523628320119
  0
LINE
  8
_0-0_
  6
CONTINUOUS
 62
    2
 10
1400.6603764280189
 20
178.71523628320119
 11
1413.6603764280196
 21
178.71523628320119
  0
LINE
  8
_0-0_
  6
CONTINUOUS
 62
    2
 10
1439.72858546619
 20
178.71523628320119
 11
1452.7285854661895
 21
178.71523628320119
  0
LINE
  8
_0-0_
  6
CONTINUOUS
 62
    2
 10
1480.4371979686823
 20
178.71523628320119
 11
1494.0000967315623
 21
178.71523628320119
  0
LINE
  8
_0-0_
  6
CONTINUOUS
 62
    2
 10
1503.1895079966696
 20
178.71523628320119
 11
1516.1895079966698
 21
178.71523628320119
  0
LINE
  8
_0-0_
  6
CONTINUOUS
 62
    2
 10
1541.9408685769931
 20
178.71523628320119
 11
1554.9408685769934
 21
178.71523628320119
  0
LINE
  8
_0-0_
  6
CONTINUOUS
 62
    2
 10
1564.9408685769931
 20
178.71523628320119
 11
1577.9408685769927
 21
178.71523628320119
  0
LINE
  8
_0-0_
  6
CONTINUOUS
 62
    2
 10
1580.2170532424227
 20
178.71523628320119
 11
1593.2170532424225
 21
178.71523628320119
  0
LINE
  8
_0-0_
  6
CONTINUOUS
 62
    2
 10
1618.3582181464144
 20
178.71523628320119
 11
1631.3582181464142
 21
178.71523628320119
  0
LINE
  8
_0-0_
  6
CONTINUOUS
 62
    2
 10
1635.1074342578706
 20
178.71523628320119
 11
1648.0783966948536
 21
178.71523628320119
  0
LINE
  8
_0-0_
  6
CONTINUOUS
 62
    2
 10
1667.1458119226625
 20
178.71523628320119
 11
1678.1458119226627
 21
178.71523628320119
  0
LINE
  8
_0-0_
  6
CONTINUOUS
 62
    2
 10
1387.771550361068
 20
180.71523628319994
 11
1412.7277611117095
 21
180.71523628319994
  0
LINE
  8
_0-0_
  6
CONTINUOUS
 62
    2
 10
1439.72858546619
 20
180.71523628319994
 11
1452.7285854661895
 21
180.71523628319994
  0
LINE
  8
_0-0_
  6
CONTINUOUS
 62
    2
 10
1478.7759162966361
 20
180.71523628319994
 11
1493.4298063087101
 21
180.71523628319994
  0
LINE
  8
_0-0_
  6
CONTINUOUS
 62
    2
 10
1502.2568926803594
 20
180.71523628319994
 11
1515.2568926803597
 21
180.71523628319994
  0
LINE
  8
_0-0_
  6
CONTINUOUS
 62
    2
 10
1542.8734838933033
 20
180.71523628319994
 11
1555.8734838933035
 21
180.71523628319994
  0
LINE
  8
_0-0_
  6
CONTINUOUS
 62
    2
 10
1565.8734838933033
 20
180.71523628319994
 11
1578.8734838933028
 21
180.71523628319994
  0
LINE
  8
_0-0_
  6
CONTINUOUS
 62
    2
 10
1579.2844379261126
 20
180.71523628319994
 11
1592.2844379261123
 21
180.71523628319994
  0
LINE
  8
_0-0_
  6
CONTINUOUS
 62
    2
 10
1618.3582181464144
 20
180.71523628319994
 11
1631.3582181464142
 21
180.71523628319994
  0
LINE
  8
_0-0_
  6
CONTINUOUS
 62
    2
 10
1633.8576955540518
 20
180.71523628319994
 11
1646.828657991035
 21
180.71523628319994
  0
LINE
  8
_0-0_
  6
CONTINUOUS
 62
    2
 10
1667.1458119226625
 20
180.71523628319994
 11
1678.1458119226627
 21
180.71523628319994
  0
LINE
  8
_0-0_
  6
CONTINUOUS
 62
    2
 10
1388.7041656773781
 20
182.71523628320153
 11
1411.7951457953993
 21
182.71523628320153
  0
LINE
  8
_0-0_
  6
CONTINUOUS
 62
    2
 10
1439.72858546619
 20
182.71523628320153
 11
1452.7285854661895
 21
182.71523628320153
  0
LINE
  8
_0-0_
  6
CONTINUOUS
 62
    2
 10
1476.1821109536741
 20
182.71523628320153
 11
1492.7245414663548
 21
182.71523628320153
  0
LINE
  8
_0-0_
  6
CONTINUOUS
 62
    2
 10
1501.32427736405
 20
182.71523628320153
 11
1514.3242773640495
 21
182.71523628320153
  0
LINE
  8
_0-0_
  6
CONTINUOUS
 62
    2
 10
1543.8060992096134
 20
182.71523628320153
 11
1556.8060992096136
 21
182.71523628320153
  0
LINE
  8
_0-0_
  6
CONTINUOUS
 62
    2
 10
1566.8060992096134
 20
182.71523628320153
 11
1591.3518226098022
 21
182.71523628320153
  0
LINE
  8
_0-0_
  6
CONTINUOUS
 62
    2
 10
1618.3582181464144
 20
182.71523628320153
 11
1631.3582181464142
 21
182.71523628320153
  0
LINE
  8
_0-0_
  6
CONTINUOUS
 62
    2
 10
1632.6079568502334
 20
182.71523628320153
 11
1645.5789192872166
 21
182.71523628320153
  0
LINE
  8
_0-0_
  6
CONTINUOUS
 62
    2
 10
1667.1458119226625
 20
182.71523628320153
 11
1678.1458119226627
 21
182.71523628320153
  0
LINE
  8
_0-0_
  6
CONTINUOUS
 62
    2
 10
1389.6367809936883
 20
184.71523628320085
 11
1410.8625304790892
 21
184.71523628320085
  0
LINE
  8
_0-0_
  6
CONTINUOUS
 62
    2
 10
1439.72858546619
 20
184.71523628320085
 11
1452.7285854661895
 21
184.71523628320085
  0
LINE
  8
_0-0_
  6
CONTINUOUS
 62
    2
 10
1472.7285854661895
 20
184.71523628320085
 11
1491.7285854661893
 21
184.71523628320085
  0
LINE
  8
_0-0_
  6
CONTINUOUS
 62
    2
 10
1500.3916620477398
 20
184.71523628320085
 11
1513.3916620477394
 21
184.71523628320085
  0
LINE
  8
_0-0_
  6
CONTINUOUS
 62
    2
 10
1544.7387145259227
 20
184.71523628320085
 11
1557.7387145259231
 21
184.71523628320085
  0
LINE
  8
_0-0_
  6
CONTINUOUS
 62
    2
 10
1567.7387145259231
 20
184.71523628320085
 11
1590.419207293492
 21
184.71523628320085
  0
LINE
  8
_0-0_
  6
CONTINUOUS
 62
    2
 10
1618.3582181464144
 20
184.71523628320085
 11
1631.3582181464142
 21
184.71523628320085
  0
LINE
  8
_0-0_
  6
CONTINUOUS
 62
    2
 10
1631.3582181464142
 20
184.71523628320085
 11
1644.3291805833976
 21
184.71523628320085
  0
LINE
  8
_0-0_
  6
CONTINUOUS
 62
    2
 10
1667.1458119226625
 20
184.71523628320085
 11
1678.1458119226627
 21
184.71523628320085
  0
LINE
  8
_0-0_
  6
CONTINUOUS
 62
    2
 10
1390.5693963099977
 20
186.71523628320131
 11
1409.929915162779
 21
186.71523628320131
  0
LINE
  8
_0-0_
  6
CONTINUOUS
 62
    2
 10
1439.72858546619
 20
186.71523628320131
 11
1490.1387187583375
 21
186.71523628320131
  0
LINE
  8
_0-0_
  6
CONTINUOUS
 62
    2
 10
1499.4590467314297
 20
186.71523628320131
 11
1512.4590467314295
 21
186.71523628320131
  0
LINE
  8
_0-0_
  6
CONTINUOUS
 62
    2
 10
1545.6713298422328
 20
186.71523628320131
 11
1558.6713298422333
 21
186.71523628320131
  0
LINE
  8
_0-0_
  6
CONTINUOUS
 62
    2
 10
1568.6713298422333
 20
186.71523628320131
 11
1589.4865919771819
 21
186.71523628320131
  0
LINE
  8
_0-0_
  6
CONTINUOUS
 62
    2
 10
1618.3582181464144
 20
186.71523628320131
 11
1643.0794418795792
 21
186.71523628320131
  0
LINE
  8
_0-0_
  6
CONTINUOUS
 62
    2
 10
1667.1458119226625
 20
186.71523628320131
 11
1678.1458119226627
 21
186.71523628320131
  0
LINE
  8
_0-0_
  6
CONTINUOUS
 62
    2
 10
1391.5020116263079
 20
188.71523628320062
 11
1408.9972998464689
 21
188.71523628320062
  0
LINE
  8
_0-0_
  6
CONTINUOUS
 62
    2
 10
1439.72858546619
 20
188.71523628320062
 11
1487.8944518922535
 21
188.71523628320062
  0
LINE
  8
_0-0_
  6
CONTINUOUS
 62
    2
 10
1498.5264314151195
 20
188.71523628320062
 11
1511.5264314151193
 21
188.71523628320062
  0
LINE
  8
_0-0_
  6
CONTINUOUS
 62
    2
 10
1546.603945158543
 20
188.71523628320062
 11
1559.6039451585434
 21
188.71523628320062
  0
LINE
  8
_0-0_
  6
CONTINUOUS
 62
    2
 10
1569.6039451585434
 20
188.71523628320062
 11
1588.5539766608726
 21
188.71523628320062
  0
LINE
  8
_0-0_
  6
CONTINUOUS
 62
    2
 10
1618.3582181464144
 20
188.71523628320062
 11
1641.8297031757604
 21
188.71523628320062
  0
LINE
  8
_0-0_
  6
CONTINUOUS
 62
    2
 10
1667.1458119226625
 20
188.71523628320062
 11
1678.1458119226627
 21
188.71523628320062
  0
LINE
  8
_0-0_
  6
CONTINUOUS
 62
    2
 10
1392.4346269426176
 20
190.71523628319994
 11
1408.0646845301592
 21
190.71523628319994
  0
LINE
  8
_0-0_
  6
CONTINUOUS
 62
    2
 10
1439.72858546619
 20
190.71523628319994
 11
1484.5566535259238
 21
190.71523628319994
  0
LINE
  8
_0-0_
  6
CONTINUOUS
 62
    2
 10
1497.5938160988094
 20
190.71523628319994
 11
1510.5938160988101
 21
190.71523628319994
  0
LINE
  8
_0-0_
  6
CONTINUOUS
 62
    2
 10
1547.5365604748531
 20
190.71523628319994
 11
1560.5365604748526
 21
190.71523628319994
  0
LINE
  8
_0-0_
  6
CONTINUOUS
 62
    2
 10
1570.5365604748531
 20
190.71523628319994
 11
1587.6213613445625
 21
190.71523628319994
  0
LINE
  8
_0-0_
  6
CONTINUOUS
 62
    2
 10
1618.3582181464144
 20
190.71523628319994
 11
1640.579964471942
 21
190.71523628319994
  0
LINE
  8
_0-0_
  6
CONTINUOUS
 62
    2
 10
1667.1458119226625
 20
190.71523628319994
 11
1678.1458119226627
 21
190.71523628319994
  0
LINE
  8
_0-0_
  6
CONTINUOUS
 62
    2
 10
1393.3672422589277
 20
192.71523628320097
 11
1407.132069213849
 21
192.71523628320097
  0
LINE
  8
_0-0_
  6
CONTINUOUS
 62
    2
 10
1439.72858546619
 20
192.71523628320097
 11
1479.7285854661895
 21
192.71523628320097
  0
LINE
  8
_0-0_
  6
CONTINUOUS
 62
    2
 10
1496.6612007824995
 20
192.71523628320097
 11
1509.6612007824999
 21
192.71523628320097
  0
LINE
  8
_0-0_
  6
CONTINUOUS
 62
    2
 10
1548.4691757911633
 20
192.71523628320097
 11
1561.4691757911628
 21
192.71523628320097
  0
LINE
  8
_0-0_
  6
CONTINUOUS
 62
    2
 10
1571.4691757911633
 20
192.71523628320097
 11
1586.6887460282528
 21
192.71523628320097
  0
LINE
  8
_0-0_
  6
CONTINUOUS
 62
    2
 10
1618.3582181464144
 20
192.71523628320097
 11
1639.3302257681228
 21
192.71523628320097
  0
LINE
  8
_0-0_
  6
CONTINUOUS
 62
    2
 10
1667.1458119226625
 20
192.71523628320097
 11
1678.1458119226627
 21
192.71523628320097
  0
LINE
  8
_0-0_
  6
CONTINUOUS
 62
    2
 10
1394.2998575752379
 20
194.71523628320085
 11
1406.1994538975396
 21
194.71523628320085
  0
LINE
  8
_0-0_
  6
CONTINUOUS
 62
    2
 10
1439.72858546619
 20
194.71523628320085
 11
1472.7285854661895
 21
194.71523628320085
  0
LINE
  8
_0-0_
  6
CONTINUOUS
 62
    2
 10
1495.7285854661893
 20
194.71523628320085
 11
1508.7285854661898
 21
194.71523628320085
  0
LINE
  8
_0-0_
  6
CONTINUOUS
 62
    2
 10
1549.4017911074732
 20
194.71523628320085
 11
1562.4017911074729
 21
194.71523628320085
  0
LINE
  8
_0-0_
  6
CONTINUOUS
 62
    2
 10
1572.4017911074734
 20
194.71523628320085
 11
1585.7561307119427
 21
194.71523628320085
  0
LINE
  8
_0-0_
  6
CONTINUOUS
 62
    2
 10
1618.3582181464144
 20
194.71523628320085
 11
1638.0804870643046
 21
194.71523628320085
  0
LINE
  8
_0-0_
  6
CONTINUOUS
 62
    2
 10
1667.1458119226625
 20
194.71523628320085
 11
1678.1458119226627
 21
194.71523628320085
  0
LINE
  8
_0-0_
  6
CONTINUOUS
 62
    2
 10
1367.7203210604032
 20
137.71523628320153
 11
1380.7203210604027
 21
137.71523628320153
  0
LINE
  8
_0-0_
  6
CONTINUOUS
 62
    2
 10
1419.778990412374
 20
137.71523628320153
 11
1432.7789904123742
 21
137.71523628320153
  0
LINE
  8
_0-0_
  6
CONTINUOUS
 62
    2
 10
1439.72858546619
 20
137.71523628320153
 11
1474.8358581409868
 21
137.71523628320153
  0
LINE
  8
_0-0_
  6
CONTINUOUS
 62
    2
 10
1522.3081219810249
 20
137.71523628320153
 11
1535.8222545926383
 21
137.71523628320153
  0
LINE
  8
_0-0_
  6
CONTINUOUS
 62
    2
 10
1545.8222545926387
 20
137.71523628320153
 11
1558.8222545926383
 21
137.71523628320153
  0
LINE
  8
_0-0_
  6
CONTINUOUS
 62
    2
 10
1599.335667226778
 20
137.71523628320153
 11
1612.3356672267776
 21
137.71523628320153
  0
LINE
  8
_0-0_
  6
CONTINUOUS
 62
    2
 10
1618.3582181464144
 20
137.71523628320153
 11
1631.3582181464142
 21
137.71523628320153
  0
LINE
  8
_0-0_
  6
CONTINUOUS
 62
    2
 10
1660.7270776861526
 20
137.71523628320153
 11
1678.1458119226627
 21
137.71523628320153
  0
LINE
  8
_0-0_
  6
CONTINUOUS
 62
    2
 10
1368.6529363767127
 20
139.71523628320085
 11
1381.6529363767129
 21
139.71523628320085
  0
LINE
  8
_0-0_
  6
CONTINUOUS
 62
    2
 10
1418.8463750960645
 20
139.71523628320085
 11
1431.8463750960641
 21
139.71523628320085
  0
LINE
  8
_0-0_
  6
CONTINUOUS
 62
    2
 10
1439.72858546619
 20
139.71523628320085
 11
1481.254211965364
 21
139.71523628320085
  0
LINE
  8
_0-0_
  6
CONTINUOUS
 62
    2
 10
1521.3755066647147
 20
139.71523628320085
 11
1536.7548699089482
 21
139.71523628320085
  0
LINE
  8
_0-0_
  6
CONTINUOUS
 62
    2
 10
1546.754869908948
 20
139.71523628320085
 11
1559.7548699089484
 21
139.71523628320085
  0
LINE
  8
_0-0_
  6
CONTINUOUS
 62
    2
 10
1598.4030519104679
 20
139.71523628320085
 11
1611.4030519104674
 21
139.71523628320085
  0
LINE
  8
_0-0_
  6
CONTINUOUS
 62
    2
 10
1618.3582181464144
 20
139.71523628320085
 11
1631.3582181464142
 21
139.71523628320085
  0
LINE
  8
_0-0_
  6
CONTINUOUS
 62
    2
 10
1659.4773389823345
 20
139.71523628320085
 11
1678.1458119226627
 21
139.71523628320085
  0
LINE
  8
_0-0_
  6
CONTINUOUS
 62
    2
 10
1369.5855516930228
 20
141.71523628320074
 11
1382.585551693023
 21
141.71523628320074
  0
LINE
  8
_0-0_
  6
CONTINUOUS
 62
    2
 10
1417.9137597797544
 20
141.71523628320074
 11
1430.9137597797539
 21
141.71523628320074
  0
LINE
  8
_0-0_
  6
CONTINUOUS
 62
    2
 10
1439.72858546619
 20
141.71523628320074
 11
1485.6423132813889
 21
141.71523628320074
  0
LINE
  8
_0-0_
  6
CONTINUOUS
 62
    2
 10
1520.4428913484046
 20
141.71523628320074
 11
1537.6874852252583
 21
141.71523628320074
  0
LINE
  8
_0-0_
  6
CONTINUOUS
 62
    2
 10
1547.6874852252581
 20
141.71523628320074
 11
1560.6874852252586
 21
141.71523628320074
  0
LINE
  8
_0-0_
  6
CONTINUOUS
 62
    2
 10
1597.4704365941577
 20
141.71523628320074
 11
1610.4704365941573
 21
141.71523628320074
  0
LINE
  8
_0-0_
  6
CONTINUOUS
 62
    2
 10
1618.3582181464144
 20
141.71523628320074
 11
1631.3582181464142
 21
141.71523628320074
  0
LINE
  8
_0-0_
  6
CONTINUOUS
 62
    2
 10
1658.2276002785156
 20
141.71523628320074
 11
1678.1458119226627
 21
141.71523628320074
  0
LINE
  8
_0-0_
  6
CONTINUOUS
 62
    2
 10
1370.518167009333
 20
143.71523628320062
 11
1383.5181670093332
 21
143.71523628320062
  0
LINE
  8
_0-0_
  6
CONTINUOUS
 62
    2
 10
1416.9811444634443
 20
143.71523628320062
 11
1429.9811444634443
 21
143.71523628320062
  0
LINE
  8
_0-0_
  6
CONTINUOUS
 62
    2
 10
1439.72858546619
 20
143.71523628320062
 11
1488.5852513510599
 21
143.71523628320062
  0
LINE
  8
_0-0_
  6
CONTINUOUS
 62
    2
 10
1519.5102760320945
 20
143.71523628320062
 11
1538.620100541568
 21
143.71523628320062
  0
LINE
  8
_0-0_
  6
CONTINUOUS
 62
    2
 10
1548.620100541568
 20
143.71523628320062
 11
1561.6201005415687
 21
143.71523628320062
  0
LINE
  8
_0-0_
  6
CONTINUOUS
 62
    2
 10
1596.5378212778476
 20
143.71523628320062
 11
1609.5378212778473
 21
143.71523628320062
  0
LINE
  8
_0-0_
  6
CONTINUOUS
 62
    2
 10
1618.3582181464144
 20
143.71523628320062
 11
1631.3582181464142
 21
143.71523628320062
  0
LINE
  8
_0-0_
  6
CONTINUOUS
 62
    2
 10
1656.9778615746968
 20
143.71523628320062
 11
1678.1458119226627
 21
143.71523628320062
  0
LINE
  8
_0-0_
  6
CONTINUOUS
 62
    2
 10
1371.4507823256426
 20
145.71523628320108
 11
1384.4507823256426
 21
145.71523628320108
  0
LINE
  8
_0-0_
  6
CONTINUOUS
 62
    2
 10
1416.0485291471341
 20
145.71523628320108
 11
1429.0485291471341
 21
145.71523628320108
  0
LINE
  8
_0-0_
  6
CONTINUOUS
 62
    2
 10
1439.72858546619
 20
145.71523628320108
 11
1490.6476085008053
 21
145.71523628320108
  0
LINE
  8
_0-0_
  6
CONTINUOUS
 62
    2
 10
1518.5776607157843
 20
145.71523628320108
 11
1539.5527158578782
 21
145.71523628320108
  0
LINE
  8
_0-0_
  6
CONTINUOUS
 62
    2
 10
1549.5527158578782
 20
145.71523628320108
 11
1562.552715857878
 21
145.71523628320108
  0
LINE
  8
_0-0_
  6
CONTINUOUS
 62
    2
 10
1595.6052059615374
 20
145.71523628320108
 11
1608.6052059615372
 21
145.71523628320108
  0
LINE
  8
_0-0_
  6
CONTINUOUS
 62
    2
 10
1618.3582181464144
 20
145.71523628320108
 11
1631.3582181464142
 21
145.71523628320108
  0
LINE
  8
_0-0_
  6
CONTINUOUS
 62
    2
 10
1655.7281228708789
 20
145.71523628320108
 11
1678.1458119226627
 21
145.71523628320108
  0
LINE
  8
_0-0_
  6
CONTINUOUS
 62
    2
 10
1372.3833976419528
 20
147.71523628320097
 11
1385.3833976419528
 21
147.71523628320097
  0
LINE
  8
_0-0_
  6
CONTINUOUS
 62
    2
 10
1415.115913830824
 20
147.71523628320097
 11
1428.115913830824
 21
147.71523628320097
  0
LINE
  8
_0-0_
  6
CONTINUOUS
 62
    2
 10
1439.72858546619
 20
147.71523628320097
 11
1452.7285854661895
 21
147.71523628320097
  0
LINE
  8
_0-0_
  6
CONTINUOUS
 62
    2
 10
1473.7270336445304
 20
147.71523628320097
 11
1492.0403925197818
 21
147.71523628320097
  0
LINE
  8
_0-0_
  6
CONTINUOUS
 62
    2
 10
1517.6450453994742
 20
147.71523628320097
 11
1540.4853311741883
 21
147.71523628320097
  0
LINE
  8
_0-0_
  6
CONTINUOUS
 62
    2
 10
1550.4853311741883
 20
147.71523628320097
 11
1563.4853311741881
 21
147.71523628320097
  0
LINE
  8
_0-0_
  6
CONTINUOUS
 62
    2
 10
1594.6725906452273
 20
147.71523628320097
 11
1607.672590645228
 21
147.71523628320097
  0
LINE
  8
_0-0_
  6
CONTINUOUS
 62
    2
 10
1618.3582181464144
 20
147.71523628320097
 11
1631.3582181464142
 21
147.71523628320097
  0
LINE
  8
_0-0_
  6
CONTINUOUS
 62
    2
 10
1654.4783841670599
 20
147.71523628320097
 11
1678.1458119226627
 21
147.71523628320097
  0
LINE
  8
_0-0_
  6
CONTINUOUS
 62
    2
 10
1373.3160129582629
 20
149.71523628320142
 11
1386.3160129582629
 21
149.71523628320142
  0
LINE
  8
_0-0_
  6
CONTINUOUS
 62
    2
 10
1414.1832985145143
 20
149.71523628320142
 11
1427.1832985145145
 21
149.71523628320142
  0
LINE
  8
_0-0_
  6
CONTINUOUS
 62
    2
 10
1439.72858546619
 20
149.71523628320142
 11
1452.7285854661895
 21
149.71523628320142
  0
LINE
  8
_0-0_
  6
CONTINUOUS
 62
    2
 10
1477.0053715912538
 20
149.71523628320142
 11
1492.9361506351047
 21
149.71523628320142
  0
LINE
  8
_0-0_
  6
CONTINUOUS
 62
    2
 10
1516.7124300831645
 20
149.71523628320142
 11
1541.4179464904985
 21
149.71523628320142
  0
LINE
  8
_0-0_
  6
CONTINUOUS
 62
    2
 10
1551.4179464904985
 20
149.71523628320142
 11
1564.417946490498
 21
149.71523628320142
  0
LINE
  8
_0-0_
  6
CONTINUOUS
 62
    2
 10
1593.7399753289174
 20
149.71523628320142
 11
1606.7399753289178
 21
149.71523628320142
  0
LINE
  8
_0-0_
  6
CONTINUOUS
 62
    2
 10
1618.3582181464144
 20
149.71523628320142
 11
1631.3582181464142
 21
149.71523628320142
  0
LINE
  8
_0-0_
  6
CONTINUOUS
 62
    2
 10
1653.228645463241
 20
149.71523628320142
 11
1666.1996079002242
 21
149.71523628320142
  0
LINE
  8
_0-0_
  6
CONTINUOUS
 62
    2
 10
1667.1458119226625
 20
149.71523628320142
 11
1678.1458119226627
 21
149.71523628320142
  0
LINE
  8
_0-0_
  6
CONTINUOUS
 62
    2
 10
1374.2486282745731
 20
151.71523628320074
 11
1426.2506831982043
 21
151.71523628320074
  0
LINE
  8
_0-0_
  6
CONTINUOUS
 62
    2
 10
1439.72858546619
 20
151.71523628320074
 11
1452.7285854661895
 21
151.71523628320074
  0
LINE
  8
_0-0_
  6
CONTINUOUS
 62
    2
 10
1479.3357373518725
 20
151.71523628320074
 11
1493.5987363427516
 21
151.71523628320074
  0
LINE
  8
_0-0_
  6
CONTINUOUS
 62
    2
 10
1515.7798147668543
 20
151.71523628320074
 11
1528.7798147668541
 21
151.71523628320074
  0
LINE
  8
_0-0_
  6
CONTINUOUS
 62
    2
 10
1529.3505618068082
 20
151.71523628320074
 11
1542.3505618068086
 21
151.71523628320074
  0
LINE
  8
_0-0_
  6
CONTINUOUS
 62
    2
 10
1552.3505618068086
 20
151.71523628320074
 11
1605.8073600126077
 21
151.71523628320074
  0
LINE
  8
_0-0_
  6
CONTINUOUS
 62
    2
 10
1618.3582181464144
 20
151.71523628320074
 11
1631.3582181464142
 21
151.71523628320074
  0
LINE
  8
_0-0_
  6
CONTINUOUS
 62
    2
 10
1651.9789067594227
 20
151.71523628320074
 11
1664.9498691964052
 21
151.71523628320074
  0
LINE
  8
_0-0_
  6
CONTINUOUS
 62
    2
 10
1667.1458119226625
 20
151.71523628320074
 11
1678.1458119226627
 21
151.71523628320074
  0
LINE
  8
_0-0_
  6
CONTINUOUS
 62
    2
 10
1375.1812435908832
 20
153.71523628320062
 11
1425.3180678818942
 21
153.71523628320062
  0
LINE
  8
_0-0_
  6
CONTINUOUS
 62
    2
 10
1439.72858546619
 20
153.71523628320062
 11
1452.7285854661895
 21
153.71523628320062
  0
LINE
  8
_0-0_
  6
CONTINUOUS
 62
    2
 10
1480.7115311965888
 20
153.71523628320062
 11
1494.1405149366572
 21
153.71523628320062
  0
LINE
  8
_0-0_
  6
CONTINUOUS
 62
    2
 10
1514.8471994505444
 20
153.71523628320062
 11
1527.8471994505439
 21
153.71523628320062
  0
LINE
  8
_0-0_
  6
CONTINUOUS
 62
    2
 10
1530.2831771231181
 20
153.71523628320062
 11
1543.2831771231179
 21
153.71523628320062
  0
LINE
  8
_0-0_
  6
CONTINUOUS
 62
    2
 10
1553.2831771231188
 20
153.71523628320062
 11
1604.8747446962975
 21
153.71523628320062
  0
LINE
  8
_0-0_
  6
CONTINUOUS
 62
    2
 10
1618.3582181464144
 20
153.71523628320062
 11
1631.3582181464142
 21
153.71523628320062
  0
LINE
  8
_0-0_
  6
CONTINUOUS
 62
    2
 10
1650.7291680556036
 20
153.71523628320062
 11
1663.7001304925868
 21
153.71523628320062
  0
LINE
  8
_0-0_
  6
CONTINUOUS
 62
    2
 10
1667.1458119226625
 20
153.71523628320062
 11
1678.1458119226627
 21
153.71523628320062
  0
LINE
  8
_0-0_
  6
CONTINUOUS
 62
    2
 10
1376.1138589071927
 20
155.71523628320108
 11
1424.385452565584
 21
155.71523628320108
  0
LINE
  8
_0-0_
  6
CONTINUOUS
 62
    2
 10
1439.72858546619
 20
155.71523628320108
 11
1452.7285854661895
 21
155.71523628320108
  0
LINE
  8
_0-0_
  6
CONTINUOUS
 62
    2
 10
1481.5810708027764
 20
155.71523628320108
 11
1494.612551835671
 21
155.71523628320108
  0
LINE
  8
_0-0_
  6
CONTINUOUS
 62
    2
 10
1513.9145841342342
 20
155.71523628320108
 11
1526.9145841342338
 21
155.71523628320108
  0
LINE
  8
_0-0_
  6
CONTINUOUS
 62
    2
 10
1531.2157924394282
 20
155.71523628320108
 11
1544.215792439428
 21
155.71523628320108
  0
LINE
  8
_0-0_
  6
CONTINUOUS
 62
    2
 10
1554.2157924394282
 20
155.71523628320108
 11
1603.9421293799874
 21
155.71523628320108
  0
LINE
  8
_0-0_
  6
CONTINUOUS
 62
    2
 10
1618.3582181464144
 20
155.71523628320108
 11
1631.3582181464142
 21
155.71523628320108
  0
LINE
  8
_0-0_
  6
CONTINUOUS
 62
    2
 10
1649.4794293517853
 20
155.71523628320108
 11
1662.4503917887685
 21
155.71523628320108
  0
LINE
  8
_0-0_
  6
CONTINUOUS
 62
    2
 10
1667.1458119226625
 20
155.71523628320108
 11
1678.1458119226627
 21
155.71523628320108
  0
LINE
  8
_0-0_
  6
CONTINUOUS
 62
    2
 10
1377.0464742235029
 20
157.71523628320153
 11
1423.4528372492739
 21
157.71523628320153
  0
LINE
  8
_0-0_
  6
CONTINUOUS
 62
    2
 10
1439.72858546619
 20
157.71523628320153
 11
1452.7285854661895
 21
157.71523628320153
  0
LINE
  8
_0-0_
  6
CONTINUOUS
 62
    2
 10
1482.1237587216019
 20
157.71523628320153
 11
1494.9980565319336
 21
157.71523628320153
  0
LINE
  8
_0-0_
  6
CONTINUOUS
 62
    2
 10
1512.9819688179241
 20
157.71523628320153
 11
1525.9819688179246
 21
157.71523628320153
  0
LINE
  8
_0-0_
  6
CONTINUOUS
 62
    2
 10
1532.1484077557384
 20
157.71523628320153
 11
1545.1484077557382
 21
157.71523628320153
  0
LINE
  8
_0-0_
  6
CONTINUOUS
 62
    2
 10
1555.1484077557384
 20
157.71523628320153
 11
1603.0095140636772
 21
157.71523628320153
  0
LINE
  8
_0-0_
  6
CONTINUOUS
 62
    2
 10
1618.3582181464144
 20
157.71523628320153
 11
1631.3582181464142
 21
157.71523628320153
  0
LINE
  8
_0-0_
  6
CONTINUOUS
 62
    2
 10
1648.229690647966
 20
157.71523628320153
 11
1661.2006530849496
 21
157.71523628320153
  0
LINE
  8
_0-0_
  6
CONTINUOUS
 62
    2
 10
1667.1458119226625
 20
157.71523628320153
 11
1678.1458119226627
 21
157.71523628320153
  0
LINE
  8
_0-0_
  6
CONTINUOUS
 62
    2
 10
1377.9790895398125
 20
159.71523628320142
 11
1422.5202219329642
 21
159.71523628320142
  0
LINE
  8
_0-0_
  6
CONTINUOUS
 62
    2
 10
1439.72858546619
 20
159.71523628320142
 11
1452.7285854661895
 21
159.71523628320142
  0
LINE
  8
_0-0_
  6
CONTINUOUS
 62
    2
 10
1482.4535199816455
 20
159.71523628320142
 11
1495.3011796937403
 21
159.71523628320142
  0
LINE
  8
_0-0_
  6
CONTINUOUS
 62
    2
 10
1512.049353501614
 20
159.71523628320142
 11
1525.0493535016149
 21
159.71523628320142
  0
LINE
  8
_0-0_
  6
CONTINUOUS
 62
    2
 10
1533.0810230720485
 20
159.71523628320142
 11
1546.0810230720481
 21
159.71523628320142
  0
LINE
  8
_0-0_
  6
CONTINUOUS
 62
    2
 10
1556.0810230720476
 20
159.71523628320142
 11
1602.0768987473673
 21
159.71523628320142
  0
LINE
  8
_0-0_
  6
CONTINUOUS
 62
    2
 10
1618.3582181464144
 20
159.71523628320142
 11
1631.3582181464142
 21
159.71523628320142
  0
LINE
  8
_0-0_
  6
CONTINUOUS
 62
    2
 10
1646.9799519441481
 20
159.71523628320142
 11
1659.9509143811304
 21
159.71523628320142
  0
LINE
  8
_0-0_
  6
CONTINUOUS
 62
    2
 10
1667.1458119226625
 20
159.71523628320142
 11
1678.1458119226627
 21
159.71523628320142
  0
LINE
  8
_0-0_
  6
CONTINUOUS
 62
    2
 10
1378.9117048561227
 20
161.71523628320131
 11
1391.9117048561234
 21
161.71523628320131
  0
LINE
  8
_0-0_
  6
CONTINUOUS
 62
    2
 10
1408.5876066166541
 20
161.71523628320131
 11
1421.5876066166541
 21
161.71523628320131
  0
LINE
  8
_0-0_
  6
CONTINUOUS
 62
    2
 10
1439.72858546619
 20
161.71523628320131
 11
1452.7285854661895
 21
161.71523628320131
  0
LINE
  8
_0-0_
  6
CONTINUOUS
 62
    2
 10
1482.6225969697814
 20
161.71523628320131
 11
1495.5226783602736
 21
161.71523628320131
  0
LINE
  8
_0-0_
  6
CONTINUOUS
 62
    2
 10
1511.1167381853038
 20
161.71523628320131
 11
1524.1167381853047
 21
161.71523628320131
  0
LINE
  8
_0-0_
  6
CONTINUOUS
 62
    2
 10
1534.0136383883587
 20
161.71523628320131
 11
1547.0136383883582
 21
161.71523628320131
  0
LINE
  8
_0-0_
  6
CONTINUOUS
 62
    2
 10
1557.0136383883578
 20
161.71523628320131
 11
1570.0136383883582
 21
161.71523628320131
  0
LINE
  8
_0-0_
  6
CONTINUOUS
 62
    2
 10
1588.1442834310574
 20
161.71523628320131
 11
1601.1442834310571
 21
161.71523628320131
  0
LINE
  8
_0-0_
  6
CONTINUOUS
 62
    2
 10
1618.3582181464144
 20
161.71523628320131
 11
1631.3582181464142
 21
161.71523628320131
  0
LINE
  8
_0-0_
  6
CONTINUOUS
 62
    2
 10
1645.730213240329
 20
161.71523628320131
 11
1658.7011756773122
 21
161.71523628320131
  0
LINE
  8
_0-0_
  6
CONTINUOUS
 62
    2
 10
1667.1458119226625
 20
161.71523628320131
 11
1678.1458119226627
 21
161.71523628320131
  0
LINE
  8
_0-0_
  6
CONTINUOUS
 62
    2
 10
1379.8443201724328
 20
163.71523628320119
 11
1392.8443201724328
 21
163.71523628320119
  0
LINE
  8
_0-0_
  6
CONTINUOUS
 62
    2
 10
1407.6549913003439
 20
163.71523628320119
 11
1420.6549913003446
 21
163.71523628320119
  0
LINE
  8
_0-0_
  6
CONTINUOUS
 62
    2
 10
1439.72858546619
 20
163.71523628320119
 11
1452.7285854661895
 21
163.71523628320119
  0
LINE
  8
_0-0_
  6
CONTINUOUS
 62
    2
 10
1482.6977845969384
 20
163.71523628320119
 11
1495.6609179231848
 21
163.71523628320119
  0
LINE
  8
_0-0_
  6
CONTINUOUS
 62
    2
 10
1510.1841228689946
 20
163.71523628320119
 11
1523.1841228689946
 21
163.71523628320119
  0
LINE
  8
_0-0_
  6
CONTINUOUS
 62
    2
 10
1534.9462537046679
 20
163.71523628320119
 11
1547.9462537046684
 21
163.71523628320119
  0
LINE
  8
_0-0_
  6
CONTINUOUS
 62
    2
 10
1557.9462537046679
 20
163.71523628320119
 11
1570.9462537046684
 21
163.71523628320119
  0
LINE
  8
_0-0_
  6
CONTINUOUS
 62
    2
 10
1587.2116681147475
 20
163.71523628320119
 11
1600.2116681147479
 21
163.71523628320119
  0
LINE
  8
_0-0_
  6
CONTINUOUS
 62
    2
 10
1618.3582181464144
 20
163.71523628320119
 11
1631.3582181464142
 21
163.71523628320119
  0
LINE
  8
_0-0_
  6
CONTINUOUS
 62
    2
 10
1644.4804745365104
 20
163.71523628320119
 11
1657.4514369734934
 21
163.71523628320119
  0
LINE
  8
_0-0_
  6
CONTINUOUS
 62
    2
 10
1667.1458119226625
 20
163.71523628320119
 11
1678.1458119226627
 21
163.71523628320119
  0
LINE
  8
_0-0_
  6
CONTINUOUS
 62
    2
 10
1380.776935488743
 20
165.71523628319994
 11
1393.776935488743
 21
165.71523628319994
  0
LINE
  8
_0-0_
  6
CONTINUOUS
 62
    2
 10
1406.7223759840338
 20
165.71523628319994
 11
1419.7223759840344
 21
165.71523628319994
  0
LINE
  8
_0-0_
  6
CONTINUOUS
 62
    2
 10
1439.72858546619
 20
165.71523628319994
 11
1452.7285854661895
 21
165.71523628319994
  0
LINE
  8
_0-0_
  6
CONTINUOUS
 62
    2
 10
1482.7273909061773
 20
165.71523628319994
 11
1495.7253465634878
 21
165.71523628319994
  0
LINE
  8
_0-0_
  6
CONTINUOUS
 62
    2
 10
1509.2515075526844
 20
165.71523628319994
 11
1522.2515075526844
 21
165.71523628319994
  0
LINE
  8
_0-0_
  6
CONTINUOUS
 62
    2
 10
1535.8788690209781
 20
165.71523628319994
 11
1548.8788690209785
 21
165.71523628319994
  0
LINE
  8
_0-0_
  6
CONTINUOUS
 62
    2
 10
1558.8788690209781
 20
165.71523628319994
 11
1571.8788690209785
 21
165.71523628319994
  0
LINE
  8
_0-0_
  6
CONTINUOUS
 62
    2
 10
1586.2790527984373
 20
165.71523628319994
 11
1599.2790527984378
 21
165.71523628319994
  0
LINE
  8
_0-0_
  6
CONTINUOUS
 62
    2
 10
1618.3582181464144
 20
165.71523628319994
 11
1631.3582181464142
 21
165.71523628319994
  0
LINE
  8
_0-0_
  6
CONTINUOUS
 62
    2
 10
1643.2307358326918
 20
165.71523628319994
 11
1656.2016982696746
 21
165.71523628319994
  0
LINE
  8
_0-0_
  6
CONTINUOUS
 62
    2
 10
1667.1458119226625
 20
165.71523628319994
 11
1678.1458119226627
 21
165.71523628319994
  0
LINE
  8
_0-0_
  6
CONTINUOUS
 62
    2
 10
1381.7095508050531
 20
167.7152362832021
 11
1394.7095508050527
 21
167.7152362832021
  0
LINE
  8
_0-0_
  6
CONTINUOUS
 62
    2
 10
1405.7897606677241
 20
167.7152362832021
 11
1418.7897606677243
 21
167.7152362832021
  0
LINE
  8
_0-0_
  6
CONTINUOUS
 62
    2
 10
1439.72858546619
 20
167.7152362832021
 11
1452.7285854661895
 21
167.7152362832021
  0
LINE
  8
_0-0_
  6
CONTINUOUS
 62
    2
 10
1482.7112852863977
 20
167.7152362832021
 11
1495.6847602392731
 21
167.7152362832021
  0
LINE
  8
_0-0_
  6
CONTINUOUS
 62
    2
 10
1508.3188922363747
 20
167.7152362832021
 11
1521.3188922363743
 21
167.7152362832021
  0
LINE
  8
_0-0_
  6
CONTINUOUS
 62
    2
 10
1536.8114843372882
 20
167.7152362832021
 11
1549.8114843372887
 21
167.7152362832021
  0
LINE
  8
_0-0_
  6
CONTINUOUS
 62
    2
 10
1559.8114843372882
 20
167.7152362832021
 11
1572.8114843372878
 21
167.7152362832021
  0
LINE
  8
_0-0_
  6
CONTINUOUS
 62
    2
 10
1585.3464374821281
 20
167.7152362832021
 11
1598.3464374821276
 21
167.7152362832021
  0
LINE
  8
_0-0_
  6
CONTINUOUS
 62
    2
 10
1618.3582181464144
 20
167.7152362832021
 11
1631.3582181464142
 21
167.7152362832021
  0
LINE
  8
_0-0_
  6
CONTINUOUS
 62
    2
 10
1641.9809971288735
 20
167.7152362832021
 11
1654.951959565856
 21
167.7152362832021
  0
LINE
  8
_0-0_
  6
CONTINUOUS
 62
    2
 10
1667.1458119226625
 20
167.7152362832021
 11
1678.1458119226627
 21
167.7152362832021
  0
LINE
  8
_0-0_
  6
CONTINUOUS
 62
    2
 10
1382.6421661213633
 20
169.71523628320085
 11
1395.6421661213628
 21
169.71523628320085
  0
LINE
  8
_0-0_
  6
CONTINUOUS
 62
    2
 10
1404.8571453514146
 20
169.71523628320085
 11
1417.8571453514141
 21
169.71523628320085
  0
LINE
  8
_0-0_
  6
CONTINUOUS
 62
    2
 10
1439.72858546619
 20
169.71523628320085
 11
1452.7285854661895
 21
169.71523628320085
  0
LINE
  8
_0-0_
  6
CONTINUOUS
 62
    2
 10
1482.6511109966177
 20
169.71523628320085
 11
1495.5679583077754
 21
169.71523628320085
  0
LINE
  8
_0-0_
  6
CONTINUOUS
 62
    2
 10
1507.3862769200646
 20
169.71523628320085
 11
1520.3862769200641
 21
169.71523628320085
  0
LINE
  8
_0-0_
  6
CONTINUOUS
 62
    2
 10
1537.7440996535981
 20
169.71523628320085
 11
1550.7440996535979
 21
169.71523628320085
  0
LINE
  8
_0-0_
  6
CONTINUOUS
 62
    2
 10
1560.7440996535984
 20
169.71523628320085
 11
1573.7440996535979
 21
169.71523628320085
  0
LINE
  8
_0-0_
  6
CONTINUOUS
 62
    2
 10
1584.4138221658179
 20
169.71523628320085
 11
1597.4138221658175
 21
169.71523628320085
  0
LINE
  8
_0-0_
  6
CONTINUOUS
 62
    2
 10
1618.3582181464144
 20
169.71523628320085
 11
1631.3582181464142
 21
169.71523628320085
  0
LINE
  8
_0-0_
  6
CONTINUOUS
 62
    2
 10
1640.7312584250544
 20
169.71523628320085
 11
1653.7022208620376
 21
169.71523628320085
  0
LINE
  8
_0-0_
  6
CONTINUOUS
 62
    2
 10
1667.1458119226625
 20
169.71523628320085
 11
1678.1458119226627
 21
169.71523628320085
  0
LINE
  8
_0-0_
  6
CONTINUOUS
 62
    2
 10
1383.5747814376728
 20
171.71523628320131
 11
1396.574781437673
 21
171.71523628320131
  0
LINE
  8
_0-0_
  6
CONTINUOUS
 62
    2
 10
1403.9245300351045
 20
171.71523628320131
 11
1416.924530035104
 21
171.71523628320131
  0
LINE
  8
_0-0_
  6
CONTINUOUS
 62
    2
 10
1439.72858546619
 20
171.71523628320131
 11
1452.7285854661895
 21
171.71523628320131
  0
LINE
  8
_0-0_
  6
CONTINUOUS
 62
    2
 10
1482.4914540548159
 20
171.71523628320131
 11
1495.3661398235813
 21
171.71523628320131
  0
LINE
  8
_0-0_
  6
CONTINUOUS
 62
    2
 10
1506.4536616037544
 20
171.71523628320131
 11
1519.4536616037547
 21
171.71523628320131
  0
LINE
  8
_0-0_
  6
CONTINUOUS
 62
    2
 10
1538.6767149699083
 20
171.71523628320131
 11
1551.6767149699081
 21
171.71523628320131
  0
LINE
  8
_0-0_
  6
CONTINUOUS
 62
    2
 10
1561.6767149699083
 20
171.71523628320131
 11
1574.6767149699081
 21
171.71523628320131
  0
LINE
  8
_0-0_
  6
CONTINUOUS
 62
    2
 10
1583.4812068495078
 20
171.71523628320131
 11
1596.4812068495078
 21
171.71523628320131
  0
LINE
  8
_0-0_
  6
CONTINUOUS
 62
    2
 10
1618.3582181464144
 20
171.71523628320131
 11
1631.3582181464142
 21
171.71523628320131
  0
LINE
  8
_0-0_
  6
CONTINUOUS
 62
    2
 10
1639.4815197212361
 20
171.71523628320131
 11
1652.4524821582188
 21
171.71523628320131
  0
LINE
  8
_0-0_
  6
CONTINUOUS
 62
    2
 10
1667.1458119226625
 20
171.71523628320131
 11
1678.1458119226627
 21
171.71523628320131
  0
LINE
  8
_0-0_
  6
CONTINUOUS
 62
    2
 10
1384.5073967539829
 20
173.71523628320119
 11
1397.5073967539831
 21
173.71523628320119
  0
LINE
  8
_0-0_
  6
CONTINUOUS
 62
    2
 10
1402.9919147187943
 20
173.71523628320119
 11
1415.9919147187943
 21
173.71523628320119
  0
LINE
  8
_0-0_
  6
CONTINUOUS
 62
    2
 10
1439.72858546619
 20
173.71523628320119
 11
1452.7285854661895
 21
173.71523628320119
  0
LINE
  8
_0-0_
  6
CONTINUOUS
 62
    2
 10
1482.2005376345189
 20
173.71523628320119
 11
1495.0725155707685
 21
173.71523628320119
  0
LINE
  8
_0-0_
  6
CONTINUOUS
 62
    2
 10
1505.5210462874443
 20
173.71523628320119
 11
1518.5210462874445
 21
173.71523628320119
  0
LINE
  8
_0-0_
  6
CONTINUOUS
 62
    2
 10
1539.6093302862184
 20
173.71523628320119
 11
1552.609330286218
 21
173.71523628320119
  0
LINE
  8
_0-0_
  6
CONTINUOUS
 62
    2
 10
1562.6093302862178
 20
173.71523628320119
 11
1575.6093302862182
 21
173.71523628320119
  0
LINE
  8
_0-0_
  6
CONTINUOUS
 62
    2
 10
1582.5485915331976
 20
173.71523628320119
 11
1595.5485915331976
 21
173.71523628320119
  0
LINE
  8
_0-0_
  6
CONTINUOUS
 62
    2
 10
1618.3582181464144
 20
173.71523628320119
 11
1631.3582181464142
 21
173.71523628320119
  0
LINE
  8
_0-0_
  6
CONTINUOUS
 62
    2
 10
1638.2317810174172
 20
173.71523628320119
 11
1651.2027434544004
 21
173.71523628320119
  0
LINE
  8
_0-0_
  6
CONTINUOUS
 62
    2
 10
1667.1458119226625
 20
173.71523628320119
 11
1678.1458119226627
 21
173.71523628320119
  0
LINE
  8
_0-0_
  6
CONTINUOUS
 62
    2
 10
1385.4400120702926
 20
175.71523628320108
 11
1398.4400120702933
 21
175.71523628320108
  0
LINE
  8
_0-0_
  6
CONTINUOUS
 62
    2
 10
1402.0592994024842
 20
175.71523628320108
 11
1415.0592994024842
 21
175.71523628320108
  0
LINE
  8
_0-0_
  6
CONTINUOUS
 62
    2
 10
1439.72858546619
 20
175.71523628320108
 11
1452.7285854661895
 21
175.71523628320108
  0
LINE
  8
_0-0_
  6
CONTINUOUS
 62
    2
 10
1481.7158351024218
 20
175.71523628320108
 11
1494.6990435783775
 21
175.71523628320108
  0
LINE
  8
_0-0_
  6
CONTINUOUS
 62
    2
 10
1504.5884309711341
 20
175.71523628320108
 11
1517.5884309711344
 21
175.71523628320108
  0
LINE
  8
_0-0_
  6
CONTINUOUS
 62
    2
 10
1540.5419456025286
 20
175.71523628320108
 11
1553.5419456025281
 21
175.71523628320108
  0
LINE
  8
_0-0_
  6
CONTINUOUS
 62
    2
 10
1563.5419456025279
 20
175.71523628320108
 11
1576.5419456025284
 21
175.71523628320108
  0
LINE
  8
_0-0_
  6
CONTINUOUS
 62
    2
 10
1581.6159762168875
 20
175.71523628320108
 11
1594.6159762168875
 21
175.71523628320108
  0
LINE
  8
_0-0_
  6
CONTINUOUS
 62
    2
 10
1618.3582181464144
 20
175.71523628320108
 11
1631.3582181464142
 21
175.71523628320108
  0
LINE
  8
_0-0_
  6
CONTINUOUS
 62
    2
 10
1636.9820423135982
 20
175.71523628320108
 11
1649.9530047505814
 21
175.71523628320108
  0
LINE
  8
_0-0_
  6
CONTINUOUS
 62
    2
 10
1667.1458119226625
 20
175.71523628320108
 11
1678.1458119226627
 21
175.71523628320108
  0
LINE
  8
_0-0_
  6
CONTINUOUS
 62
    2
 10
1386.3726273866027
 20
177.7152362832021
 11
1399.3726273866027
 21
177.7152362832021
  0
LINE
  8
_0-0_
  6
CONTINUOUS
 62
    2
 10
1401.126684086174
 20
177.7152362832021
 11
1414.126684086174
 21
177.7152362832021
  0
LINE
  8
_0-0_
  6
CONTINUOUS
 62
    2
 10
1439.72858546619
 20
177.7152362832021
 11
1452.7285854661895
 21
177.7152362832021
  0
LINE
  8
_0-0_
  6
CONTINUOUS
 62
    2
 10
1480.932116380319
 20
177.7152362832021
 11
1494.2469000371782
 21
177.7152362832021
  0
LINE
  8
_0-0_
  6
CONTINUOUS
 62
    2
 10
1503.6558156548247
 20
177.7152362832021
 11
1516.6558156548249
 21
177.7152362832021
  0
LINE
  8
_0-0_
  6
CONTINUOUS
 62
    2
 10
1541.4745609188387
 20
177.7152362832021
 11
1554.4745609188383
 21
177.7152362832021
  0
LINE
  8
_0-0_
  6
CONTINUOUS
 62
    2
 10
1564.4745609188381
 20
177.7152362832021
 11
1577.4745609188383
 21
177.7152362832021
  0
LINE
  8
_0-0_
  6
CONTINUOUS
 62
    2
 10
1580.6833609005778
 20
177.7152362832021
 11
1593.6833609005776
 21
177.7152362832021
  0
LINE
  8
_0-0_
  6
CONTINUOUS
 62
    2
 10
1618.3582181464144
 20
177.7152362832021
 11
1631.3582181464142
 21
177.7152362832021
  0
LINE
  8
_0-0_
  6
CONTINUOUS
 62
    2
 10
1635.7323036097796
 20
177.7152362832021
 11
1648.703266046763
 21
177.7152362832021
  0
LINE
  8
_0-0_
  6
CONTINUOUS
 62
    2
 10
1667.1458119226625
 20
177.7152362832021
 11
1678.1458119226627
 21
177.7152362832021
  0
LINE
  8
_0-0_
  6
CONTINUOUS
 62
    2
 10
1387.3052427029129
 20
179.71523628320085
 11
1413.1940687698645
 21
179.71523628320085
  0
LINE
  8
_0-0_
  6
CONTINUOUS
 62
    2
 10
1439.72858546619
 20
179.71523628320085
 11
1452.7285854661895
 21
179.71523628320085
  0
LINE
  8
_0-0_
  6
CONTINUOUS
 62
    2
 10
1479.7285854661895
 20
179.71523628320085
 11
1493.7285854661895
 21
179.71523628320085
  0
LINE
  8
_0-0_
  6
CONTINUOUS
 62
    2
 10
1502.7232003385145
 20
179.71523628320085
 11
1515.7232003385147
 21
179.71523628320085
  0
LINE
  8
_0-0_
  6
CONTINUOUS
 62
    2
 10
1542.4071762351482
 20
179.71523628320085
 11
1555.4071762351484
 21
179.71523628320085
  0
LINE
  8
_0-0_
  6
CONTINUOUS
 62
    2
 10
1565.4071762351482
 20
179.71523628320085
 11
1578.4071762351477
 21
179.71523628320085
  0
LINE
  8
_0-0_
  6
CONTINUOUS
 62
    2
 10
1579.7507455842676
 20
179.71523628320085
 11
1592.7507455842674
 21
179.71523628320085
  0
LINE
  8
_0-0_
  6
CONTINUOUS
 62
    2
 10
1618.3582181464144
 20
179.71523628320085
 11
1631.3582181464142
 21
179.71523628320085
  0
LINE
  8
_0-0_
  6
CONTINUOUS
 62
    2
 10
1634.4825649059615
 20
179.71523628320085
 11
1647.4535273429437
 21
179.71523628320085
  0
LINE
  8
_0-0_
  6
CONTINUOUS
 62
    2
 10
1667.1458119226625
 20
179.71523628320085
 11
1678.1458119226627
 21
179.71523628320085
  0
LINE
  8
_0-0_
  6
CONTINUOUS
 62
    2
 10
1388.237858019223
 20
181.71523628320131
 11
1412.2614534535544
 21
181.71523628320131
  0
LINE
  8
_0-0_
  6
CONTINUOUS
 62
    2
 10
1439.72858546619
 20
181.71523628320131
 11
1452.7285854661895
 21
181.71523628320131
  0
LINE
  8
_0-0_
  6
CONTINUOUS
 62
    2
 10
1477.6040851951934
 20
181.71523628320131
 11
1493.1005716974178
 21
181.71523628320131
  0
LINE
  8
_0-0_
  6
CONTINUOUS
 62
    2
 10
1501.7905850222044
 20
181.71523628320131
 11
1514.7905850222046
 21
181.71523628320131
  0
LINE
  8
_0-0_
  6
CONTINUOUS
 62
    2
 10
1543.3397915514583
 20
181.71523628320131
 11
1556.3397915514586
 21
181.71523628320131
  0
LINE
  8
_0-0_
  6
CONTINUOUS
 62
    2
 10
1566.3397915514583
 20
181.71523628320131
 11
1591.8181302679573
 21
181.71523628320131
  0
LINE
  8
_0-0_
  6
CONTINUOUS
 62
    2
 10
1618.3582181464144
 20
181.71523628320131
 11
1631.3582181464142
 21
181.71523628320131
  0
LINE
  8
_0-0_
  6
CONTINUOUS
 62
    2
 10
1633.2328262021426
 20
181.71523628320131
 11
1646.2037886391258
 21
181.71523628320131
  0
LINE
  8
_0-0_
  6
CONTINUOUS
 62
    2
 10
1667.1458119226625
 20
181.71523628320131
 11
1678.1458119226627
 21
181.71523628320131
  0
LINE
  8
_0-0_
  6
CONTINUOUS
 62
    2
 10
1389.1704733355332
 20
183.71523628320062
 11
1411.3288381372442
 21
183.71523628320062
  0
LINE
  8
_0-0_
  6
CONTINUOUS
 62
    2
 10
1439.72858546619
 20
183.71523628320062
 11
1452.7285854661895
 21
183.71523628320062
  0
LINE
  8
_0-0_
  6
CONTINUOUS
 62
    2
 10
1474.5252407135258
 20
183.71523628320062
 11
1492.2699555072356
 21
183.71523628320062
  0
LINE
  8
_0-0_
  6
CONTINUOUS
 62
    2
 10
1500.8579697058949
 20
183.71523628320062
 11
1513.8579697058944
 21
183.71523628320062
  0
LINE
  8
_0-0_
  6
CONTINUOUS
 62
    2
 10
1544.2724068677676
 20
183.71523628320062
 11
1557.2724068677687
 21
183.71523628320062
  0
LINE
  8
_0-0_
  6
CONTINUOUS
 62
    2
 10
1567.272406867768
 20
183.71523628320062
 11
1590.8855149516471
 21
183.71523628320062
  0
LINE
  8
_0-0_
  6
CONTINUOUS
 62
    2
 10
1618.3582181464144
 20
183.71523628320062
 11
1631.3582181464142
 21
183.71523628320062
  0
LINE
  8
_0-0_
  6
CONTINUOUS
 62
    2
 10
1631.983087498324
 20
183.71523628320062
 11
1644.9540499353068
 21
183.71523628320062
  0
LINE
  8
_0-0_
  6
CONTINUOUS
 62
    2
 10
1667.1458119226625
 20
183.71523628320062
 11
1678.1458119226627
 21
183.71523628320062
  0
LINE
  8
_0-0_
  6
CONTINUOUS
 62
    2
 10
1390.1030886518433
 20
185.71523628320108
 11
1410.3962228209341
 21
185.71523628320108
  0
LINE
  8
_0-0_
  6
CONTINUOUS
 62
    2
 10
1439.72858546619
 20
185.71523628320108
 11
1491.0391449229146
 21
185.71523628320108
  0
LINE
  8
_0-0_
  6
CONTINUOUS
 62
    2
 10
1499.9253543895848
 20
185.71523628320108
 11
1512.9253543895843
 21
185.71523628320108
  0
LINE
  8
_0-0_
  6
CONTINUOUS
 62
    2
 10
1545.2050221840777
 20
185.71523628320108
 11
1558.2050221840782
 21
185.71523628320108
  0
LINE
  8
_0-0_
  6
CONTINUOUS
 62
    2
 10
1568.2050221840782
 20
185.71523628320108
 11
1589.952899635337
 21
185.71523628320108
  0
LINE
  8
_0-0_
  6
CONTINUOUS
 62
    2
 10
1618.3582181464144
 20
185.71523628320108
 11
1643.7043112314882
 21
185.71523628320108
  0
LINE
  8
_0-0_
  6
CONTINUOUS
 62
    2
 10
1667.1458119226625
 20
185.71523628320108
 11
1678.1458119226627
 21
185.71523628320108
  0
LINE
  8
_0-0_
  6
CONTINUOUS
 62
    2
 10
1391.0357039681528
 20
187.71523628320153
 11
1409.463607504624
 21
187.71523628320153
  0
LINE
  8
_0-0_
  6
CONTINUOUS
 62
    2
 10
1439.72858546619
 20
187.71523628320153
 11
1489.1475335704599
 21
187.71523628320153
  0
LINE
  8
_0-0_
  6
CONTINUOUS
 62
    2
 10
1498.9927390732746
 20
187.71523628320153
 11
1511.9927390732744
 21
187.71523628320153
  0
LINE
  8
_0-0_
  6
CONTINUOUS
 62
    2
 10
1546.1376375003879
 20
187.71523628320153
 11
1559.1376375003883
 21
187.71523628320153
  0
LINE
  8
_0-0_
  6
CONTINUOUS
 62
    2
 10
1569.1376375003883
 20
187.71523628320153
 11
1589.0202843190268
 21
187.71523628320153
  0
LINE
  8
_0-0_
  6
CONTINUOUS
 62
    2
 10
1618.3582181464144
 20
187.71523628320153
 11
1642.4545725276696
 21
187.71523628320153
  0
LINE
  8
_0-0_
  6
CONTINUOUS
 62
    2
 10
1667.1458119226625
 20
187.71523628320153
 11
1678.1458119226627
 21
187.71523628320153
  0
LINE
  8
_0-0_
  6
CONTINUOUS
 62
    2
 10
1391.9683192844625
 20
189.71523628320085
 11
1408.5309921883143
 21
189.71523628320085
  0
LINE
  8
_0-0_
  6
CONTINUOUS
 62
    2
 10
1439.72858546619
 20
189.71523628320085
 11
1486.3698749550829
 21
189.71523628320085
  0
LINE
  8
_0-0_
  6
CONTINUOUS
 62
    2
 10
1498.0601237569645
 20
189.71523628320085
 11
1511.0601237569642
 21
189.71523628320085
  0
LINE
  8
_0-0_
  6
CONTINUOUS
 62
    2
 10
1547.070252816698
 20
189.71523628320085
 11
1560.0702528166976
 21
189.71523628320085
  0
LINE
  8
_0-0_
  6
CONTINUOUS
 62
    2
 10
1570.070252816698
 20
189.71523628320085
 11
1588.0876690027176
 21
189.71523628320085
  0
LINE
  8
_0-0_
  6
CONTINUOUS
 62
    2
 10
1618.3582181464144
 20
189.71523628320085
 11
1641.2048338238512
 21
189.71523628320085
  0
LINE
  8
_0-0_
  6
CONTINUOUS
 62
    2
 10
1667.1458119226625
 20
189.71523628320085
 11
1678.1458119226627
 21
189.71523628320085
  0
LINE
  8
_0-0_
  6
CONTINUOUS
 62
    2
 10
1392.9009346007726
 20
191.71523628320017
 11
1407.5983768720041
 21
191.71523628320017
  0
LINE
  8
_0-0_
  6
CONTINUOUS
 62
    2
 10
1439.72858546619
 20
191.71523628320017
 11
1482.3592154739001
 21
191.71523628320017
  0
LINE
  8
_0-0_
  6
CONTINUOUS
 62
    2
 10
1497.1275084406543
 20
191.71523628320017
 11
1510.127508440655
 21
191.71523628320017
  0
LINE
  8
_0-0_
  6
CONTINUOUS
 62
    2
 10
1548.0028681330082
 20
191.71523628320017
 11
1561.0028681330077
 21
191.71523628320017
  0
LINE
  8
_0-0_
  6
CONTINUOUS
 62
    2
 10
1571.0028681330082
 20
191.71523628320017
 11
1587.1550536864074
 21
191.71523628320017
  0
LINE
  8
_0-0_
  6
CONTINUOUS
 62
    2
 10
1618.3582181464144
 20
191.71523628320017
 11
1639.9550951200322
 21
191.71523628320017
  0
LINE
  8
_0-0_
  6
CONTINUOUS
 62
    2
 10
1667.1458119226625
 20
191.71523628320017
 11
1678.1458119226627
 21
191.71523628320017
  0
LINE
  8
_0-0_
  6
CONTINUOUS
 62
    2
 10
1393.8335499170828
 20
193.71523628320062
 11
1406.6657615556946
 21
193.71523628320062
  0
LINE
  8
_0-0_
  6
CONTINUOUS
 62
    2
 10
1439.72858546619
 20
193.71523628320062
 11
1476.4752587775565
 21
193.71523628320062
  0
LINE
  8
_0-0_
  6
CONTINUOUS
 62
    2
 10
1496.1948931243444
 20
193.71523628320062
 11
1509.1948931243448
 21
193.71523628320062
  0
LINE
  8
_0-0_
  6
CONTINUOUS
 62
    2
 10
1548.9354834493183
 20
193.71523628320062
 11
1561.9354834493179
 21
193.71523628320062
  0
LINE
  8
_0-0_
  6
CONTINUOUS
 62
    2
 10
1571.9354834493183
 20
193.71523628320062
 11
1586.2224383700977
 21
193.71523628320062
  0
LINE
  8
_0-0_
  6
CONTINUOUS
 62
    2
 10
1618.3582181464144
 20
193.71523628320062
 11
1638.7053564162138
 21
193.71523628320062
  0
LINE
  8
_0-0_
  6
CONTINUOUS
 62
    2
 10
1667.1458119226625
 20
193.71523628320062
 11
1678.1458119226627
 21
193.71523628320062
  0
LINE
  8
_0-0_
  6
CONTINUOUS
 62
    7
 10
1259.3909576693918
 20
138.40458346444734
 11
1301.4294556913719
 21
138.40458346444734
  0
LINE
  8
_0-0_
  6
CONTINUOUS
 62
    7
 10
1259.3909576693918
 20
139.40458346444757
 11
1301.4294556913719
 21
139.40458346444757
  0
LINE
  8
_0-0_
  6
CONTINUOUS
 62
    7
 10
1259.3909576693918
 20
140.40458346444666
 11
1301.4294556913719
 21
140.40458346444666
  0
LINE
  8
_0-0_
  6
CONTINUOUS
 62
    7
 10
1259.3909576693918
 20
141.40458346444632
 11
1301.4294556913719
 21
141.40458346444632
  0
LINE
  8
_0-0_
  6
CONTINUOUS
 62
    7
 10
1259.3909576693918
 20
142.40458346444655
 11
1301.4294556913719
 21
142.40458346444655
  0
LINE
  8
_0-0_
  6
CONTINUOUS
 62
    7
 10
1259.3909576693918
 20
143.40458346444677
 11
1301.4294556913719
 21
143.40458346444677
  0
LINE
  8
_0-0_
  6
CONTINUOUS
 62
    7
 10
1259.3909576693918
 20
144.40458346444757
 11
1301.4294556913719
 21
144.40458346444757
  0
LINE
  8
_0-0_
  6
CONTINUOUS
 62
    7
 10
1259.3909576693918
 20
145.40458346444666
 11
1301.4294556913719
 21
145.40458346444666
  0
LINE
  8
_0-0_
  6
CONTINUOUS
 62
    7
 10
1259.3909576693918
 20
146.40458346444632
 11
1301.4294556913719
 21
146.40458346444632
  0
LINE
  8
_0-0_
  6
CONTINUOUS
 62
    7
 10
1259.3909576693918
 20
147.40458346444541
 11
1301.4294556913719
 21
147.40458346444541
  0
LINE
  8
_0-0_
  6
CONTINUOUS
 62
    7
 10
1259.3909576693918
 20
148.40458346444677
 11
1301.4294556913719
 21
148.40458346444677
  0
LINE
  8
_0-0_
  6
CONTINUOUS
 62
    7
 10
1259.3909576693918
 20
149.40458346444586
 11
1301.4294556913719
 21
149.40458346444586
  0
LINE
  8
_0-0_
  6
CONTINUOUS
 62
    7
 10
1259.3909576693918
 20
150.40458346444666
 11
1301.4294556913719
 21
150.40458346444666
  0
LINE
  8
_0-0_
  6
CONTINUOUS
 62
    7
 10
1259.3909576693918
 20
151.40458346444632
 11
1301.4294556913719
 21
151.40458346444632
  0
LINE
  8
_0-0_
  6
CONTINUOUS
 62
    7
 10
1259.3909576693918
 20
152.40458346444541
 11
1301.4294556913719
 21
152.40458346444541
  0
LINE
  8
_0-0_
  6
CONTINUOUS
 62
    7
 10
1259.3909576693918
 20
153.40458346444677
 11
1301.4294556913719
 21
153.40458346444677
  0
LINE
  8
_0-0_
  6
CONTINUOUS
 62
    7
 10
1259.3909576693918
 20
154.40458346444586
 11
1301.4294556913719
 21
154.40458346444586
  0
LINE
  8
_0-0_
  6
CONTINUOUS
 62
    7
 10
1259.3909576693918
 20
155.40458346444609
 11
1301.4294556913719
 21
155.40458346444609
  0
LINE
  8
_0-0_
  6
CONTINUOUS
 62
    7
 10
1259.3909576693918
 20
156.40458346444518
 11
1301.4294556913719
 21
156.40458346444518
  0
LINE
  8
_0-0_
  6
CONTINUOUS
 62
    7
 10
1259.3909576693918
 20
157.40458346444541
 11
1301.4294556913719
 21
157.40458346444541
  0
LINE
  8
_0-0_
  6
CONTINUOUS
 62
    7
 10
1259.3909576693918
 20
158.40458346444564
 11
1301.4294556913719
 21
158.40458346444564
  0
LINE
  8
_0-0_
  6
CONTINUOUS
 62
    7
 10
1259.3909576693918
 20
159.40458346444586
 11
1301.4294556913719
 21
159.40458346444586
  0
LINE
  8
_0-0_
  6
CONTINUOUS
 62
    7
 10
1259.3909576693918
 20
160.40458346444609
 11
1301.4294556913719
 21
160.40458346444609
  0
LINE
  8
_0-0_
  6
CONTINUOUS
 62
    7
 10
1259.3909576693918
 20
161.40458346444518
 11
1301.4294556913719
 21
161.40458346444518
  0
LINE
  8
_0-0_
  6
CONTINUOUS
 62
    7
 10
1259.3909576693918
 20
162.40458346444541
 11
1301.4294556913719
 21
162.40458346444541
  0
LINE
  8
_0-0_
  6
CONTINUOUS
 62
    7
 10
1259.3909576693918
 20
163.4045834644445
 11
1301.4294556913719
 21
163.4045834644445
  0
LINE
  8
_0-0_
  6
CONTINUOUS
 62
    7
 10
1259.3909576693918
 20
164.40458346444586
 11
1301.4294556913719
 21
164.40458346444586
  0
LINE
  8
_0-0_
  6
CONTINUOUS
 62
    7
 10
1259.3909576693918
 20
165.40458346444495
 11
1301.4294556913719
 21
165.40458346444495
  0
LINE
  8
_0-0_
  6
CONTINUOUS
 62
    7
 10
1259.3909576693918
 20
166.40458346444461
 11
1301.4294556913719
 21
166.40458346444461
  0
LINE
  8
_0-0_
  6
CONTINUOUS
 62
    7
 10
1259.3909576693918
 20
167.40458346444541
 11
1301.4294556913719
 21
167.40458346444541
  0
LINE
  8
_0-0_
  6
CONTINUOUS
 62
    7
 10
1259.3909576693918
 20
168.40458346444564
 11
1301.4294556913719
 21
168.40458346444564
  0
LINE
  8
_0-0_
  6
CONTINUOUS
 62
    7
 10
1259.3909576693918
 20
169.40458346444473
 11
1301.4294556913719
 21
169.40458346444473
  0
LINE
  8
_0-0_
  6
CONTINUOUS
 62
    7
 10
1259.3909576693918
 20
170.40458346444495
 11
1301.4294556913719
 21
170.40458346444495
  0
LINE
  8
_0-0_
  6
CONTINUOUS
 62
    7
 10
1259.3909576693918
 20
171.40458346444461
 11
1301.4294556913719
 21
171.40458346444461
  0
LINE
  8
_0-0_
  6
CONTINUOUS
 62
    7
 10
1259.3909576693918
 20
172.40458346444541
 11
1301.4294556913719
 21
172.40458346444541
  0
LINE
  8
_0-0_
  6
CONTINUOUS
 62
    7
 10
1259.3909576693918
 20
173.40458346444564
 11
1301.4294556913719
 21
173.40458346444564
  0
LINE
  8
_0-0_
  6
CONTINUOUS
 62
    7
 10
1259.3909576693918
 20
174.40458346444473
 11
1301.4294556913719
 21
174.40458346444473
  0
LINE
  8
_0-0_
  6
CONTINUOUS
 62
    7
 10
1259.3909576693918
 20
175.40458346444495
 11
1301.4294556913719
 21
175.40458346444495
  0
LINE
  8
_0-0_
  6
CONTINUOUS
 62
    7
 10
1259.3909576693918
 20
176.40458346444461
 11
1301.4294556913719
 21
176.40458346444461
  0
LINE
  8
_0-0_
  6
CONTINUOUS
 62
    7
 10
1259.3909576693918
 20
177.40458346444541
 11
1301.4294556913719
 21
177.40458346444541
  0
LINE
  8
_0-0_
  6
CONTINUOUS
 62
    7
 10
1259.3909576693918
 20
178.4045834644445
 11
1301.4294556913719
 21
178.4045834644445
  0
LINE
  8
_0-0_
  6
CONTINUOUS
 62
    7
 10
1259.3909576693918
 20
179.40458346444473
 11
1301.4294556913719
 21
179.40458346444473
  0
LINE
  8
_0-0_
  6
CONTINUOUS
 62
    7
 10
1354.2025831085502
 20
226.40458346444603
 11
1368.8381607267602
 21
226.40458346444603
  0
LINE
  8
_0-0_
  6
CONTINUOUS
 62
    7
 10
1351.4795988657042
 20
228.40458346444507
 11
1371.5611449696062
 21
228.40458346444507
  0
LINE
  8
_0-0_
  6
CONTINUOUS
 62
    7
 10
1349.68465419936
 20
230.40458346444581
 11
1373.3560896359504
 21
230.40458346444581
  0
LINE
  8
_0-0_
  6
CONTINUOUS
 62
    7
 10
1348.4302495219945
 20
232.40458346444498
 11
1374.6104943133159
 21
232.40458346444498
  0
LINE
  8
_0-0_
  6
CONTINUOUS
 62
    7
 10
1347.5698022246306
 20
234.40458346444643
 11
1375.4709416106798
 21
234.40458346444643
  0
LINE
  8
_0-0_
  6
CONTINUOUS
 62
    7
 10
1347.0329468467262
 20
236.4045834644449
 11
1376.0077969885842
 21
236.4045834644449
  0
LINE
  8
_0-0_
  6
CONTINUOUS
 62
    7
 10
1346.7842742112643
 20
238.40458346444521
 11
1376.2564696240461
 21
238.40458346444521
  0
LINE
  8
_0-0_
  6
CONTINUOUS
 62
    7
 10
1346.8091630605031
 20
240.40458346444481
 11
1376.2315807748073
 21
240.40458346444481
  0
LINE
  8
_0-0_
  6
CONTINUOUS
 62
    7
 10
1347.1090306731699
 20
242.40458346444512
 11
1375.931713162141
 21
242.40458346444512
  0
LINE
  8
_0-0_
  6
CONTINUOUS
 62
    7
 10
1347.7017668183239
 20
244.40458346444444
 11
1375.338977016987
 21
244.40458346444444
  0
LINE
  8
_0-0_
  6
CONTINUOUS
 62
    7
 10
1348.6277020111866
 20
246.40458346444504
 11
1374.4130418241239
 21
246.40458346444504
  0
LINE
  8
_0-0_
  6
CONTINUOUS
 62
    7
 10
1349.9666700111866
 20
248.40458346444535
 11
1373.0740738241238
 21
248.40458346444535
  0
LINE
  8
_0-0_
  6
CONTINUOUS
 62
    7
 10
1351.8894260570469
 20
250.40458346444495
 11
1371.1513177782635
 21
250.40458346444495
  0
LINE
  8
_0-0_
  6
CONTINUOUS
 62
    7
 10
1354.885448512201
 20
252.40458346444385
 11
1368.1552953231094
 21
252.40458346444385
  0
LINE
  8
_0-0_
  6
CONTINUOUS
 62
    7
 10
1375.5024927994086
 20
234.4969525371225
 11
1375.5024927994086
 21
243.94575960490585
  0
LINE
  8
_0-0_
  6
CONTINUOUS
 62
    7
 10
1373.5024927994086
 20
230.60460074906842
 11
1373.5024927994086
 21
247.83811139295992
  0
LINE
  8
_0-0_
  6
CONTINUOUS
 62
    7
 10
1371.5024927994089
 20
228.35043358002054
 11
1371.5024927994089
 21
250.09227856200823
  0
LINE
  8
_0-0_
  6
CONTINUOUS
 62
    7
 10
1369.5024927994089
 20
226.80743488017725
 11
1369.5024927994089
 21
251.63527726185094
  0
LINE
  8
_0-0_
  6
CONTINUOUS
 62
    7
 10
1367.5024927994091
 20
225.72936130154886
 11
1367.5024927994091
 21
252.71335084047934
  0
LINE
  8
_0-0_
  6
CONTINUOUS
 62
    7
 10
1365.5024927994086
 20
225.01000826771246
 11
1365.5024927994086
 21
253.4327038743163
  0
LINE
  8
_0-0_
  6
CONTINUOUS
 62
    7
 10
1363.5024927994086
 20
224.59634701416107
 11
1363.5024927994086
 21
253.84636512786784
  0
LINE
  8
_0-0_
  6
CONTINUOUS
 62
    7
 10
1361.5024927994089
 20
224.46265106548026
 11
1361.5024927994089
 21
253.98006107654851
  0
LINE
  8
_0-0_
  6
CONTINUOUS
 62
    7
 10
1300.5024927994086
 20
138.19895418957401
 11
1300.5024927994086
 21
180.29664629699312
  0
LINE
  8
_0-0_
  6
CONTINUOUS
 62
    7
 10
1299.5024927994089
 20
138.19895418957401
 11
1299.5024927994089
 21
180.29664629699312
  0
LINE
  8
_0-0_
  6
CONTINUOUS
 62
    7
 10
1298.5024927994091
 20
138.19895418957401
 11
1298.5024927994091
 21
180.29664629699312
  0
LINE
  8
_0-0_
  6
CONTINUOUS
 62
    7
 10
1297.5024927994084
 20
138.19895418957401
 11
1297.5024927994091
 21
180.29664629699312
  0
LINE
  8
_0-0_
  6
CONTINUOUS
 62
    7
 10
1296.5024927994089
 20
138.19895418957401
 11
1296.5024927994089
 21
180.29664629699312
  0
LINE
  8
_0-0_
  6
CONTINUOUS
 62
    7
 10
1295.5024927994082
 20
138.19895418957401
 11
1295.5024927994082
 21
180.29664629699312
  0
LINE
  8
_0-0_
  6
CONTINUOUS
 62
    7
 10
1294.5024927994089
 20
138.19895418957401
 11
1294.5024927994089
 21
180.29664629699312
  0
LINE
  8
_0-0_
  6
CONTINUOUS
 62
    7
 10
1293.5024927994086
 20
138.19895418957401
 11
1293.5024927994086
 21
180.29664629699312
  0
LINE
  8
_0-0_
  6
CONTINUOUS
 62
    7
 10
1292.5024927994086
 20
138.19895418957401
 11
1292.5024927994086
 21
180.29664629699312
  0
LINE
  8
_0-0_
  6
CONTINUOUS
 62
    7
 10
1291.5024927994089
 20
138.19895418957401
 11
1291.5024927994089
 21
180.29664629699312
  0
LINE
  8
_0-0_
  6
CONTINUOUS
 62
    7
 10
1290.5024927994086
 20
138.19895418957401
 11
1290.5024927994086
 21
180.29664629699312
  0
LINE
  8
_0-0_
  6
CONTINUOUS
 62
    7
 10
1289.5024927994082
 20
138.19895418957401
 11
1289.5024927994082
 21
180.29664629699312
  0
LINE
  8
_0-0_
  6
CONTINUOUS
 62
    7
 10
1288.5024927994091
 20
138.19895418957401
 11
1288.5024927994091
 21
180.29664629699312
  0
LINE
  8
_0-0_
  6
CONTINUOUS
 62
    7
 10
1287.5024927994091
 20
138.19895418957401
 11
1287.5024927994091
 21
180.29664629699312
  0
LINE
  8
_0-0_
  6
CONTINUOUS
 62
    7
 10
1286.5024927994086
 20
138.19895418957401
 11
1286.5024927994086
 21
180.29664629699312
  0
LINE
  8
_0-0_
  6
CONTINUOUS
 62
    7
 10
1285.5024927994086
 20
138.19895418957401
 11
1285.5024927994086
 21
180.29664629699312
  0
LINE
  8
_0-0_
  6
CONTINUOUS
 62
    7
 10
1284.5024927994089
 20
138.19895418957401
 11
1284.5024927994089
 21
180.29664629699312
  0
LINE
  8
_0-0_
  6
CONTINUOUS
 62
    7
 10
1283.5024927994084
 20
138.19895418957401
 11
1283.5024927994084
 21
180.29664629699312
  0
LINE
  8
_0-0_
  6
CONTINUOUS
 62
    7
 10
1282.5024927994086
 20
138.19895418957401
 11
1282.5024927994086
 21
180.29664629699312
  0
LINE
  8
_0-0_
  6
CONTINUOUS
 62
    7
 10
1281.5024927994089
 20
138.19895418957401
 11
1281.5024927994089
 21
180.29664629699312
  0
LINE
  8
_0-0_
  6
CONTINUOUS
 62
    7
 10
1280.5024927994082
 20
138.19895418957401
 11
1280.5024927994082
 21
180.29664629699312
  0
LINE
  8
_0-0_
  6
CONTINUOUS
 62
    7
 10
1279.5024927994086
 20
138.19895418957401
 11
1279.5024927994086
 21
180.29664629699312
  0
LINE
  8
_0-0_
  6
CONTINUOUS
 62
    7
 10
1278.5024927994086
 20
138.19895418957401
 11
1278.5024927994086
 21
180.29664629699312
  0
LINE
  8
_0-0_
  6
CONTINUOUS
 62
    7
 10
1277.5024927994091
 20
138.19895418957401
 11
1277.5024927994091
 21
180.29664629699312
  0
LINE
  8
_0-0_
  6
CONTINUOUS
 62
    7
 10
1276.5024927994086
 20
138.19895418957401
 11
1276.5024927994086
 21
180.29664629699312
  0
LINE
  8
_0-0_
  6
CONTINUOUS
 62
    7
 10
1275.5024927994086
 20
138.19895418957401
 11
1275.5024927994086
 21
180.29664629699312
  0
LINE
  8
_0-0_
  6
CONTINUOUS
 62
    7
 10
1274.5024927994089
 20
138.19895418957401
 11
1274.5024927994089
 21
180.29664629699312
  0
LINE
  8
_0-0_
  6
CONTINUOUS
 62
    7
 10
1273.5024927994091
 20
138.19895418957401
 11
1273.5024927994091
 21
180.29664629699312
  0
LINE
  8
_0-0_
  6
CONTINUOUS
 62
    7
 10
1272.5024927994091
 20
138.19895418957401
 11
1272.5024927994091
 21
180.29664629699312
  0
LINE
  8
_0-0_
  6
CONTINUOUS
 62
    7
 10
1271.5024927994089
 20
138.19895418957401
 11
1271.5024927994089
 21
180.29664629699312
  0
LINE
  8
_0-0_
  6
CONTINUOUS
 62
    7
 10
1270.5024927994082
 20
138.19895418957401
 11
1270.5024927994082
 21
180.29664629699312
  0
LINE
  8
_0-0_
  6
CONTINUOUS
 62
    7
 10
1269.5024927994089
 20
138.19895418957401
 11
1269.5024927994089
 21
180.29664629699312
  0
LINE
  8
_0-0_
  6
CONTINUOUS
 62
    7
 10
1268.5024927994086
 20
138.19895418957401
 11
1268.5024927994086
 21
180.29664629699312
  0
LINE
  8
_0-0_
  6
CONTINUOUS
 62
    7
 10
1267.5024927994089
 20
138.19895418957401
 11
1267.5024927994089
 21
180.29664629699312
  0
LINE
  8
_0-0_
  6
CONTINUOUS
 62
    7
 10
1266.5024927994089
 20
138.19895418957401
 11
1266.5024927994089
 21
180.29664629699312
  0
LINE
  8
_0-0_
  6
CONTINUOUS
 62
    7
 10
1265.5024927994091
 20
138.19895418957401
 11
1265.5024927994091
 21
180.29664629699312
  0
LINE
  8
_0-0_
  6
CONTINUOUS
 62
    7
 10
1264.5024927994082
 20
138.19895418957401
 11
1264.5024927994082
 21
180.29664629699312
  0
LINE
  8
_0-0_
  6
CONTINUOUS
 62
    7
 10
1263.5024927994086
 20
138.19895418957401
 11
1263.5024927994086
 21
180.29664629699312
  0
LINE
  8
_0-0_
  6
CONTINUOUS
 62
    7
 10
1262.5024927994091
 20
138.19895418957401
 11
1262.5024927994091
 21
180.29664629699312
  0
LINE
  8
_0-0_
  6
CONTINUOUS
 62
    7
 10
1261.5024927994086
 20
138.19895418957401
 11
1261.5024927994086
 21
180.29664629699312
  0
LINE
  8
_0-0_
  6
CONTINUOUS
 62
    7
 10
1260.5024927994086
 20
138.19895418957401
 11
1260.5024927994086
 21
180.29664629699312
  0
LINE
  8
_0-0_
  6
CONTINUOUS
 62
    7
 10
1259.5024927994089
 20
138.19895418957401
 11
1259.5024927994089
 21
180.29664629699312
  0
LINE
  8
_0-0_
  6
CONTINUOUS
 62
    4
 10
1282.499968274253
 20
211.06798012640326
 11
1225.5983843728354
 21
136.9797953731296
  0
LINE
  8
_0-0_
  6
CONTINUOUS
 62
    4
 10
1225.5983843728354
 20
136.9797953731296
 11
1220.0243516641244
 21
134.65728174449907
  0
LINE
  8
_0-0_
  6
CONTINUOUS
 62
    4
 10
1220.0243516641244
 20
134.65728174449907
 11
1214.9148216811407
 21
132.79927084159681
  0
LINE
  8
_0-0_
  6
CONTINUOUS
 62
    4
 10
1214.9148216811407
 20
132.79927084159681
 11
1212.1278053267858
 21
135.35403583308778
  0
LINE
  8
_0-0_
  6
CONTINUOUS
 62
    4
 10
1212.1278053267858
 20
135.35403583308778
 11
1209.8052916981565
 21
138.60555491316916
  0
LINE
  8
_0-0_
  6
CONTINUOUS
 62
    4
 10
1209.8052916981565
 20
138.60555491316916
 11
1207.947280795252
 21
144.87634171046807
  0
LINE
  8
_0-0_
  6
CONTINUOUS
 62
    4
 10
1207.947280795252
 20
144.87634171046807
 11
1209.8052916981565
 21
150.68262578204212
  0
LINE
  8
_0-0_
  6
CONTINUOUS
 62
    4
 10
1209.8052916981565
 20
150.68262578204212
 11
1216.7728325840437
 21
160.66943438514784
  0
LINE
  8
_0-0_
  6
CONTINUOUS
 62
    4
 10
1216.7728325840437
 20
160.66943438514784
 11
1269.2616405910665
 21
231.73835142120424
  0
LINE
  8
_0-0_
  6
CONTINUOUS
 62
    4
 10
1269.2616405910665
 20
231.73835142120424
 11
1269.2616405910665
 21
236.8478814041876
  0
LINE
  8
_0-0_
  6
CONTINUOUS
 62
    4
 10
1269.2616405910665
 20
236.8478814041876
 11
1270.6551487682439
 21
240.09940048426898
  0
LINE
  8
_0-0_
  6
CONTINUOUS
 62
    4
 10
1270.6551487682439
 20
240.09940048426898
 11
1274.3711705740502
 21
244.27992501580206
  0
LINE
  8
_0-0_
  6
CONTINUOUS
 62
    4
 10
1274.3711705740502
 20
244.27992501580206
 11
1275.5324273883652
 21
245.4411818301152
  0
LINE
  8
_0-0_
  6
CONTINUOUS
 62
    4
 10
1275.5324273883652
 20
245.4411818301152
 11
1277.6226896541318
 21
248.46044954733458
  0
LINE
  8
_0-0_
  6
CONTINUOUS
 62
    4
 10
1277.6226896541318
 20
248.46044954733458
 11
1281.1064600970753
 21
248.92495227306
  0
LINE
  8
_0-0_
  6
CONTINUOUS
 62
    4
 10
1281.1064600970753
 20
248.92495227306
 11
1287.1449955315115
 21
250.08620908737512
  0
LINE
  8
_0-0_
  6
CONTINUOUS
 62
    4
 10
1287.1449955315115
 20
250.08620908737512
 11
1289.4675091601407
 21
249.8539577245117
  0
LINE
  8
_0-0_
  6
CONTINUOUS
 62
    4
 10
1289.4675091601407
 20
249.8539577245117
 11
1294.3447877802625
 21
248.2281981844713
  0
LINE
  8
_0-0_
  6
CONTINUOUS
 62
    4
 10
1294.3447877802625
 20
248.2281981844713
 11
1296.2027986831658
 21
245.90568455584275
  0
LINE
  8
_0-0_
  6
CONTINUOUS
 62
    4
 10
1296.2027986831658
 20
245.90568455584275
 11
1301.3123286661503
 21
239.170395032817
  0
LINE
  8
_0-0_
  6
CONTINUOUS
 62
    4
 10
1301.3123286661503
 20
239.170395032817
 11
1317.1054213408295
 21
212.92599102930609
  0
LINE
  8
_0-0_
  6
CONTINUOUS
 62
    4
 10
1328.2940493486851
 20
194.0245639282324
 11
1350.7727661589772
 21
155.2210202747159
  0
LINE
  8
_0-0_
  6
CONTINUOUS
 62
    4
 10
1350.7727661589772
 20
155.2210202747159
 11
1352.9283084830624
 21
149.67819715563962
  0
LINE
  8
_0-0_
  6
CONTINUOUS
 62
    4
 10
1352.9283084830624
 20
149.67819715563962
 11
1352.0045046298831
 21
146.90678559610262
  0
LINE
  8
_0-0_
  6
CONTINUOUS
 62
    4
 10
1352.0045046298831
 20
146.90678559610262
 11
1349.2330930703454
 21
143.05760287452188
  0
LINE
  8
_0-0_
  6
CONTINUOUS
 62
    4
 10
1349.2330930703454
 20
143.05760287452188
 11
1338.45538144992
 21
139.82428938839405
  0
LINE
  8
_0-0_
  6
CONTINUOUS
 62
    4
 10
1338.45538144992
 20
139.82428938839405
 11
1331.9887544776648
 21
137.5147797554456
  0
LINE
  8
_0-0_
  6
CONTINUOUS
 62
    4
 10
1331.9887544776648
 20
137.5147797554456
 11
1326.2919640497259
 21
139.82428938839405
  0
LINE
  8
_0-0_
  6
CONTINUOUS
 62
    4
 10
1326.2919640497259
 20
139.82428938839405
 11
1317.5158274445223
 21
149.2162952290505
  0
LINE
  8
_0-0_
  6
CONTINUOUS
 62
    4
 10
1317.5158274445223
 20
149.2162952290505
 11
1317.2078928267958
 21
154.29721642153652
  0
LINE
  8
_0-0_
  6
CONTINUOUS
 62
    4
 10
1317.2078928267958
 20
154.29721642153652
 11
1282.499968274253
 21
211.06798012640326
  0
LINE
  8
_0-0_
  6
CONTINUOUS
 62
    4
 10
1348.1525634282812
 20
142.73344398190773
 11
1351.1780464260723
 21
145.75892697970005
  0
LINE
  8
_0-0_
  6
CONTINUOUS
 62
    4
 10
1344.111953250085
 20
141.52126092844412
 11
1352.743671161443
 21
150.15297883980281
  0
LINE
  8
_0-0_
  6
CONTINUOUS
 62
    4
 10
1340.0713430718704
 20
140.30907787497938
 11
1351.9517115665124
 21
152.18944636962192
  0
LINE
  8
_0-0_
  6
CONTINUOUS
 62
    4
 10
1335.8152085775462
 20
138.88137050540536
 11
1351.1597519715813
 21
154.22591389944159
  0
LINE
  8
_0-0_
  6
CONTINUOUS
 62
    4
 10
1331.7265071763436
 20
137.62109622895423
 11
1350.2422414490079
 21
156.1368305016174
  0
LINE
  8
_0-0_
  6
CONTINUOUS
 62
    4
 10
1329.7139724914391
 20
138.43698866878128
 11
1349.2047566716153
 21
157.92777284895806
  0
LINE
  8
_0-0_
  6
CONTINUOUS
 62
    4
 10
1327.7014378065221
 20
139.25288110861402
 11
1348.167271894217
 21
159.71871519630952
  0
LINE
  8
_0-0_
  6
CONTINUOUS
 62
    4
 10
1325.8825566766247
 20
140.26242710346821
 11
1347.1297871168176
 21
161.50965754366098
  0
LINE
  8
_0-0_
  6
CONTINUOUS
 62
    4
 10
1324.5162825570421
 20
141.72458010863522
 11
1346.0923023394182
 21
163.3005998910113
  0
LINE
  8
_0-0_
  6
CONTINUOUS
 62
    4
 10
1323.1500084374593
 20
143.18673311380167
 11
1345.0548175620199
 21
165.09154223836333
  0
LINE
  8
_0-0_
  6
CONTINUOUS
 62
    4
 10
1321.7837343178858
 20
144.64888611896129
 11
1344.0173327846273
 21
166.88248458570229
  0
LINE
  8
_0-0_
  6
CONTINUOUS
 62
    4
 10
1320.4174601983025
 20
146.1110391241283
 11
1342.9798480072284
 21
168.67342693305375
  0
LINE
  8
_0-0_
  6
CONTINUOUS
 62
    4
 10
1319.0511860787196
 20
147.57319212929644
 11
1341.9423632298285
 21
170.46436928040464
  0
LINE
  8
_0-0_
  6
CONTINUOUS
 62
    4
 10
1317.684911959137
 20
149.03534513446232
 11
1340.9048784524291
 21
172.2553116277561
  0
LINE
  8
_0-0_
  6
CONTINUOUS
 62
    4
 10
1317.3742050150659
 20
151.55306531512394
 11
1339.8673936750376
 21
174.04625397509619
  0
LINE
  8
_0-0_
  6
CONTINUOUS
 62
    4
 10
1317.2125806079371
 20
154.21986803274535
 11
1338.8299088976387
 21
175.83719632244708
  0
LINE
  8
_0-0_
  6
CONTINUOUS
 62
    4
 10
1316.1658847715059
 20
156.00159932106465
 11
1337.7924241202393
 21
177.62813866979798
  0
LINE
  8
_0-0_
  6
CONTINUOUS
 62
    4
 10
1315.0927513770696
 20
157.75689305137917
 11
1336.7549393428394
 21
179.41908101714887
  0
LINE
  8
_0-0_
  6
CONTINUOUS
 62
    4
 10
1314.0196179826351
 20
159.51218678169482
 11
1335.7174545654404
 21
181.21002336449976
  0
LINE
  8
_0-0_
  6
CONTINUOUS
 62
    4
 10
1312.9464845882055
 20
161.26748051199741
 11
1334.6799697880485
 21
183.00096571184042
  0
LINE
  8
_0-0_
  6
CONTINUOUS
 62
    4
 10
1311.8733511937703
 20
163.02277424231249
 11
1333.6424850106496
 21
184.79190805919131
  0
LINE
  8
_0-0_
  6
CONTINUOUS
 62
    4
 10
1310.800217799334
 20
164.77806797262645
 11
1332.6050002332502
 21
186.58285040654278
  0
LINE
  8
_0-0_
  6
CONTINUOUS
 62
    4
 10
1309.7270844048976
 20
166.53336170294097
 11
1331.5675154558508
 21
188.3737927538931
  0
LINE
  8
_0-0_
  6
CONTINUOUS
 62
    4
 10
1308.6539510104692
 20
168.28865543324468
 11
1330.5300306784588
 21
190.16473510123319
  0
LINE
  8
_0-0_
  6
CONTINUOUS
 62
    4
 10
1307.5808176160344
 20
170.04394916356091
 11
1329.4925459010599
 21
191.95567744858636
  0
LINE
  8
_0-0_
  6
CONTINUOUS
 62
    4
 10
1306.5076842215988
 20
171.79924289387429
 11
1328.4550611236605
 21
193.74661979593611
  0
LINE
  8
_0-0_
  6
CONTINUOUS
 62
    4
 10
1305.4345508271624
 20
173.55453662418824
 11
1325.9045781312059
 21
194.02456392823183
  0
LINE
  8
_0-0_
  6
CONTINUOUS
 62
    4
 10
1304.3614174327333
 20
175.30983035449083
 11
1323.0761510064779
 21
194.02456392823467
  0
LINE
  8
_0-0_
  6
CONTINUOUS
 62
    4
 10
1303.2882840382981
 20
177.06512408480705
 11
1320.2477238817241
 21
194.0245639282324
  0
LINE
  8
_0-0_
  6
CONTINUOUS
 62
    4
 10
1302.2151506438624
 20
178.820417815121
 11
1317.4192967569761
 21
194.02456392823467
  0
LINE
  8
_0-0_
  6
CONTINUOUS
 62
    4
 10
1301.1420172494272
 20
180.57571154543496
 11
1314.5908696322281
 21
194.02456392823694
  0
LINE
  8
_0-0_
  6
CONTINUOUS
 62
    4
 10
1300.0688838549913
 20
182.33100527575061
 11
1311.7624425074744
 21
194.02456392823353
  0
LINE
  8
_0-0_
  6
CONTINUOUS
 62
    4
 10
1298.9957504605625
 20
184.08629900605376
 11
1308.9340153827457
 21
194.02456392823694
  0
LINE
  8
_0-0_
  6
CONTINUOUS
 62
    4
 10
1297.9226170661273
 20
185.84159273636885
 11
1306.3116431815249
 21
194.23061885176651
  0
LINE
  8
_0-0_
  6
CONTINUOUS
 62
    4
 10
1296.8494836716914
 20
187.5968864666828
 11
1310.1753464866781
 21
200.92274928166859
  0
LINE
  8
_0-0_
  6
CONTINUOUS
 62
    4
 10
1295.776350277255
 20
189.35218019699619
 11
1314.0390497918449
 21
207.61487971158658
  0
LINE
  8
_0-0_
  6
CONTINUOUS
 62
    4
 10
1294.7032168828259
 20
191.10747392730048
 11
1316.88613548333
 21
213.29039252780277
  0
LINE
  8
_0-0_
  6
CONTINUOUS
 62
    4
 10
1293.6300834883914
 20
192.86276765761613
 11
1315.8235219778985
 21
215.05620614712186
  0
LINE
  8
_0-0_
  6
CONTINUOUS
 62
    4
 10
1292.5569500939555
 20
194.61806138792952
 11
1314.7609084724663
 21
216.82201976644137
  0
LINE
  8
_0-0_
  6
CONTINUOUS
 62
    4
 10
1291.4838166995191
 20
196.37335511824404
 11
1313.6982949670348
 21
218.58783338575932
  0
LINE
  8
_0-0_
  6
CONTINUOUS
 62
    4
 10
1290.4106833050832
 20
198.12864884855912
 11
1312.6356814616045
 21
220.35364700507813
  0
LINE
  8
_0-0_
  6
CONTINUOUS
 62
    4
 10
1289.3375499106555
 20
199.88394257886284
 11
1311.5730679561805
 21
222.1194606243867
  0
LINE
  8
_0-0_
  6
CONTINUOUS
 62
    4
 10
1222.1811121568344
 20
135.55593194979281
 11
1232.1981837539831
 21
145.57300354694064
  0
LINE
  8
_0-0_
  6
CONTINUOUS
 62
    4
 10
1288.2644165162199
 20
201.63923630917623
 11
1310.5104544507494
 21
223.88527424370665
  0
LINE
  8
_0-0_
  6
CONTINUOUS
 62
    4
 10
1217.5567109197439
 20
133.75995783745054
 11
1241.5625708561829
 21
157.7658177738914
  0
LINE
  8
_0-0_
  6
CONTINUOUS
 62
    4
 10
1287.1912831217835
 20
203.39453003949103
 11
1309.4478409453179
 21
225.65108786302545
  0
LINE
  8
_0-0_
  6
CONTINUOUS
 62
    4
 10
1214.3162695687915
 20
133.34794361124921
 11
1250.9269579584056
 21
169.95863200086376
  0
LINE
  8
_0-0_
  6
CONTINUOUS
 62
    4
 10
1286.1181497273478
 20
205.14982376980583
 11
1308.385227439886
 21
227.41690148234412
  0
LINE
  8
_0-0_
  6
CONTINUOUS
 62
    4
 10
1212.8405684602355
 20
134.70066962742692
 11
1260.2913450605522
 21
182.15144622774289
  0
LINE
  8
_0-0_
  6
CONTINUOUS
 62
    4
 10
1285.0450163329194
 20
206.90511750010984
 11
1307.3226139344629
 21
229.18271510165255
  0
LINE
  8
_0-0_
  6
CONTINUOUS
 62
    4
 10
1211.5185145827691
 20
136.20704287471028
 11
1269.6557321627829
 21
194.34426045472378
  0
LINE
  8
_0-0_
  6
CONTINUOUS
 62
    4
 10
1283.9718829384842
 20
208.66041123042493
 11
1306.2600004290309
 21
230.94852872097164
  0
LINE
  8
_0-0_
  6
CONTINUOUS
 62
    4
 10
1210.3400032807904
 20
137.85695869748054
 11
1279.0201192649924
 21
206.53707468168278
  0
LINE
  8
_0-0_
  6
CONTINUOUS
 62
    4
 10
1282.8987495440479
 20
210.41570496073788
 11
1305.1973869236006
 21
232.71434234029073
  0
LINE
  8
_0-0_
  6
CONTINUOUS
 62
    4
 10
1209.4521215663988
 20
139.79750410783993
 11
1304.1347734181691
 21
234.48015595960996
  0
LINE
  8
_0-0_
  6
CONTINUOUS
 62
    4
 10
1208.8056239378873
 20
141.97943360407919
 11
1303.0721599127376
 21
236.2459695789282
  0
LINE
  8
_0-0_
  6
CONTINUOUS
 62
    4
 10
1208.1591263093762
 20
144.16136310030026
 11
1302.009546407314
 21
238.01178319823777
  0
LINE
  8
_0-0_
  6
CONTINUOUS
 62
    4
 10
1208.8421527954695
 20
147.67281671114404
 11
1300.8927767822659
 21
239.72344069793991
  0
LINE
  8
_0-0_
  6
CONTINUOUS
 62
    4
 10
1211.6093462132276
 20
153.26843725365222
 11
1299.6726709637451
 21
241.3317620041687
  0
LINE
  8
_0-0_
  6
CONTINUOUS
 62
    4
 10
1218.4421713125707
 20
162.92968947774625
 11
1298.4525651452257
 21
242.9400833103989
  0
LINE
  8
_0-0_
  6
CONTINUOUS
 62
    4
 10
1226.4324779399103
 20
173.74842322981863
 11
1297.2324593267131
 21
244.5484046166203
  0
LINE
  8
_0-0_
  6
CONTINUOUS
 62
    4
 10
1234.4227845673354
 20
184.56715698199218
 11
1296.0065824422854
 21
246.15095485694269
  0
LINE
  8
_0-0_
  6
CONTINUOUS
 62
    4
 10
1242.4130911947473
 20
195.38589073415437
 11
1294.7495037201743
 21
247.72230325958077
  0
LINE
  8
_0-0_
  6
CONTINUOUS
 62
    4
 10
1250.4033978221835
 20
206.20462448634086
 11
1292.906425585302
 21
248.70765224945814
  0
LINE
  8
_0-0_
  6
CONTINUOUS
 62
    4
 10
1258.3937044495847
 20
217.02335823849268
 11
1290.78510524174
 21
249.41475903064799
  0
LINE
  8
_0-0_
  6
CONTINUOUS
 62
    4
 10
1266.3840110769579
 20
227.84209199059674
 11
1288.493297933534
 21
249.95137884717366
  0
LINE
  8
_0-0_
  6
CONTINUOUS
 62
    4
 10
1269.2616405910692
 20
233.54814862946
 11
1285.4793928388567
 21
249.76590087724645
  0
LINE
  8
_0-0_
  6
CONTINUOUS
 62
    4
 10
1269.2616405910678
 20
236.37657575420818
 11
1281.9775306844078
 21
249.09246584754811
  0
LINE
  8
_0-0_
  6
CONTINUOUS
 62
    4
 10
1275.6102950421673
 20
245.55365733005743
 11
1278.6546868910343
 21
248.59804917892475
  0
LINE
  8
_0-0_
  6
CONTINUOUS
 62
    4
 10
1209.7252195117258
 20
138.87579854235526
 11
1215.5652337374604
 21
133.03578431662061
  0
LINE
  8
_0-0_
  6
CONTINUOUS
 62
    4
 10
1208.5343028276257
 20
142.89514235120578
 11
1217.6394136289432
 21
133.79003154988766
  0
LINE
  8
_0-0_
  6
CONTINUOUS
 62
    4
 10
1208.2949777159465
 20
145.96289458763465
 11
1219.7135935204253
 21
134.54427878315585
  0
LINE
  8
_0-0_
  6
CONTINUOUS
 62
    4
 10
1208.9806570189169
 20
148.1056424094146
 11
1221.721762972152
 21
135.36453645617883
  0
LINE
  8
_0-0_
  6
CONTINUOUS
 62
    4
 10
1209.6663363218809
 20
150.24839023118318
 11
1223.7182997660809
 21
136.19642678698199
  0
LINE
  8
_0-0_
  6
CONTINUOUS
 62
    4
 10
1210.7321010944356
 20
152.01105258337805
 11
1225.670048580819
 21
137.07310509699425
  0
LINE
  8
_0-0_
  6
CONTINUOUS
 62
    4
 10
1211.8944684059775
 20
153.67711239658718
 11
1226.8987092999041
 21
138.67287150266009
  0
LINE
  8
_0-0_
  6
CONTINUOUS
 62
    4
 10
1213.0568357175187
 20
155.34317220979574
 11
1228.127370018989
 21
140.27263790832592
  0
LINE
  8
_0-0_
  6
CONTINUOUS
 62
    4
 10
1214.219203029053
 20
157.00923202299407
 11
1229.3560307380667
 21
141.87240431397981
  0
LINE
  8
_0-0_
  6
CONTINUOUS
 62
    4
 10
1215.3815703405935
 20
158.6752918362032
 11
1230.5846914571498
 21
143.47217071964621
  0
LINE
  8
_0-0_
  6
CONTINUOUS
 62
    4
 10
1216.5439376521342
 20
160.34135164941347
 11
1231.8133521762356
 21
145.07193712531205
  0
LINE
  8
_0-0_
  6
CONTINUOUS
 62
    4
 10
1217.7377716391297
 20
161.97594478716894
 11
1233.0420128953201
 21
146.67170353097845
  0
LINE
  8
_0-0_
  6
CONTINUOUS
 62
    4
 10
1218.9393215079074
 20
163.60282204312227
 11
1234.2706736143975
 21
148.27146993663234
  0
LINE
  8
_0-0_
  6
CONTINUOUS
 62
    4
 10
1220.1408713766923
 20
165.22969929908754
 11
1235.4993343334818
 21
149.87123634229818
  0
LINE
  8
_0-0_
  6
CONTINUOUS
 62
    4
 10
1221.3424212454775
 20
166.85657655505395
 11
1236.7279950525663
 21
151.47100274796287
  0
LINE
  8
_0-0_
  6
CONTINUOUS
 62
    4
 10
1222.5439711142612
 20
168.48345381101865
 11
1237.9566557716516
 21
153.0707691536287
  0
LINE
  8
_0-0_
  6
CONTINUOUS
 62
    4
 10
1223.7455209830466
 20
170.11033106698449
 11
1239.1853164907368
 21
154.67053555929454
  0
LINE
  8
_0-0_
  6
CONTINUOUS
 62
    4
 10
1224.9470708518245
 20
171.73720832293895
 11
1240.413977209814
 21
156.2703019649507
  0
LINE
  8
_0-0_
  6
CONTINUOUS
 62
    4
 10
1226.148620720609
 20
173.36408557890479
 11
1241.6426379288978
 21
157.87006837061654
  0
LINE
  8
_0-0_
  6
CONTINUOUS
 62
    4
 10
1227.3501705893934
 20
174.99096283487063
 11
1242.8712986479829
 21
159.46983477628066
  0
LINE
  8
_0-0_
  6
CONTINUOUS
 62
    4
 10
1228.5517204581786
 20
176.61784009083533
 11
1244.0999593670676
 21
161.0696011819465
  0
LINE
  8
_0-0_
  6
CONTINUOUS
 62
    4
 10
1229.7532703269562
 20
178.2447173467898
 11
1245.3286200861451
 21
162.66936758760096
  0
LINE
  8
_0-0_
  6
CONTINUOUS
 62
    4
 10
1230.9548201957407
 20
179.87159460275564
 11
1246.5572808052289
 21
164.26913399326679
  0
LINE
  8
_0-0_
  6
CONTINUOUS
 62
    4
 10
1232.1563700645256
 20
181.49847185872147
 11
1247.785941524314
 21
165.86890039893262
  0
LINE
  8
_0-0_
  6
CONTINUOUS
 62
    4
 10
1233.3579199333108
 20
183.12534911468731
 11
1249.0146022433996
 21
167.46866680459846
  0
LINE
  8
_0-0_
  6
CONTINUOUS
 62
    4
 10
1234.5594698020955
 20
184.75222637065201
 11
1250.2432629624841
 21
169.06843321026429
  0
LINE
  8
_0-0_
  6
CONTINUOUS
 62
    4
 10
1235.7610196708733
 20
186.37910362660648
 11
1251.4719236815611
 21
170.66819961591875
  0
LINE
  8
_0-0_
  6
CONTINUOUS
 62
    4
 10
1236.9625695396578
 20
188.00598088257232
 11
1252.7005844006449
 21
172.26796602158458
  0
LINE
  8
_0-0_
  6
CONTINUOUS
 62
    4
 10
1238.164119408443
 20
189.63285813853815
 11
1253.9292451197307
 21
173.86773242725042
  0
LINE
  8
_0-0_
  6
CONTINUOUS
 62
    4
 10
1239.3656692772274
 20
191.25973539450172
 11
1255.1579058388156
 21
175.46749883291511
  0
LINE
  8
_0-0_
  6
CONTINUOUS
 62
    4
 10
1240.5672191460051
 20
192.88661265045903
 11
1256.3865665578921
 21
177.06726523857071
  0
LINE
  8
_0-0_
  6
CONTINUOUS
 62
    4
 10
1241.76876901479
 20
194.51348990642202
 11
1257.6152272769766
 21
178.66703164423654
  0
LINE
  8
_0-0_
  6
CONTINUOUS
 62
    4
 10
1242.9703188835745
 20
196.140367162389
 11
1258.8438879960613
 21
180.26679804990238
  0
LINE
  8
_0-0_
  6
CONTINUOUS
 62
    4
 10
1244.1718687523596
 20
197.76724441835484
 11
1260.0725487151467
 21
181.86656445556707
  0
LINE
  8
_0-0_
  6
CONTINUOUS
 62
    4
 10
1245.3734186211443
 20
199.39412167431783
 11
1261.3012094342312
 21
183.46633086123234
  0
LINE
  8
_0-0_
  6
CONTINUOUS
 62
    4
 10
1246.5749684899222
 20
201.02099893027344
 11
1262.5298701533084
 21
185.06609726688851
  0
LINE
  8
_0-0_
  6
CONTINUOUS
 62
    4
 10
1247.7765183587067
 20
202.6478761862387
 11
1263.7585308723928
 21
186.6658636725532
  0
LINE
  8
_0-0_
  6
CONTINUOUS
 62
    4
 10
1248.9780682274918
 20
204.27475344220426
 11
1264.9871915914778
 21
188.26563007821903
  0
LINE
  8
_0-0_
  6
CONTINUOUS
 62
    4
 10
1250.1796180962763
 20
205.9016306981701
 11
1266.2158523105627
 21
189.86539648388373
  0
LINE
  8
_0-0_
  6
CONTINUOUS
 62
    4
 10
1251.3811679650539
 20
207.52850795412513
 11
1267.4445130296392
 21
191.46516288954047
  0
LINE
  8
_0-0_
  6
CONTINUOUS
 62
    4
 10
1252.5827178338388
 20
209.1553852100904
 11
1268.6731737487237
 21
193.0649292952063
  0
LINE
  8
_0-0_
  6
CONTINUOUS
 62
    4
 10
1253.784267702624
 20
210.7822624660561
 11
1269.9018344678088
 21
194.66469570087042
  0
LINE
  8
_0-0_
  6
CONTINUOUS
 62
    4
 10
1254.9858175714085
 20
212.40913972202094
 11
1271.130495186894
 21
196.26446210653455
  0
LINE
  8
_0-0_
  6
CONTINUOUS
 62
    4
 10
1317.4730639206653
 20
149.92189337276443
 11
1328.4425114427429
 21
138.9524458506861
  0
LINE
  8
_0-0_
  6
CONTINUOUS
 62
    4
 10
1256.1873674401938
 20
214.03601697798663
 11
1272.3591559059785
 21
197.8642285122001
  0
LINE
  8
_0-0_
  6
CONTINUOUS
 62
    4
 10
1317.29058475132
 20
152.93279966686043
 11
1332.5191704035055
 21
137.70421401467502
  0
LINE
  8
_0-0_
  6
CONTINUOUS
 62
    4
 10
1257.3889173089706
 20
215.66289423394224
 11
1273.5878166250552
 21
199.46399491785684
  0
LINE
  8
_0-0_
  6
CONTINUOUS
 62
    4
 10
1314.7747142963769
 20
158.27709724653573
 11
1334.6032746006765
 21
138.44853694223673
  0
LINE
  8
_0-0_
  6
CONTINUOUS
 62
    4
 10
1258.5904671777562
 20
217.28977148990566
 11
1274.8164773441404
 21
201.06376132352182
  0
LINE
  8
_0-0_
  6
CONTINUOUS
 62
    4
 10
1310.3252037610239
 20
165.55503490663853
 11
1336.6873787978604
 21
139.19285986980242
  0
LINE
  8
_0-0_
  6
CONTINUOUS
 62
    4
 10
1259.7920170465406
 20
218.91664874587178
 11
1276.0451380632248
 21
202.66352772918708
  0
LINE
  8
_0-0_
  6
CONTINUOUS
 62
    4
 10
1305.875693225672
 20
172.83297256674075
 11
1338.7853775684571
 21
139.92328822395621
  0
LINE
  8
_0-0_
  6
CONTINUOUS
 62
    4
 10
1260.9935669153253
 20
220.54352600183677
 11
1277.27379878231
 21
204.2632941348532
  0
LINE
  8
_0-0_
  6
CONTINUOUS
 62
    4
 10
1301.4261826902859
 20
180.11091022687708
 11
1340.9610907413403
 21
140.57600217582205
  0
LINE
  8
_0-0_
  6
CONTINUOUS
 62
    4
 10
1262.1951167841028
 20
222.17040325779209
 11
1278.5024595013865
 21
205.8630605405088
  0
LINE
  8
_0-0_
  6
CONTINUOUS
 62
    4
 10
1296.9766721549584
 20
187.38884788693724
 11
1343.1368039142146
 21
141.22871612768051
  0
LINE
  8
_0-0_
  6
CONTINUOUS
 62
    4
 10
1263.3966666528877
 20
223.79728051375764
 11
1279.7311202204717
 21
207.46282694617463
  0
LINE
  8
_0-0_
  6
CONTINUOUS
 62
    4
 10
1292.5271616196064
 20
194.66678554703833
 11
1345.3125170870985
 21
141.88143007954693
  0
LINE
  8
_0-0_
  6
CONTINUOUS
 62
    4
 10
1264.5982165216728
 20
225.42415776972263
 11
1280.9597809395561
 21
209.06259335183933
  0
LINE
  8
_0-0_
  6
CONTINUOUS
 62
    4
 10
1288.0776510842538
 20
201.94472320714226
 11
1347.4882302599817
 21
142.53414403141392
  0
LINE
  8
_0-0_
  6
CONTINUOUS
 62
    4
 10
1265.7997663904573
 20
227.05103502568832
 11
1282.1884416586413
 21
210.66235975750502
  0
LINE
  8
_0-0_
  6
CONTINUOUS
 62
    4
 10
1283.6281405489003
 20
209.22266086724463
 11
1349.4675558257652
 21
143.38324559038085
  0
LINE
  8
_0-0_
  6
CONTINUOUS
 62
    4
 10
1267.001316259242
 20
228.67791228165316
 11
1350.6515485756599
 21
145.0276799652363
  0
LINE
  8
_0-0_
  6
CONTINUOUS
 62
    4
 10
1268.2028661280194
 20
230.30478953760877
 11
1351.8355413255463
 21
146.67211434008152
  0
LINE
  8
_0-0_
  6
CONTINUOUS
 62
    4
 10
1269.2616405910715
 20
232.07444219930608
 11
1306.6022017446696
 21
194.73388104570915
  0
LINE
  8
_0-0_
  6
CONTINUOUS
 62
    4
 10
1307.3115188621503
 20
194.02456392822899
 11
1352.6107027709807
 21
148.72538001939859
  0
LINE
  8
_0-0_
  6
CONTINUOUS
 62
    4
 10
1269.2616405910676
 20
234.90286932406008
 11
1307.6374779250821
 21
196.52703199004748
  0
LINE
  8
_0-0_
  6
CONTINUOUS
 62
    4
 10
1310.139945986899
 20
194.02456392823012
 11
1351.9368512162466
 21
152.22765869888292
  0
LINE
  8
_0-0_
  6
CONTINUOUS
 62
    4
 10
1269.5266651044542
 20
237.46627193542395
 11
1308.6727541054941
 21
198.32018293438523
  0
LINE
  8
_0-0_
  6
CONTINUOUS
 62
    4
 10
1312.968373111647
 20
194.0245639282324
 11
1349.3969706456048
 21
157.59596639427457
  0
LINE
  8
_0-0_
  6
CONTINUOUS
 62
    4
 10
1270.3751932418718
 20
239.44617092274058
 11
1309.7080302858988
 21
200.11333387871247
  0
LINE
  8
_0-0_
  6
CONTINUOUS
 62
    4
 10
1315.7968002363807
 20
194.02456392823012
 11
1345.5023252097997
 21
164.31903895481184
  0
LINE
  8
_0-0_
  6
CONTINUOUS
 62
    4
 10
1271.5470273738192
 20
241.10276391554194
 11
1310.7433064663096
 21
201.90648482305193
  0
LINE
  8
_0-0_
  6
CONTINUOUS
 62
    4
 10
1318.625227361134
 20
194.02456392822785
 11
1341.6076797739661
 21
171.04211151539687
  0
LINE
  8
_0-0_
  6
CONTINUOUS
 62
    4
 10
1272.8780519031138
 20
242.60016651099846
 11
1311.778582646722
 21
203.69963576739025
  0
LINE
  8
_0-0_
  6
CONTINUOUS
 62
    4
 10
1321.4536544858825
 20
194.02456392822955
 11
1337.7130343381325
 21
177.76518407597962
  0
LINE
  8
_0-0_
  6
CONTINUOUS
 62
    4
 10
1274.2090764324078
 20
244.09756910645427
 11
1312.8138588271336
 21
205.49278671172843
  0
LINE
  8
_0-0_
  6
CONTINUOUS
 62
    4
 10
1324.2820816106305
 20
194.02456392823183
 11
1333.8183889022937
 21
184.48825663656919
  0
LINE
  8
_0-0_
  6
CONTINUOUS
 62
    4
 10
1275.5984806159113
 20
245.53659204768252
 11
1313.8491350075387
 21
207.2859376560551
  0
LINE
  8
_0-0_
  6
CONTINUOUS
 62
    4
 10
1327.1105087353644
 20
194.02456392823012
 11
1329.9237434664562
 21
191.21132919713887
  0
LINE
  8
_0-0_
  6
CONTINUOUS
 62
    4
 10
1276.7555644396723
 20
247.20793534867113
 11
1314.8844111879496
 21
209.07908860039498
  0
LINE
  8
_0-0_
  6
CONTINUOUS
 62
    4
 10
1278.2480905761568
 20
248.54383633693857
 11
1315.919687368362
 21
210.8722395447333
  0
LINE
  8
_0-0_
  6
CONTINUOUS
 62
    4
 10
1280.7437615685812
 20
248.87659246926347
 11
1316.954963548774
 21
212.66539048907049
  0
LINE
  8
_0-0_
  6
CONTINUOUS
 62
    4
 10
1283.1339306972036
 20
249.31485046539279
 11
1313.4525084989068
 21
218.99627266368952
  0
LINE
  8
_0-0_
  6
CONTINUOUS
 62
    4
 10
1285.5061598985908
 20
249.77104838873657
 11
1309.178440843722
 21
226.09876744360506
  0
LINE
  8
_0-0_
  6
CONTINUOUS
 62
    4
 10
1288.1165853017242
 20
249.98905011035419
 11
1304.9043731885477
 21
233.20126222353139
  0
LINE
  8
_0-0_
  6
CONTINUOUS
 62
    4
 10
1291.8864026384022
 20
249.04765989842559
 11
1299.8938351757213
 21
241.04022736110579
  0
LINE
  8
_0-0_
  6
CONTINUOUS
 62
    7
 10
1359.5024927994089
 20
224.60123784416538
 11
1359.5024927994089
 21
253.84147429786296
  0
LINE
  8
_0-0_
  6
CONTINUOUS
 62
    7
 10
1357.5024927994084
 20
225.02007653380389
 11
1357.5024927994084
 21
253.42263560822417
  0
LINE
  8
_0-0_
  6
CONTINUOUS
 62
    7
 10
1355.5024927994086
 20
225.745272662937
 11
1355.5024927994086
 21
252.69743947909106
  0
LINE
  8
_0-0_
  6
CONTINUOUS
 62
    7
 10
1353.5024927994086
 20
226.83050026729944
 11
1353.5024927994086
 21
251.6122118747289
  0
LINE
  8
_0-0_
  6
CONTINUOUS
 62
    7
 10
1351.5024927994089
 20
228.38337696625132
 11
1351.5024927994089
 21
250.05933517577702
  0
LINE
  8
_0-0_
  6
CONTINUOUS
 62
    7
 10
1349.5024927994089
 20
230.6545436765218
 11
1349.5024927994089
 21
247.78816846550654
  0
LINE
  8
_0-0_
  6
CONTINUOUS
 62
    7
 10
1347.5024927994091
 20
234.60413199920708
 11
1347.5024927994091
 21
243.83858014282168
  0
LINE
  8
_0-0_
  6
CONTINUOUS
 62
    7
 10
1306.4120816974867
 20
194.40458346444615
 11
1348.9732729344257
 21
194.40458346444615
  0
LINE
  8
_0-0_
  6
CONTINUOUS
 62
    7
 10
1307.5667822358655
 20
196.40458346444603
 11
1347.8185723960469
 21
196.40458346444603
  0
LINE
  8
_0-0_
  6
CONTINUOUS
 62
    7
 10
1308.7214827742448
 20
198.40458346444592
 11
1346.6638718576673
 21
198.40458346444592
  0
LINE
  8
_0-0_
  6
CONTINUOUS
 62
    7
 10
1309.8761833126241
 20
200.40458346444609
 11
1345.509171319288
 21
200.40458346444609
  0
LINE
  8
_0-0_
  6
CONTINUOUS
 62
    7
 10
1311.0308838510036
 20
202.40458346444598
 11
1344.3544707809087
 21
202.40458346444598
  0
LINE
  8
_0-0_
  6
CONTINUOUS
 62
    7
 10
1312.1855843893829
 20
204.40458346444615
 11
1343.1997702425292
 21
204.40458346444615
  0
LINE
  8
_0-0_
  6
CONTINUOUS
 62
    7
 10
1313.3402849277618
 20
206.40458346444589
 11
1342.0450697041501
 21
206.40458346444589
  0
LINE
  8
_0-0_
  6
CONTINUOUS
 62
    7
 10
1314.4949854661413
 20
208.40458346444606
 11
1340.8903691657706
 21
208.40458346444606
  0
LINE
  8
_0-0_
  6
CONTINUOUS
 62
    7
 10
1315.6496860045206
 20
210.40458346444595
 11
1339.7356686273915
 21
210.40458346444595
  0
LINE
  8
_0-0_
  6
CONTINUOUS
 62
    7
 10
1316.8043865428999
 20
212.40458346444612
 11
1338.5809680890122
 21
212.40458346444612
  0
LINE
  8
_0-0_
  6
CONTINUOUS
 62
    7
 10
1317.959087081279
 20
214.40458346444586
 11
1337.4262675506329
 21
214.40458346444586
  0
LINE
  8
_0-0_
  6
CONTINUOUS
 62
    7
 10
1319.1137876196583
 20
216.40458346444603
 11
1336.2715670122539
 21
216.40458346444603
  0
LINE
  8
_0-0_
  6
CONTINUOUS
 62
    7
 10
1320.2684881580376
 20
218.40458346444592
 11
1335.1168664738743
 21
218.40458346444592
  0
LINE
  8
_0-0_
  6
CONTINUOUS
 62
    7
 10
1321.4231886964171
 20
220.40458346444595
 11
1333.962165935495
 21
220.40458346444595
  0
LINE
  8
_0-0_
  6
CONTINUOUS
 62
    7
 10
1322.5778892347962
 20
222.40458346444612
 11
1332.8074653971157
 21
222.40458346444612
  0
LINE
  8
_0-0_
  6
CONTINUOUS
 62
    7
 10
1323.7325897731753
 20
224.40458346444586
 11
1331.6527648587364
 21
224.40458346444586
  0
LINE
  8
_0-0_
  6
CONTINUOUS
 62
    7
 10
1324.8872903115546
 20
226.40458346444603
 11
1330.4980643203571
 21
226.40458346444603
  0
LINE
  8
_0-0_
  6
CONTINUOUS
 62
    7
 10
1326.0419908499341
 20
228.40458346444592
 11
1329.3433637819776
 21
228.40458346444592
  0
LINE
  8
_0-0_
  6
CONTINUOUS
 62
    7
 10
1327.1966913883134
 20
230.40458346444609
 11
1328.1886632435987
 21
230.40458346444609
  0
LINE
  8
_0-0_
  6
CONTINUOUS
 62
    7
 10
1347.5024927994084
 20
194.0245639282324
 11
1347.5024927994084
 21
196.95204938505924
  0
LINE
  8
_0-0_
  6
CONTINUOUS
 62
    7
 10
1345.5024927994082
 20
194.0245639282324
 11
1345.5024927994082
 21
200.41615100019698
  0
LINE
  8
_0-0_
  6
CONTINUOUS
 62
    7
 10
1343.5024927994084
 20
194.0245639282324
 11
1343.5024927994084
 21
203.88025261533471
  0
LINE
  8
_0-0_
  6
CONTINUOUS
 62
    7
 10
1341.5024927994086
 20
194.0245639282324
 11
1341.5024927994086
 21
207.34435423047202
  0
LINE
  8
_0-0_
  6
CONTINUOUS
 62
    7
 10
1339.5024927994086
 20
194.0245639282324
 11
1339.5024927994086
 21
210.80845584560976
  0
LINE
  8
_0-0_
  6
CONTINUOUS
 62
    7
 10
1337.5024927994084
 20
194.0245639282324
 11
1337.5024927994084
 21
214.27255746074735
  0
LINE
  8
_0-0_
  6
CONTINUOUS
 62
    7
 10
1335.5024927994082
 20
194.0245639282324
 11
1335.5024927994082
 21
217.73665907588494
  0
LINE
  8
_0-0_
  6
CONTINUOUS
 62
    7
 10
1333.5024927994084
 20
194.0245639282324
 11
1333.5024927994084
 21
221.20076069102254
  0
LINE
  8
_0-0_
  6
CONTINUOUS
 62
    7
 10
1331.5024927994086
 20
194.0245639282324
 11
1331.5024927994086
 21
224.66486230615999
  0
LINE
  8
_0-0_
  6
CONTINUOUS
 62
    7
 10
1329.5024927994086
 20
194.0245639282324
 11
1329.5024927994086
 21
228.12896392129772
  0
LINE
  8
_0-0_
  6
CONTINUOUS
 62
    7
 10
1327.5024927994084
 20
194.0245639282324
 11
1327.5024927994084
 21
230.93424704548923
  0
LINE
  8
_0-0_
  6
CONTINUOUS
 62
    7
 10
1325.5024927994082
 20
194.0245639282324
 11
1325.5024927994082
 21
227.47014543035149
  0
LINE
  8
_0-0_
  6
CONTINUOUS
 62
    7
 10
1323.5024927994084
 20
194.0245639282324
 11
1323.5024927994084
 21
224.00604381521347
  0
LINE
  8
_0-0_
  6
CONTINUOUS
 62
    7
 10
1321.5024927994086
 20
194.0245639282324
 11
1321.5024927994086
 21
220.54194220007631
  0
LINE
  8
_0-0_
  6
CONTINUOUS
 62
    7
 10
1319.5024927994086
 20
194.0245639282324
 11
1319.5024927994086
 21
217.07784058493829
  0
LINE
  8
_0-0_
  6
CONTINUOUS
 62
    7
 10
1317.5024927994084
 20
194.0245639282324
 11
1317.5024927994084
 21
213.61373896980055
  0
LINE
  8
_0-0_
  6
CONTINUOUS
 62
    7
 10
1315.5024927994082
 20
194.0245639282324
 11
1315.5024927994082
 21
210.14963735466296
  0
LINE
  8
_0-0_
  6
CONTINUOUS
 62
    7
 10
1313.5024927994084
 20
194.0245639282324
 11
1313.5024927994084
 21
206.68553573952522
  0
LINE
  8
_0-0_
  6
CONTINUOUS
 62
    7
 10
1311.5024927994086
 20
194.0245639282324
 11
1311.5024927994086
 21
203.22143412438777
  0
LINE
  8
_0-0_
  6
CONTINUOUS
 62
    7
 10
1309.5024927994086
 20
194.0245639282324
 11
1309.5024927994086
 21
199.75733250925003
  0
LINE
  8
_0-0_
  6
CONTINUOUS
 62
    7
 10
1307.5024927994084
 20
194.0245639282324
 11
1307.5024927994084
 21
196.2932308941123
  0
TEXT
  8
_0-0_
 62
    4
 10
2661.262115868371
 20
188.38966595682223
 40
25
 41
1
 50
0
  1
SCALE
  0
TEXT
  8
_0-0_
 62
    4
 10
2792.512115868371
 20
188.38966595682223
 40
25
 41
1
 50
0
  1
製図
  0
LINE
  8
_0-0_
  6
CONTINUOUS
 62
    2
 10
2617.512115868371
 20
215.88966595682194
 11
2617.512115868371
 21
103.38966596807296
  0
LINE
  8
ADD_LINE
  6
DOT
 62
    7
 10
2692.512115868371
 20
215.88966595682194
 11
2692.512115868371
 21
103.38966596807296
  0
LINE
  8
_0-0_
  6
CONTINUOUS
 62
    2
 10
2767.512115868371
 20
215.88966595682194
 11
2767.512115868371
 21
103.38966596807296
  0
LINE
  8
ADD_LINE
  6
DOT
 62
    7
 10
2817.512115868371
 20
215.88966595682194
 11
2817.512115868371
 21
103.38966596807296
  0
TEXT
  8
_0-0_
 62
    4
 10
2792.512115868371
 20
132.13966596244745
 40
25
 41
1
 50
0
  1
篠塚
  0
LINE
  8
_0-0_
  6
CONTINUOUS
 62
    2
 10
3067.512115868371
 20
185.88966595682223
 11
2417.512115868371
 21
185.88966595682223
  0
LINE
  8
ADD_LINE
  6
DOT
 62
    7
 10
2417.512115868371
 20
200.88966595682223
 11
3067.512115868371
 21
200.88966595682223
  0
LINE
  8
ADD_LINE
  6
DOT
 62
    7
 10
2417.512115868371
 20
148.38966596357295
 11
1743.0465463589576
 21
148.38966596357295
  0
LINE
  8
ADD_LINE
  6
DOT
 62
    7
 10
2417.512115868371
 20
144.63966596244745
 11
3067.512115868371
 21
144.63966596244745
  0
LINE
  8
ADD_LINE
  6
DOT
 62
    7
 10
2517.512115868371
 20
215.88966595682194
 11
2517.512115868371
 21
103.38966596807296
  0
LINE
  8
_0-0_
  6
CONTINUOUS
 62
    2
 10
2867.512115868371
 20
283.38966595007207
 11
2867.512115868371
 21
103.38966596807296
  0
LINE
  8
ADD_LINE
  6
DOT
 62
    7
 10
2917.512115868371
 20
283.38966595007207
 11
2917.512115868371
 21
103.38966596807296
  0
LINE
  8
_0-0_
  6
CONTINUOUS
 62
    2
 10
2967.512115868371
 20
283.38966595007207
 11
2967.512115868371
 21
103.38966596807296
  0
LINE
  8
ADD_LINE
  6
DOT
 62
    7
 10
3017.512115868371
 20
283.38966595007207
 11
3017.512115868371
 21
103.38966596807296
  0
LINE
  8
_0-0_
  6
CONTINUOUS
 62
    2
 10
3067.512115868371
 20
249.63966595344715
 11
2967.512115868371
 21
249.63966595344715
  0
LINE
  8
ADD_LINE
  6
DOT
 62
    7
 10
2417.512115868371
 20
249.63966595344715
 11
2967.512115868371
 21
249.63966595344715
  0
LINE
  8
ADD_LINE
  6
DOT
 62
    7
 10
2967.512115868371
 20
266.51466595175964
 11
3067.512115868371
 21
266.51466595175964
  0
LINE
  8
ADD_LINE
  6
DOT
 62
    7
 10
2967.512115868371
 20
232.76466595513455
 11
3067.512115868371
 21
232.76466595513455
  0
LINE
  8
_0-0_
  6
CONTINUOUS
 62
    1
 10
3067.512115868371
 20
215.88966595682194
 11
2417.512115868371
 21
215.88966595682194
  0
LINE
  8
ADD_LINE
  6
DOT
 62
    7
 10
2892.512115868371
 20
283.38966595007207
 11
2892.512115868371
 21
103.38966596807296
  0
CIRCLE
  8
_0-0_
  6
CONTINUOUS
 62
    2
 10
2892.512115868371
 20
249.63966595344715
 40
20
  0
CIRCLE
  8
_0-0_
  6
CONTINUOUS
 62
    2
 10
2892.512115868371
 20
249.63966595344715
 40
10
  0
LINE
  8
_0-0_
  6
CENTER1
 62
    7
 10
2892.512115868371
 20
274.63966595344715
 11
2892.512115868371
 21
224.63966595344715
  0
TEXT
  8
_0-0_
 62
    4
 10
2492.512115868371
 20
188.38966595682223
 40
25
 41
1
 50
0
  1
日付
  0
TEXT
  8
_0-0_
 62
    4
 10
2992.512115868371
 20
254.01466595175961
 40
25
 41
1
 50
0
  1
単位
  0
TEXT
  8
_0-0_
 62
    4
 10
3005.012115868371
 20
220.26466595513455
 40
25
 41
1
 50
0
  1
mm
  0
LINE
  8
_0-0_
  6
CONTINUOUS
 62
    2
 10
2922.512115868371
 20
259.63966595344698
 11
2957.512115868371
 21
269.63966595344698
  0
LINE
  8
_0-0_
  6
CONTINUOUS
 62
    2
 10
2957.512115868371
 20
269.63966595344698
 11
2957.512115868371
 21
229.63966595344715
  0
LINE
  8
_0-0_
  6
CONTINUOUS
 62
    2
 10
2922.512115868371
 20
239.63966595344715
 11
2957.512115868371
 21
229.63966595344715
  0
LINE
  8
_0-0_
  6
CONTINUOUS
 62
    2
 10
2922.512115868371
 20
259.63966595344698
 11
2922.512115868371
 21
239.63966595344715
  0
LINE
  8
_0-0_
  6
CENTER1
 62
    7
 10
2867.512115868371
 20
249.63966595344715
 11
2962.512115868371
 21
249.63966595344715
  0
LINE
  8
_0-0_
  6
CONTINUOUS
 62
    1
 10
1093.0465463589576
 20
1489.2140570550148
 11
1143.0465463589576
 21
1489.2140570550148
  0
LINE
  8
_0-0_
  6
CONTINUOUS
 62
    1
 10
2105.2793311136643
 20
2925.0384481419569
 11
2105.2793311136643
 21
2875.0384481419569
  0
LINE
  8
_0-0_
  6
CONTINUOUS
 62
    1
 10
3067.512115868371
 20
1489.2140570550148
 11
3117.512115868371
 21
1489.2140570550148
  0
LINE
  8
_0-0_
  6
CONTINUOUS
 62
    1
 10
2105.2793311136643
 20
103.38966596807296
 11
2105.2793311136643
 21
53.389665968072961
  0
LINE
  8
_0-0_
  6
CONTINUOUS
 62
    1
 10
2417.512115868371
 20
193.38966595907266
 11
1743.0465463589576
 21
193.38966595907266
  0
LINE
  8
_0-0_
  6
CONTINUOUS
 62
    1
 10
1743.0465463589576
 20
103.38966596807296
 11
1743.0465463589576
 21
283.38966595007207
  0
LINE
  8
ADD_LINE
  6
DOT
 62
    7
 10
2417.512115868371
 20
238.38966595457237
 11
1743.0465463589576
 21
238.38966595457237
  0
LINE
  8
ADD_LINE
  6
DOT
 62
    7
 10
2080.2793311136643
 20
103.38966596807296
 11
2080.2793311136643
 21
283.38966595007207
  0
TEXT
  8
_0-0_
 62
    4
 10
1753.0465463589576
 20
248.38966595007207
 40
25
 41
1
 50
0
  1
品番
  0
TEXT
  8
_0-0_
 62
    4
 10
1753.0465463589576
 20
158.38966595907266
 40
25
 41
1
 50
0
  1
名称
  0
TEXT
  8
_0-0_
 62
    4
 10
2892.512115868371
 20
188.38966595682223
 40
25
 41
1
 50
0
  1
検図
  0
LINE
  8
_0-1_
  6
CENTER1
 62
    7
 10
1692.8938519330757
 20
483.38966595007463
 11
1692.8938519330757
 21
2675.0384481419565
  0
LINE
  8
_0-1_
  6
CENTER1
 62
    7
 10
2492.5884630813116
 20
483.38966595007264
 11
2492.5884630813116
 21
1683.389665950072
  0
ARC
  8
_0-2_
  6
CONTINUOUS
 62
    5
 10
2545.8872796906544
 20
1402.2024899191886
 40
208.7513518278729
 50
301.06495845667206
 51
352.19215038606086
  0
ARC
  8
_0-2_
  6
CONTINUOUS
 62
    5
 10
2744.981391981054
 20
1375.5460670135437
 40
7.9074555530214807
 50
347.56505002327128
 51
86.887484475314182
  0
LINE
  8
_0-2_
  6
CONTINUOUS
 62
    5
 10
2745.4107425350571
 20
1383.4418577544884
 11
2329.8890172515185
 21
1383.4418577544884
  0
LINE
  8
_0-2_
  6
CONTINUOUS
 62
    5
 10
2422.0412942134153
 20
1223.389665950072
 11
2652.8413398609118
 21
1223.389665950072
  0
ARC
  8
_0-2_
  6
CONTINUOUS
 62
    5
 10
2575.2117888086791
 20
1330.1543790379083
 40
186.08212218552165
 50
195.75612176246372
 51
215.01217674658196
  0
ARC
  8
_0-2_
  6
CONTINUOUS
 62
    5
 10
2566.7749336711204
 20
1336.7913876795942
 40
179.97387583169072
 50
178.17995475054681
 51
198.52007961806498
  0
ARC
  8
_0-2_
  6
CONTINUOUS
 62
    5
 10
2484.0265285604455
 20
1346.5167722357558
 40
97.217385224032313
 50
165.69815071582758
 51
182.36360136925566
  0
ARC
  8
_0-2_
  6
CONTINUOUS
 62
    5
 10
2405.662863535319
 20
1368.146252308863
 40
16.019446171274289
 50
107.28957870569442
 51
171.43369276114731
  0
ARC
  8
_0-2_
  6
CONTINUOUS
 62
    5
 10
2533.4529450108453
 20
1405.9511508098078
 40
213.87204512885691
 50
189.91147109679486
 51
238.60556922702483
  0
ARC
  8
_0-2_
  6
CONTINUOUS
 62
    5
 10
2357.6836920683691
 20
1372.7320560911389
 40
35.095228987057382
 50
174.12234287660499
 51
185.87765712339501
  0
ARC
  8
_0-2_
  6
CONTINUOUS
 62
    5
 10
2330.6750192808245
 20
1375.5397850481263
 40
7.9410674500792799
 50
95.680402380342429
 51
174.31826906808266
  0
ARC
  8
_0-2_
  6
CONTINUOUS
 62
    5
 10
1760.2242192605222
 20
1453.0592287298134
 40
299.56481479597721
 50
193.43811767731572
 51
230.05644951090139
  0
ARC
  8
_0-2_
  6
CONTINUOUS
 62
    5
 10
1625.5634846056287
 20
1453.0592287298134
 40
299.56481479597721
 50
309.9435504890987
 51
346.56188232268431
  0
LINE
  8
_0-2_
  6
CONTINUOUS
 62
    5
 10
1916.9266599079174
 20
1383.4418577544884
 11
1468.8610439582339
 21
1383.4418577544884
  0
LINE
  8
_0-2_
  6
CONTINUOUS
 62
    5
 10
1817.8938519330757
 20
1223.389665950072
 11
1567.8938519330757
 21
1223.389665950072
  0
ARC
  8
_0-2_
  6
CONTINUOUS
 62
    5
 10
1277.5883554559509
 20
2040.0043146810117
 40
557.90866388049392
 50
17.463580277001242
 51
41.871735340417679
  0
ARC
  8
_0-2_
  6
CONTINUOUS
 62
    5
 10
1692.8938519330757
 20
2752.4221862556119
 40
647.38373811365466
 50
249.75356072461992
 51
290.24643927538006
  0
ARC
  8
_0-2_
  6
CONTINUOUS
 62
    5
 10
2112.5963377699532
 20
2037.4930825390211
 40
652.65698047406943
 50
130.02093662126734
 51
170.51549672926677
  0
ARC
  8
_0-2_
  6
CONTINUOUS
 62
    5
 10
1277.5883554559509
 20
2040.0043146810117
 40
647.90866388049392
 50
9.3295381979721093
 51
50.134028451493748
  0
ARC
  8
_0-2_
  6
CONTINUOUS
 62
    5
 10
1277.5883554559509
 20
2040.0043146810117
 40
617.90866388049392
 50
11.666045748389202
 51
47.763142984605963
  0
ARC
  8
_0-2_
  6
CONTINUOUS
 62
    5
 10
1692.8938519330757
 20
2752.4221862556119
 40
617.38373811365466
 50
252.09831942749724
 51
287.90799088839361
  0
ARC
  8
_0-2_
  6
CONTINUOUS
 62
    5
 10
2112.5963377699532
 20
2037.4930825390211
 40
622.65698047406943
 50
132.37415497060064
 51
168.19014197106711
  0
CIRCLE
  8
_0-2_
  6
CONTINUOUS
 62
    5
 10
1692.8938519330757
 20
2275.0384481419569
 40
23.000000000000004
  0
ARC
  8
_0-2_
  6
CONTINUOUS
 62
    5
 10
1692.8938519330757
 20
2752.4221862556119
 40
557.38373811365466
 50
257.91546344733229
 51
282.10525730449672
  0
ARC
  8
_0-2_
  6
CONTINUOUS
 62
    5
 10
2112.5963377699532
 20
2037.4930825390211
 40
562.65698047406943
 50
138.21819818059399
 51
162.42493433243112
  0
LINE
  8
_0-2_
  6
CONTINUOUS
 62
    5
 10
1692.9447008498173
 20
2497.4867987605976
 11
1693.0299678605893
 21
2412.3889866474501
  0
LINE
  8
_0-2_
  6
CONTINUOUS
 62
    5
 10
1809.7818373680543
 20
2207.4324337147928
 11
1882.8910868913342
 21
2165.2227888222756
  0
LINE
  8
_0-2_
  6
CONTINUOUS
 62
    5
 10
1576.2029671434732
 20
2207.3901973590232
 11
1503.003893992169
 21
2165.1286927706869
  0
LINE
  8
_0-3_
  6
CONTINUOUS
 62
    7
 10
2016.9266599079174
 20
2105.0384481419569
 11
2016.9266599079174
 21
2275.0384481419569
  0
LINE
  8
_0-3_
  6
CONTINUOUS
 62
    7
 10
2016.9266599079174
 20
2105.0384481419569
 11
2009.1620885548418
 21
2134.0162229306293
  0
LINE
  8
_0-3_
  6
CONTINUOUS
 62
    7
 10
2016.9266599079174
 20
2105.0384481419569
 11
2024.6912312609929
 21
2134.0162229306293
  0
LINE
  8
_0-3_
  6
CONTINUOUS
 62
    7
 10
2016.9266599079174
 20
2275.0384481419569
 11
2009.1620885548418
 21
2246.060673353285
  0
LINE
  8
_0-3_
  6
CONTINUOUS
 62
    7
 10
2016.9266599079174
 20
2275.0384481419569
 11
2024.6912312609929
 21
2246.060673353285
  0
LINE
  8
_0-3_
  6
CONTINUOUS
 62
    7
 10
2016.9266599079174
 20
2105.0384481419569
 11
1966.9266599079174
 21
2105.0384481419569
  0
LINE
  8
_0-3_
  6
CONTINUOUS
 62
    7
 10
2016.9266599079174
 20
2275.0384481419569
 11
1966.9266599079174
 21
2275.0384481419569
  0
TEXT
  8
_0-3_
 62
    7
 10
2016.9266599079174
 20
2165.0384481419569
 40
30
 41
1
 50
90
  1
170
  0
LINE
  8
_0-3_
  6
CONTINUOUS
 62
    7
 10
2016.9266599079174
 20
2275.0384481419569
 11
2016.9266599079174
 21
2537.3040043323285
  0
LINE
  8
_0-3_
  6
CONTINUOUS
 62
    7
 10
2016.9266599079174
 20
2275.0384481419569
 11
2009.1620885548418
 21
2304.0162229306288
  0
LINE
  8
_0-3_
  6
CONTINUOUS
 62
    7
 10
2016.9266599079174
 20
2275.0384481419569
 11
2024.6912312609929
 21
2304.0162229306288
  0
LINE
  8
_0-3_
  6
CONTINUOUS
 62
    7
 10
2016.9266599079174
 20
2537.3040043323285
 11
2009.1620885548418
 21
2508.3262295436566
  0
LINE
  8
_0-3_
  6
CONTINUOUS
 62
    7
 10
2016.9266599079174
 20
2537.3040043323285
 11
2024.6912312609929
 21
2508.3262295436566
  0
LINE
  8
_0-3_
  6
CONTINUOUS
 62
    7
 10
2016.9266599079174
 20
2537.3040043323285
 11
1966.9266599079174
 21
2537.3040043323285
  0
LINE
  8
_0-3_
  6
CONTINUOUS
 62
    7
 10
2066.9266599079174
 20
2105.0384481419569
 11
2066.9266599079174
 21
2537.3040043323285
  0
LINE
  8
_0-3_
  6
CONTINUOUS
 62
    7
 10
2066.9266599079174
 20
2105.0384481419569
 11
2059.1620885548418
 21
2134.0162229306293
  0
LINE
  8
_0-3_
  6
CONTINUOUS
 62
    7
 10
2066.9266599079174
 20
2105.0384481419569
 11
2074.6912312609929
 21
2134.0162229306293
  0
LINE
  8
_0-3_
  6
CONTINUOUS
 62
    7
 10
2066.9266599079174
 20
2537.3040043323285
 11
2059.1620885548418
 21
2508.3262295436566
  0
LINE
  8
_0-3_
  6
CONTINUOUS
 62
    7
 10
2066.9266599079174
 20
2537.3040043323285
 11
2074.6912312609929
 21
2508.3262295436566
  0
LINE
  8
_0-3_
  6
CONTINUOUS
 62
    7
 10
2066.9266599079174
 20
2105.0384481419569
 11
2016.9266599079174
 21
2105.0384481419569
  0
LINE
  8
_0-3_
  6
CONTINUOUS
 62
    7
 10
2066.9266599079174
 20
2537.3040043323285
 11
2016.9266599079174
 21
2537.3040043323285
  0
TEXT
  8
_0-3_
 62
    7
 10
2016.9266599079174
 20
2381.1712262371429
 40
30
 41
1
 50
90
  1
260
  0
TEXT
  8
_0-3_
 62
    7
 10
2066.9266599079174
 20
2296.1712262371429
 40
30
 41
1
 50
90
  1
430
  0
LINE
  8
_0-3_
  6
CONTINUOUS
 62
    7
 10
1468.8610439582337
 20
2005.0384481419569
 11
1916.9266599079174
 21
2005.0384481419569
  0
LINE
  8
_0-3_
  6
CONTINUOUS
 62
    7
 10
1468.8610439582337
 20
2005.0384481419569
 11
1497.8388187469056
 21
2012.8030194950327
  0
LINE
  8
_0-3_
  6
CONTINUOUS
 62
    7
 10
1468.8610439582337
 20
2005.0384481419569
 11
1497.8388187469056
 21
1997.2738767888816
  0
LINE
  8
_0-3_
  6
CONTINUOUS
 62
    7
 10
1916.9266599079174
 20
2005.0384481419569
 11
1887.9488851192455
 21
2012.8030194950327
  0
LINE
  8
_0-3_
  6
CONTINUOUS
 62
    7
 10
1916.9266599079174
 20
2005.0384481419569
 11
1887.9488851192455
 21
1997.2738767888816
  0
LINE
  8
_0-3_
  6
CONTINUOUS
 62
    7
 10
1468.8610439582337
 20
2005.0384481419569
 11
1468.8610439582337
 21
2055.0384481419569
  0
LINE
  8
_0-3_
  6
CONTINUOUS
 62
    7
 10
1916.9266599079174
 20
2005.0384481419569
 11
1916.9266599079174
 21
2055.0384481419569
  0
TEXT
  8
_0-3_
 62
    7
 10
1667.8938519330757
 20
2005.0384481419569
 40
30
 41
1
 50
0
  1
450
  0
LINE
  8
_0-3_
  6
CONTINUOUS
 62
    7
 10
1567.8938519330757
 20
1123.389665950072
 11
1817.8938519330757
 21
1123.389665950072
  0
LINE
  8
_0-3_
  6
CONTINUOUS
 62
    7
 10
1567.8938519330757
 20
1123.389665950072
 11
1596.8716267217476
 21
1131.1542373031477
  0
LINE
  8
_0-3_
  6
CONTINUOUS
 62
    7
 10
1567.8938519330757
 20
1123.389665950072
 11
1596.8716267217476
 21
1115.6250945969964
  0
LINE
  8
_0-3_
  6
CONTINUOUS
 62
    7
 10
1817.8938519330757
 20
1123.389665950072
 11
1788.9160771444037
 21
1131.1542373031477
  0
LINE
  8
_0-3_
  6
CONTINUOUS
 62
    7
 10
1817.8938519330757
 20
1123.389665950072
 11
1788.9160771444037
 21
1115.6250945969964
  0
LINE
  8
_0-3_
  6
CONTINUOUS
 62
    7
 10
1567.8938519330757
 20
1123.389665950072
 11
1567.8938519330757
 21
1173.389665950072
  0
LINE
  8
_0-3_
  6
CONTINUOUS
 62
    7
 10
1817.8938519330757
 20
1123.389665950072
 11
1817.8938519330757
 21
1173.389665950072
  0
TEXT
  8
_0-3_
 62
    7
 10
1667.8938519330757
 20
1123.389665950072
 40
30
 41
1
 50
0
  1
250
  0
LINE
  8
_0-3_
  6
CONTINUOUS
 62
    7
 10
2066.9266599079174
 20
1223.389665950072
 11
2066.9266599079174
 21
1383.4418577544886
  0
LINE
  8
_0-3_
  6
CONTINUOUS
 62
    7
 10
2066.9266599079174
 20
1223.389665950072
 11
2059.1620885548418
 21
1252.3674407387441
  0
LINE
  8
_0-3_
  6
CONTINUOUS
 62
    7
 10
2066.9266599079174
 20
1223.389665950072
 11
2074.6912312609929
 21
1252.3674407387441
  0
LINE
  8
_0-3_
  6
CONTINUOUS
 62
    7
 10
2066.9266599079174
 20
1383.4418577544886
 11
2059.1620885548418
 21
1354.4640829658167
  0
LINE
  8
_0-3_
  6
CONTINUOUS
 62
    7
 10
2066.9266599079174
 20
1383.4418577544886
 11
2074.6912312609929
 21
1354.4640829658167
  0
LINE
  8
_0-3_
  6
CONTINUOUS
 62
    7
 10
2066.9266599079174
 20
1223.389665950072
 11
2016.9266599079174
 21
1223.389665950072
  0
LINE
  8
_0-3_
  6
CONTINUOUS
 62
    7
 10
2066.9266599079174
 20
1383.4418577544886
 11
2016.9266599079174
 21
1383.4418577544886
  0
TEXT
  8
_0-3_
 62
    7
 10
2066.9266599079174
 20
1278.4157618522804
 40
30
 41
1
 50
90
  1
160
  0
LINE
  8
_0-3_
  6
CONTINUOUS
 62
    7
 10
1709.1573079003663
 20
2291.3019041092475
 11
1676.6303959657851
 21
2258.7749921746663
  0
TEXT
  8
_0-3_
 62
    7
 10
1597.0808830822987
 20
2179.2254792911799
 40
30
 41
1
 50
45.000000000000128
  1
φ46
  0
LINE
  8
_0-3_
  6
CONTINUOUS
 62
    7
 10
1676.6303959657851
 20
2258.7749921746663
 11
1597.0808830822987
 21
2179.2254792911799
  0
LINE
  8
_0-3_
  6
CONTINUOUS
 62
    7
 10
1744.5126469596937
 20
2326.657243168575
 11
1709.1573079003663
 21
2291.3019041092475
  0
LINE
  8
_0-3_
  6
CONTINUOUS
 62
    7
 10
1709.1573079003663
 20
2291.3019041092475
 11
1724.157307900366
 21
2317.2826662227808
  0
LINE
  8
_0-3_
  6
CONTINUOUS
 62
    7
 10
1709.1573079003663
 20
2291.3019041092475
 11
1735.1380700138993
 21
2306.3019041092475
  0
LINE
  8
_0-3_
  6
CONTINUOUS
 62
    7
 10
1676.6303959657851
 20
2258.7749921746663
 11
1661.6303959657853
 21
2232.794230061133
  0
LINE
  8
_0-3_
  6
CONTINUOUS
 62
    7
 10
1676.6303959657851
 20
2258.7749921746663
 11
1650.649633852252
 21
2243.7749921746663
  0
CIRCLE
  8
_0-2_
  6
CONTINUOUS
 62
    5
 10
2580.2029839007228
 20
2275.0384481419569
 40
50
  0
LINE
  8
_0-3_
  6
CONTINUOUS
 62
    7
 10
2615.5583229600506
 20
2310.3937872012843
 11
2544.8476448413958
 21
2239.6831090826295
  0
TEXT
  8
_0-3_
 62
    7
 10
2452.923763287145
 20
2147.7592275283787
 40
30
 41
1
 50
45.000000000000043
  1
φ100
  0
LINE
  8
_0-3_
  6
CONTINUOUS
 62
    7
 10
2544.8476448413958
 20
2239.6831090826295
 11
2452.9237632871445
 21
2147.7592275283787
  0
LINE
  8
_0-3_
  6
CONTINUOUS
 62
    7
 10
2650.9136620193785
 20
2345.7491262606118
 11
2615.5583229600506
 21
2310.3937872012843
  0
LINE
  8
_0-3_
  6
CONTINUOUS
 62
    7
 10
2615.5583229600506
 20
2310.3937872012843
 11
2630.5583229600506
 21
2336.3745493148176
  0
LINE
  8
_0-3_
  6
CONTINUOUS
 62
    7
 10
2615.5583229600506
 20
2310.3937872012843
 11
2641.5390850735839
 21
2325.3937872012843
  0
LINE
  8
_0-3_
  6
CONTINUOUS
 62
    7
 10
2544.8476448413958
 20
2239.6831090826295
 11
2529.8476448413958
 21
2213.7023469690967
  0
LINE
  8
_0-3_
  6
CONTINUOUS
 62
    7
 10
2544.8476448413958
 20
2239.6831090826295
 11
2518.8668827278625
 21
2224.6831090826295
  0
LINE
  8
_0-1_
  6
CENTER1
 62
    7
 10
2288.6855241264557
 20
2275.0384481419569
 11
2851.2479201331116
 21
2275.0384481419569
  0
LINE
  8
_0-1_
  6
CENTER1
 62
    7
 10
1292.8938519330757
 20
2275.0384481419569
 11
1966.9266599079174
 21
2275.0384481419569
  0
TEXT
  8
_0-3_
 62
    7
 10
1642.8938519330757
 20
1840.0384481419569
 40
30
 41
1
 50
0
  1
平面図
  0
TEXT
  8
_0-3_
 62
    7
 10
1642.8938519330757
 20
958.38966595007207
 40
30
 41
1
 50
0
  1
立面図
  0
TEXT
  8
_0-3_
 62
    7
 10
2442.5884630813116
 20
958.38966595007207
 40
30
 41
1
 50
0
  1
側面図
  0
TEXT
  8
_0-3_
 62
    7
 10
2425.2029839007232
 20
1840.0384481419569
 40
30
 41
1
 50
0
  1
カウンター開口寸法
  0
LINE
  8
_0-3_
  6
CONTINUOUS
 62
    7
 10
1592.8938519330757
 20
1830.0384481419569
 11
1792.8938519330757
 21
1830.0384481419569
  0
LINE
  8
_0-3_
  6
CONTINUOUS
 62
    7
 10
1792.8938519330757
 20
1830.0384481419569
 11
1792.8938519330757
 21
1880.0384481419569
  0
LINE
  8
_0-3_
  6
CONTINUOUS
 62
    7
 10
1792.8938519330757
 20
1880.0384481419569
 11
1592.8938519330757
 21
1880.0384481419569
  0
LINE
  8
_0-3_
  6
CONTINUOUS
 62
    7
 10
1592.8938519330757
 20
1880.0384481419569
 11
1592.8938519330757
 21
1830.0384481419569
  0
LINE
  8
_0-3_
  6
CONTINUOUS
 62
    7
 10
1592.8938519330757
 20
948.38966595007207
 11
1792.8938519330757
 21
948.38966595007207
  0
LINE
  8
_0-3_
  6
CONTINUOUS
 62
    7
 10
1792.8938519330757
 20
948.38966595007207
 11
1792.8938519330757
 21
998.38966595007207
  0
LINE
  8
_0-3_
  6
CONTINUOUS
 62
    7
 10
1792.8938519330757
 20
998.38966595007207
 11
1592.8938519330757
 21
998.38966595007207
  0
LINE
  8
_0-3_
  6
CONTINUOUS
 62
    7
 10
1592.8938519330757
 20
998.38966595007207
 11
1592.8938519330757
 21
948.38966595007207
  0
LINE
  8
_0-3_
  6
CONTINUOUS
 62
    7
 10
2392.5884630813116
 20
948.38966595007207
 11
2592.5884630813116
 21
948.38966595007207
  0
LINE
  8
_0-3_
  6
CONTINUOUS
 62
    7
 10
2592.5884630813116
 20
948.38966595007207
 11
2592.5884630813116
 21
998.38966595007207
  0
LINE
  8
_0-3_
  6
CONTINUOUS
 62
    7
 10
2592.5884630813116
 20
998.38966595007207
 11
2392.5884630813116
 21
998.38966595007207
  0
LINE
  8
_0-3_
  6
CONTINUOUS
 62
    7
 10
2392.5884630813116
 20
998.38966595007207
 11
2392.5884630813116
 21
948.38966595007207
  0
LINE
  8
_0-3_
  6
CONTINUOUS
 62
    7
 10
2380.2029839007232
 20
1830.0384481419569
 11
2780.2029839007228
 21
1830.0384481419569
  0
LINE
  8
_0-3_
  6
CONTINUOUS
 62
    7
 10
2780.2029839007228
 20
1830.0384481419569
 11
2780.2029839007228
 21
1880.0384481419569
  0
LINE
  8
_0-3_
  6
CONTINUOUS
 62
    7
 10
2780.2029839007228
 20
1880.0384481419569
 11
2380.2029839007232
 21
1880.0384481419569
  0
LINE
  8
_0-3_
  6
CONTINUOUS
 62
    7
 10
2380.2029839007232
 20
1880.0384481419569
 11
2380.2029839007232
 21
1830.0384481419569
  0
TEXT
  8
_0-3_
 62
    7
 10
1193.0465463589576
 20
633.38966595007207
 40
30
 41
1
 50
0
  1
蛇口：ウォールタイプ・ハイスタンドタイプ
  0
TEXT
  8
_0-3_
 62
    7
 10
1193.0465463589576
 20
683.38966595007207
 40
30
 41
1
 50
0
  1
内深110m/m
  0
TEXT
  8
_0-3_
 62
    7
 10
1193.0465463589576
 20
733.38966595007207
 40
30
 41
1
 50
0
  1
タイプ：置型
  0
TEXT
  8
_0-3_
 62
    7
 10
1193.0465463589576
 20
783.38966595007207
 40
30
 41
1
 50
0
  1
オーバーフロー：無し
  0
TEXT
  8
_0-0_
 62
    4
 10
2648.762115868371
 20
132.13966596244745
 40
25
 41
1
 50
0
  1
S=1：10
  0
TEXT
  8
_0-3_
 62
    4
 10
2467.512115868371
 20
132.13966596244745
 40
25
 41
1
 50
0
  1
06.01.17
  0
TEXT
  8
_0-3_
 62
    3
 10
1985.2793311136643
 20
213.38966595457237
 40
50
 41
1
 50
0
  1
GI-L400
  0
TEXT
  8
_0-3_
 62
    3
 10
1890.2793311136643
 20
123.38966596357295
 40
50
 41
1
 50
0
  1
Fuori Corner・
  0
ENDSEC
  0
EOF
