  0
SECTION
  2
HEADER
  9
$ACADVER
  1
AC1015
  9
$ACADMAINTVER
 70
     6
  9
$DWGCODEPAGE
  3
ANSI_932
  9
$INSBASE
 10
0.0
 20
0.0
 30
0.0
  9
$EXTMIN
 10
4.202155
 20
8.840804
 30
1.000000E+20
  9
$EXTMAX
 10
201.246975
 20
287.492702
 30
-1.000000E+20
  9
$LIMMIN
 10
4.202155
 20
8.840804
  9
$LIMMAX
 10
201.246975
 20
287.492702
  9
$ORTHOMODE
 70
     0
  9
$REGENMODE
 70
     1
  9
$FILLMODE
 70
     1
  9
$QTEXTMODE
 70
     0
  9
$MIRRTEXT
 70
     1
  9
$LTSCALE
 40
1.0
  9
$ATTMODE
 70
     1
  9
$TEXTSIZE
 40
0.2
  9
$TRACEWID
 40
0.05
  9
$TEXTSTYLE
  7
Standard
  9
$CLAYER
  8
0
  9
$CELTYPE
  6
Continuous
  9
$CECOLOR
 62
   256
  9
$CELTSCALE
 40
1.0
  9
$DISPSILH
 70
     0
  9
$DIMSCALE
 40
1.0
  9
$DIMASZ
 40
0.18
  9
$DIMEXO
 40
0.0625
  9
$DIMDLI
 40
0.38
  9
$DIMRND
 40
0.0
  9
$DIMDLE
 40
0.0
  9
$DIMEXE
 40
0.18
  9
$DIMTP
 40
0.0
  9
$DIMTM
 40
0.0
  9
$DIMTXT
 40
0.18
  9
$DIMCEN
 40
0.09
  9
$DIMTSZ
 40
0.0
  9
$DIMTOL
 70
     0
  9
$DIMLIM
 70
     0
  9
$DIMTIH
 70
     1
  9
$DIMTOH
 70
     1
  9
$DIMSE1
 70
     0
  9
$DIMSE2
 70
     0
  9
$DIMTAD
 70
     0
  9
$DIMZIN
 70
     0
  9
$DIMBLK
  1

  9
$DIMASO
 70
     1
  9
$DIMSHO
 70
     1
  9
$DIMPOST
  1

  9
$DIMAPOST
  1

  9
$DIMALT
 70
     0
  9
$DIMALTD
 70
     2
  9
$DIMALTF
 40
25.4
  9
$DIMLFAC
 40
1.0
  9
$DIMTOFL
 70
     0
  9
$DIMTVP
 40
0.0
  9
$DIMTIX
 70
     0
  9
$DIMSOXD
 70
     0
  9
$DIMSAH
 70
     0
  9
$DIMBLK1
  1

  9
$DIMBLK2
  1

  9
$DIMSTYLE
  2
Standard
  9
$DIMCLRD
 70
     0
  9
$DIMCLRE
 70
     0
  9
$DIMCLRT
 70
     0
  9
$DIMTFAC
 40
1.0
  9
$DIMGAP
 40
0.09
  9
$DIMJUST
 70
     0
  9
$DIMSD1
 70
     0
  9
$DIMSD2
 70
     0
  9
$DIMTOLJ
 70
     1
  9
$DIMTZIN
 70
     0
  9
$DIMALTZ
 70
     0
  9
$DIMALTTZ
 70
     0
  9
$DIMUPT
 70
     0
  9
$DIMDEC
 70
     4
  9
$DIMTDEC
 70
     4
  9
$DIMALTU
 70
     2
  9
$DIMALTTD
 70
     2
  9
$DIMTXSTY
  7
Standard
  9
$DIMAUNIT
 70
     0
  9
$DIMADEC
 70
     0
  9
$DIMALTRND
 40
0.0
  9
$DIMAZIN
 70
     0
  9
$DIMDSEP
 70
     0
  9
$DIMATFIT
 70
     3
  9
$DIMFRAC
 70
     0
  9
$DIMLDRBLK
  1

  9
$DIMLUNIT
 70
     2
  9
$DIMLWD
 70
     0
  9
$DIMLWE
 70
     0
  9
$DIMTMOVE
 70
     0
  9
$LUNITS
 70
     2
  9
$LUPREC
 70
     4
  9
$SKETCHINC
 40
0.1
  9
$FILLETRAD
 40
0.0
  9
$AUNITS
 70
     0
  9
$AUPREC
 70
     0
  9
$MENU
  1
acad
  9
$ELEVATION
 40
0.0
  9
$PELEVATION
 40
0.0
  9
$THICKNESS
 40
0.0
  9
$LIMCHECK
 70
     0
  9
$CHAMFERA
 40
0.0
  9
$CHAMFERB
 40
0.0
  9
$CHAMFERC
 40
0.0
  9
$CHAMFERD
 40
0.0
  9
$SKPOLY
 70
     0
  9
$TDCREATE
 40
0.000000000
  9
$TDUCREATE
 40
0.000000000
  9
$TDUPDATE
 40
0.000000000
  9
$TDUUPDATE
 40
0.000000000
  9
$TDINDWG
 40
0.0000000000
  9
$TDUSRTIMER
 40
0.0000000000
  9
$USRTIMER
 70
     1
  9
$ANGBASE
 50
0.0
  9
$ANGDIR
 70
     0
  9
$PDMODE
 70
     0
  9
$PDSIZE
 40
0.0
  9
$PLINEWID
 40
0.0
  9
$SPLFRAME
 70
     0
  9
$SPLINETYPE
 70
     6
  9
$SPLINESEGS
 70
     8
  9
$HANDSEED
  5
34D
  9
$SURFTAB1
 70
     6
  9
$SURFTAB2
 70
     6
  9
$SURFTYPE
 70
     6
  9
$SURFU
 70
     6
  9
$SURFV
 70
     6
  9
$UCSBASE
  2

  9
$UCSNAME
  2

  9
$UCSORG
 10
0.0
 20
0.0
 30
0.0
  9
$UCSXDIR
 10
1.0
 20
0.0
 30
0.0
  9
$UCSYDIR
 10
0.0
 20
1.0
 30
0.0
  9
$UCSORTHOREF
  2

  9
$UCSORTHOVIEW
 70
     0
  9
$UCSORGTOP
 10
0.0
 20
0.0
 30
0.0
  9
$UCSORGBOTTOM
 10
0.0
 20
0.0
 30
0.0
  9
$UCSORGLEFT
 10
0.0
 20
0.0
 30
0.0
  9
$UCSORGRIGHT
 10
0.0
 20
0.0
 30
0.0
  9
$UCSORGFRONT
 10
0.0
 20
0.0
 30
0.0
  9
$UCSORGBACK
 10
0.0
 20
0.0
 30
0.0
  9
$PUCSBASE
  2

  9
$PUCSNAME
  2

  9
$PUCSORG
 10
0.0
 20
0.0
 30
0.0
  9
$PUCSXDIR
 10
1.0
 20
0.0
 30
0.0
  9
$PUCSYDIR
 10
0.0
 20
1.0
 30
0.0
  9
$PUCSORTHOREF
  2

  9
$PUCSORTHOVIEW
 70
     0
  9
$PUCSORGTOP
 10
0.0
 20
0.0
 30
0.0
  9
$PUCSORGBOTTOM
 10
0.0
 20
0.0
 30
0.0
  9
$PUCSORGLEFT
 10
0.0
 20
0.0
 30
0.0
  9
$PUCSORGRIGHT
 10
0.0
 20
0.0
 30
0.0
  9
$PUCSORGFRONT
 10
0.0
 20
0.0
 30
0.0
  9
$PUCSORGBACK
 10
0.0
 20
0.0
 30
0.0
  9
$USERI1
 70
     0
  9
$USERI2
 70
     0
  9
$USERI3
 70
     0
  9
$USERI4
 70
     0
  9
$USERI5
 70
     0
  9
$USERR1
 40
0.0
  9
$USERR2
 40
0.0
  9
$USERR3
 40
0.0
  9
$USERR4
 40
0.0
  9
$USERR5
 40
0.0
  9
$WORLDVIEW
 70
     1
  9
$SHADEDGE
 70
     3
  9
$SHADEDIF
 70
    70
  9
$TILEMODE
 70
     1
  9
$MAXACTVP
 70
    16
  9
$PINSBASE
 10
0.0
 20
0.0
 30
0.0
  9
$PLIMCHECK
 70
     0
  9
$PEXTMIN
 10
1.000000E+20
 20
1.000000E+20
 30
1.000000E+20
  9
$PEXTMAX
 10
-1.000000E+20
 20
-1.000000E+20
 30
-1.000000E+20
  9
$PLIMMIN
 10
0.0
 20
0.0
  9
$PLIMMAX
 10
12.0
 20
9.0
  9
$UNITMODE
 70
     0
  9
$VISRETAIN
 70
     0
  9
$PLINEGEN
 70
     1
  9
$PSLTSCALE
 70
     0
  9
$TREEDEPTH
 70
  3020
  9
$CMLSTYLE
  2
Standard
  9
$CMLJUST
 70
     0
  9
$CMLSCALE
 40
1.0
  9
$PROXYGRAPHICS
 70
     0
  9
$MEASUREMENT
 70
     0
  9
$CELWEIGHT
370
     0
  9
$ENDCAPS
280
     0
  9
$JOINSTYLE
280
     0
  9
$LWDISPLAY
290
     0
  9
$INSUNITS
 70
     0
  9
$HYPERLINKBASE
  1

  9
$XEDIT
290
     1
  9
$CEPSNTYPE
380
     0
  9
$PSTYLEMODE
290
     1
  9
$FINGERPRINTGUID
  2

  9
$VERSIONGUID
  2

  9
$EXTNAMES
290
     1
  9
$PSVPSCALE
 40
0.0
  0
ENDSEC
  0
SECTION
  2
CLASSES
  0
CLASS
  1
LWPOLYLINE
  2
AcDbPolyline
  3
"AutoCAD"
 90
        0
280
     0
281
     1
  0
CLASS
  1
IMAGE
  2
AcDbRasterImage
  3
ISM
 90
      127
280
     0
281
     1
  0
CLASS
  1
OLE2FRAME
  2
AcDbOle2Frame
  3
""
 90
        0
280
     0
281
     1
  0
CLASS
  1
HATCH
  2
AcDbHatch
  3
"ACAD_SEDONA"
 90
        0
280
     0
281
     1
  0
CLASS
  1
DICTIONARYVAR
  2
AcDbDictionaryVar
  3
"AutoCAD"
 90
        0
280
     0
281
     0
  0
CLASS
  1
RASTERVARIABLES
  2
AcDbRasterVariables
  3
ISM
 90
        0
280
     0
281
     0
  0
CLASS
  1
IMAGEDEF
  2
AcDbRasterImageDef
  3
ISM
 90
        0
280
     0
281
     0
  0
CLASS
  1
IMAGEDEF_REACTOR
  2
AcDbRasterImageDefReactor
  3
ISM
 90
        1
280
     0
281
     0
  0
CLASS
  1
IDBUFFER
  2
AcDbIdBuffer
  3
"Acad"
 90
        0
280
     0
281
     0
  0
CLASS
  1
SPATIAL_FILTER
  2
AcDbSpatialFilter
  3
"Acad"
 90
        0
280
     0
281
     0
  0
CLASS
  1
XRECORD
  2
AcDbXrecord
  3
"<Built In>"
 90
        0
280
     0
281
     0
  0
CLASS
  1
SORTENTSTABLE
  2
AcDbSortentsTable
  3
"AutoCAD"
 90
        0
280
     0
281
     0
  0
CLASS
  1
LAYER_INDEX
  2
AcDbLayerIndex
  3
"Acad"
 90
        0
280
     0
281
     0
  0
CLASS
  1
SPATIAL_INDEX
  2
AcDbSpatialIndex
  3
"Acad"
 90
        0
280
     0
281
     0
  0
CLASS
  1
OBJECT_PTR
  2
CAseDLPNTableRecord
  3
"ASE-LPNTableRecord"
 90
        1
280
     0
281
     0
  0
CLASS
  1
LAYOUT
  2
AcDbLayout
  3
"AutoCAD 2000"
 90
        1
280
     0
281
     0
  0
CLASS
  1
PLOTSETTINGS
  2
AcDbPlotSettings
  3
"AutoCAD 2000"
 90
        1
280
     0
281
     0
  0
CLASS
  1
ACDBDICTIONARYWDFLT
  2
AcDbDictionaryWithDefault
  3
"AutoCAD 2000"
 90
        1
280
     0
281
     0
  0
CLASS
  1
ACDBPLACEHOLDER
  2
AcDbPlaceHolder
  3
"AutoCAD 2000"
 90
        1
280
     0
281
     0
  0
CLASS
  1
VBA_PROJECT
  2
AcDbVbaProject
  3
"acadvba"
 90
        1
280
     0
281
     0
  0
CLASS
  1
WIPEOUT
  2
AcDbWipeout
  3
WipeOut|AutoCAD Express Tool|expresstools@autodesk.com
 90
      127
280
     0
281
     1
  0
CLASS
  1
WIPEOUTVARIABLES
  2
AcDbWipeoutVariables
  3
WipeOut|AutoCAD Express Tool|expresstools@autodesk.com
 90
        0
280
     0
281
     0
  0
CLASS
  1
RTEXT
  2
RText
  3
RText|AutoCAD Express Tool|expresstools@autodesk.com
 90
        0
280
     0
281
     1
  0
CLASS
  1
ARCALIGNEDTEXT
  2
AcDbArcAlignedText
  3
ATEXT|AutoCAD Express Tool|expresstools@autodesk.com
 90
        0
280
     0
281
     1
  0
ENDSEC
  0
SECTION
  2
TABLES
  0
TABLE
  2
VPORT
  5
7
100
AcDbSymbolTable
 70
     1
  0
VPORT
  5
15
100
AcDbSymbolTableRecord
100
AcDbViewportTableRecord
  2
*ACTIVE
 70
     0
 10
0.0
 20
0.0
 11
1.0
 21
1.0
 12
6.591288
 22
4.579184
 13
0.0
 23
0.0
 14
1.0
 24
1.0
 15
0.0
 25
0.0
 16
0.0
 26
0.0
 36
1.0
 17
0.0
 27
0.0
 37
0.0
 40
9.158369
 41
0.688564
 42
50.0
 43
0.0
 44
0.0
 50
0.0
 51
0.0
 71
     0
 72
   100
 73
     1
 74
     1
 75
     0
 76
     0
 77
     0
 78
     0
281
     0
 65
     0
110
0.0
120
0.0
130
0.0
111
1.0
121
0.0
131
0.0
112
0.0
122
1.0
132
0.0
345
0
346
0
 79
     0
146
0.0
  0
ENDTAB
  0
TABLE
  2
LTYPE
  5
4
100
AcDbSymbolTable
 70
    26
  0
LTYPE
  5
11
100
AcDbSymbolTableRecord
100
AcDbLinetypeTableRecord
  2
ByBlock
 70
    64
  3

 72
    65
 73
     0
 40
0.0
  0
LTYPE
  5
12
100
AcDbSymbolTableRecord
100
AcDbLinetypeTableRecord
  2
ByLayer
 70
    64
  3

 72
    65
 73
     0
 40
0.0
  0
LTYPE
  5
13
100
AcDbSymbolTableRecord
100
AcDbLinetypeTableRecord
  2
Continuous
 70
    64
  3
Solid line
 72
    65
 73
     0
 40
0.0
  0
LTYPE
  5
50
100
AcDbSymbolTableRecord
100
AcDbLinetypeTableRecord
  2
AI9-LType1
 70
    64
  3
Illustrator Dash Style No.1
 72
    65
 73
     2
 40
5.628076
 49
2.626436
 74
     0
 49
-3.001641
 74
     0
  0
LTYPE
  5
AD
100
AcDbSymbolTableRecord
100
AcDbLinetypeTableRecord
  2
AI9-LType2
 70
    64
  3
Illustrator Dash Style No.2
 72
    65
 73
     6
 40
5.054055
 49
3.752051
 74
     0
 49
-0.375205
 74
     0
 49
0.088194
 74
     0
 49
-0.375205
 74
     0
 49
0.088194
 74
     0
 49
-0.375205
 74
     0
  0
LTYPE
  5
AF
100
AcDbSymbolTableRecord
100
AcDbLinetypeTableRecord
  2
AI9-LType3
 70
    64
  3
Illustrator Dash Style No.3
 72
    65
 73
     6
 40
5.054055
 49
3.752051
 74
     0
 49
-0.375205
 74
     0
 49
0.088194
 74
     0
 49
-0.375205
 74
     0
 49
0.088194
 74
     0
 49
-0.375205
 74
     0
  0
LTYPE
  5
C2
100
AcDbSymbolTableRecord
100
AcDbLinetypeTableRecord
  2
AI9-LType4
 70
    64
  3
Illustrator Dash Style No.4
 72
    65
 73
     2
 40
0.4634
 49
0.088194
 74
     0
 49
-0.375205
 74
     0
  0
LTYPE
  5
1FF
100
AcDbSymbolTableRecord
100
AcDbLinetypeTableRecord
  2
AI9-LType5
 70
    64
  3
Illustrator Dash Style No.5
 72
    65
 73
     4
 40
5.252871
 49
4.127256
 74
     0
 49
-0.375205
 74
     0
 49
0.375205
 74
     0
 49
-0.375205
 74
     0
  0
LTYPE
  5
201
100
AcDbSymbolTableRecord
100
AcDbLinetypeTableRecord
  2
AI9-LType6
 70
    64
  3
Illustrator Dash Style No.6
 72
    65
 73
     4
 40
5.252871
 49
4.127256
 74
     0
 49
-0.375205
 74
     0
 49
0.375205
 74
     0
 49
-0.375205
 74
     0
  0
LTYPE
  5
203
100
AcDbSymbolTableRecord
100
AcDbLinetypeTableRecord
  2
AI9-LType7
 70
    64
  3
Illustrator Dash Style No.7
 72
    65
 73
     4
 40
5.252871
 49
4.127256
 74
     0
 49
-0.375205
 74
     0
 49
0.375205
 74
     0
 49
-0.375205
 74
     0
  0
LTYPE
  5
205
100
AcDbSymbolTableRecord
100
AcDbLinetypeTableRecord
  2
AI9-LType8
 70
    64
  3
Illustrator Dash Style No.8
 72
    65
 73
     4
 40
5.252871
 49
4.127256
 74
     0
 49
-0.375205
 74
     0
 49
0.375205
 74
     0
 49
-0.375205
 74
     0
  0
LTYPE
  5
207
100
AcDbSymbolTableRecord
100
AcDbLinetypeTableRecord
  2
AI9-LType9
 70
    64
  3
Illustrator Dash Style No.9
 72
    65
 73
     4
 40
5.252871
 49
4.127256
 74
     0
 49
-0.375205
 74
     0
 49
0.375205
 74
     0
 49
-0.375205
 74
     0
  0
LTYPE
  5
209
100
AcDbSymbolTableRecord
100
AcDbLinetypeTableRecord
  2
AI9-LType10
 70
    64
  3
Illustrator Dash Style No.10
 72
    65
 73
     4
 40
5.252871
 49
4.127256
 74
     0
 49
-0.375205
 74
     0
 49
0.375205
 74
     0
 49
-0.375205
 74
     0
  0
LTYPE
  5
20B
100
AcDbSymbolTableRecord
100
AcDbLinetypeTableRecord
  2
AI9-LType11
 70
    64
  3
Illustrator Dash Style No.11
 72
    65
 73
     4
 40
5.252871
 49
4.127256
 74
     0
 49
-0.375205
 74
     0
 49
0.375205
 74
     0
 49
-0.375205
 74
     0
  0
LTYPE
  5
20D
100
AcDbSymbolTableRecord
100
AcDbLinetypeTableRecord
  2
AI9-LType12
 70
    64
  3
Illustrator Dash Style No.12
 72
    65
 73
     4
 40
5.252871
 49
4.127256
 74
     0
 49
-0.375205
 74
     0
 49
0.375205
 74
     0
 49
-0.375205
 74
     0
  0
LTYPE
  5
20F
100
AcDbSymbolTableRecord
100
AcDbLinetypeTableRecord
  2
AI9-LType13
 70
    64
  3
Illustrator Dash Style No.13
 72
    65
 73
     4
 40
5.252871
 49
4.127256
 74
     0
 49
-0.375205
 74
     0
 49
0.375205
 74
     0
 49
-0.375205
 74
     0
  0
LTYPE
  5
211
100
AcDbSymbolTableRecord
100
AcDbLinetypeTableRecord
  2
AI9-LType14
 70
    64
  3
Illustrator Dash Style No.14
 72
    65
 73
     4
 40
5.252871
 49
4.127256
 74
     0
 49
-0.375205
 74
     0
 49
0.375205
 74
     0
 49
-0.375205
 74
     0
  0
LTYPE
  5
213
100
AcDbSymbolTableRecord
100
AcDbLinetypeTableRecord
  2
AI9-LType15
 70
    64
  3
Illustrator Dash Style No.15
 72
    65
 73
     4
 40
5.252871
 49
4.127256
 74
     0
 49
-0.375205
 74
     0
 49
0.375205
 74
     0
 49
-0.375205
 74
     0
  0
LTYPE
  5
215
100
AcDbSymbolTableRecord
100
AcDbLinetypeTableRecord
  2
AI9-LType16
 70
    64
  3
Illustrator Dash Style No.16
 72
    65
 73
     4
 40
5.252871
 49
4.127256
 74
     0
 49
-0.375205
 74
     0
 49
0.375205
 74
     0
 49
-0.375205
 74
     0
  0
LTYPE
  5
217
100
AcDbSymbolTableRecord
100
AcDbLinetypeTableRecord
  2
AI9-LType17
 70
    64
  3
Illustrator Dash Style No.17
 72
    65
 73
     4
 40
5.252871
 49
4.127256
 74
     0
 49
-0.375205
 74
     0
 49
0.375205
 74
     0
 49
-0.375205
 74
     0
  0
LTYPE
  5
21B
100
AcDbSymbolTableRecord
100
AcDbLinetypeTableRecord
  2
AI9-LType18
 70
    64
  3
Illustrator Dash Style No.18
 72
    65
 73
     4
 40
5.252871
 49
4.127256
 74
     0
 49
-0.375205
 74
     0
 49
0.375205
 74
     0
 49
-0.375205
 74
     0
  0
LTYPE
  5
21D
100
AcDbSymbolTableRecord
100
AcDbLinetypeTableRecord
  2
AI9-LType19
 70
    64
  3
Illustrator Dash Style No.19
 72
    65
 73
     4
 40
5.252871
 49
4.127256
 74
     0
 49
-0.375205
 74
     0
 49
0.375205
 74
     0
 49
-0.375205
 74
     0
  0
LTYPE
  5
22A
100
AcDbSymbolTableRecord
100
AcDbLinetypeTableRecord
  2
AI9-LType20
 70
    64
  3
Illustrator Dash Style No.20
 72
    65
 73
     4
 40
5.341066
 49
4.502461
 74
     0
 49
-0.375205
 74
     0
 49
0.088194
 74
     0
 49
-0.375205
 74
     0
  0
LTYPE
  5
22C
100
AcDbSymbolTableRecord
100
AcDbLinetypeTableRecord
  2
AI9-LType21
 70
    64
  3
Illustrator Dash Style No.21
 72
    65
 73
     4
 40
5.341066
 49
4.502461
 74
     0
 49
-0.375205
 74
     0
 49
0.088194
 74
     0
 49
-0.375205
 74
     0
  0
LTYPE
  5
239
100
AcDbSymbolTableRecord
100
AcDbLinetypeTableRecord
  2
AI9-LType22
 70
    64
  3
Illustrator Dash Style No.22
 72
    65
 73
     4
 40
5.341066
 49
4.502461
 74
     0
 49
-0.375205
 74
     0
 49
0.088194
 74
     0
 49
-0.375205
 74
     0
  0
LTYPE
  5
23B
100
AcDbSymbolTableRecord
100
AcDbLinetypeTableRecord
  2
AI9-LType23
 70
    64
  3
Illustrator Dash Style No.23
 72
    65
 73
     4
 40
5.341066
 49
4.502461
 74
     0
 49
-0.375205
 74
     0
 49
0.088194
 74
     0
 49
-0.375205
 74
     0
  0
ENDTAB
  0
TABLE
  2
LAYER
  5
2
100
AcDbSymbolTable
 70
     4
  0
LAYER
  5
14
100
AcDbSymbolTableRecord
100
AcDbLayerTableRecord
  2
0
 70
     0
 62
     7
  6
Continuous
290
     1
370
    -3
390
1D
  0
LAYER
  5
28
100
AcDbSymbolTableRecord
100
AcDbLayerTableRecord
  2
レイヤー_1
 70
     0
 62
   160
  6
Continuous
290
     1
370
    -3
390
1F
  0
LAYER
  5
29
100
AcDbSymbolTableRecord
100
AcDbLayerTableRecord
  2
0
 70
     0
 62
     7
  6
Continuous
290
     1
370
    -3
390
1F
  0
LAYER
  5
122
100
AcDbSymbolTableRecord
100
AcDbLayerTableRecord
  2
1
 70
     0
 62
     7
  6
Continuous
290
     1
370
    -3
390
1F
  0
ENDTAB
  0
TABLE
  2
STYLE
  5
3
100
AcDbSymbolTable
 70
     5
  0
STYLE
  5
17
100
AcDbSymbolTableRecord
100
AcDbTextStyleTableRecord
  2
Standard
 70
     0
 40
0.0
 41
1.0
 50
0.0
 71
     0
 42
0.0
  3
txt
  4

  0
STYLE
  5
24
100
AcDbSymbolTableRecord
100
AcDbTextStyleTableRecord
  2
STD
 70
     0
 40
0.0
 41
1.0
 50
0.0
 71
     0
 42
0.0
  3
txt
  4

  0
STYLE
  5
25
100
AcDbSymbolTableRecord
100
AcDbTextStyleTableRecord
  2
TATESTD
 70
     4
 40
0.0
 41
1.0
 50
0.0
 71
     0
 42
0.0
  3
txt
  4

  0
STYLE
  5
26
100
AcDbSymbolTableRecord
100
AcDbTextStyleTableRecord
  2
KANJISTD
 70
     0
 40
0.0
 41
1.0
 50
0.0
 71
     0
 42
0.0
  3
txt
  4
extfont
  0
STYLE
  5
27
100
AcDbSymbolTableRecord
100
AcDbTextStyleTableRecord
  2
KANJITATE
 70
     4
 40
0.0
 41
1.0
 50
0.0
 71
     0
 42
0.0
  3
txt
  4
extfont
  0
ENDTAB
  0
TABLE
  2
VIEW
  5
5
100
AcDbSymbolTable
 70
     0
  0
ENDTAB
  0
TABLE
  2
UCS
  5
6
100
AcDbSymbolTable
 70
     0
  0
ENDTAB
  0
TABLE
  2
APPID
  5
8
100
AcDbSymbolTable
 70
     1
  0
APPID
  5
16
100
AcDbSymbolTableRecord
100
AcDbRegAppTableRecord
  2
ACAD
 70
     0
  0
ENDTAB
  0
TABLE
  2
DIMSTYLE
  5
9
100
AcDbSymbolTable
 70
     1
100
AcDbDimStyleTable
 71
     0
  0
DIMSTYLE
105
18
100
AcDbSymbolTableRecord
100
AcDbDimStyleTableRecord
  2
Standard
 70
     0
  3

  4

 40
1.0
 41
0.18
 42
0.0625
 43
0.38
 44
0.18
 45
0.0
 46
0.0
 47
0.0
 48
0.0
 71
     0
 72
     0
 73
     1
 74
     1
 75
     0
 76
     0
 77
     0
 78
     0
 79
     0
140
0.18
141
0.09
142
0.0
143
25.4
144
1.0
145
0.0
146
1.0
147
0.09
148
0.0
170
     0
171
     2
172
     0
173
     0
174
     0
175
     0
176
     0
177
     0
178
     0
179
     0
271
     4
272
     4
273
     2
274
     2
275
     0
276
     0
277
     2
278
    46
279
     0
280
     0
281
     0
282
     0
283
     1
284
     0
285
     0
286
     0
288
     0
340
17
341
0
342
0
343
0
344
0
371
    -2
372
    -2
  0
ENDTAB
  0
TABLE
  2
BLOCK_RECORD
  5
1
100
AcDbSymbolTable
 70
    40
  0
BLOCK_RECORD
  5
A
100
AcDbSymbolTableRecord
100
AcDbBlockTableRecord
  2
*MODEL_SPACE
340
20
  0
BLOCK_RECORD
  5
B
100
AcDbSymbolTableRecord
100
AcDbBlockTableRecord
  2
*PAPER_SPACE
340
21
  0
BLOCK_RECORD
  5
2C
100
AcDbSymbolTableRecord
100
AcDbBlockTableRecord
  2
AI9-BLK1
340
0
  0
BLOCK_RECORD
  5
AA
100
AcDbSymbolTableRecord
100
AcDbBlockTableRecord
  2
AI9-BLK2
340
0
  0
BLOCK_RECORD
  5
108
100
AcDbSymbolTableRecord
100
AcDbBlockTableRecord
  2
AI9-BLK3
340
0
  0
BLOCK_RECORD
  5
123
100
AcDbSymbolTableRecord
100
AcDbBlockTableRecord
  2
AI9-BLK4
340
0
  0
BLOCK_RECORD
  5
137
100
AcDbSymbolTableRecord
100
AcDbBlockTableRecord
  2
AI9-BLK5
340
0
  0
BLOCK_RECORD
  5
146
100
AcDbSymbolTableRecord
100
AcDbBlockTableRecord
  2
AI9-BLK6
340
0
  0
BLOCK_RECORD
  5
15B
100
AcDbSymbolTableRecord
100
AcDbBlockTableRecord
  2
AI9-BLK7
340
0
  0
BLOCK_RECORD
  5
16F
100
AcDbSymbolTableRecord
100
AcDbBlockTableRecord
  2
AI9-BLK8
340
0
  0
BLOCK_RECORD
  5
183
100
AcDbSymbolTableRecord
100
AcDbBlockTableRecord
  2
AI9-BLK9
340
0
  0
BLOCK_RECORD
  5
197
100
AcDbSymbolTableRecord
100
AcDbBlockTableRecord
  2
AI9-BLK10
340
0
  0
BLOCK_RECORD
  5
1AB
100
AcDbSymbolTableRecord
100
AcDbBlockTableRecord
  2
AI9-BLK11
340
0
  0
BLOCK_RECORD
  5
1BF
100
AcDbSymbolTableRecord
100
AcDbBlockTableRecord
  2
AI9-BLK12
340
0
  0
BLOCK_RECORD
  5
25F
100
AcDbSymbolTableRecord
100
AcDbBlockTableRecord
  2
AI9-BLK13
340
0
  0
BLOCK_RECORD
  5
264
100
AcDbSymbolTableRecord
100
AcDbBlockTableRecord
  2
AI9-BLK14
340
0
  0
BLOCK_RECORD
  5
269
100
AcDbSymbolTableRecord
100
AcDbBlockTableRecord
  2
AI9-BLK15
340
0
  0
BLOCK_RECORD
  5
26E
100
AcDbSymbolTableRecord
100
AcDbBlockTableRecord
  2
AI9-BLK16
340
0
  0
BLOCK_RECORD
  5
273
100
AcDbSymbolTableRecord
100
AcDbBlockTableRecord
  2
AI9-BLK17
340
0
  0
BLOCK_RECORD
  5
278
100
AcDbSymbolTableRecord
100
AcDbBlockTableRecord
  2
AI9-BLK18
340
0
  0
BLOCK_RECORD
  5
27D
100
AcDbSymbolTableRecord
100
AcDbBlockTableRecord
  2
AI9-BLK19
340
0
  0
BLOCK_RECORD
  5
282
100
AcDbSymbolTableRecord
100
AcDbBlockTableRecord
  2
AI9-BLK20
340
0
  0
BLOCK_RECORD
  5
287
100
AcDbSymbolTableRecord
100
AcDbBlockTableRecord
  2
AI9-BLK21
340
0
  0
BLOCK_RECORD
  5
28C
100
AcDbSymbolTableRecord
100
AcDbBlockTableRecord
  2
AI9-BLK22
340
0
  0
BLOCK_RECORD
  5
291
100
AcDbSymbolTableRecord
100
AcDbBlockTableRecord
  2
AI9-BLK23
340
0
  0
BLOCK_RECORD
  5
296
100
AcDbSymbolTableRecord
100
AcDbBlockTableRecord
  2
AI9-BLK24
340
0
  0
BLOCK_RECORD
  5
29B
100
AcDbSymbolTableRecord
100
AcDbBlockTableRecord
  2
AI9-BLK25
340
0
  0
BLOCK_RECORD
  5
2A0
100
AcDbSymbolTableRecord
100
AcDbBlockTableRecord
  2
AI9-BLK26
340
0
  0
BLOCK_RECORD
  5
2A5
100
AcDbSymbolTableRecord
100
AcDbBlockTableRecord
  2
AI9-BLK27
340
0
  0
BLOCK_RECORD
  5
2AA
100
AcDbSymbolTableRecord
100
AcDbBlockTableRecord
  2
AI9-BLK28
340
0
  0
BLOCK_RECORD
  5
2AF
100
AcDbSymbolTableRecord
100
AcDbBlockTableRecord
  2
AI9-BLK29
340
0
  0
BLOCK_RECORD
  5
2B4
100
AcDbSymbolTableRecord
100
AcDbBlockTableRecord
  2
AI9-BLK30
340
0
  0
BLOCK_RECORD
  5
2B9
100
AcDbSymbolTableRecord
100
AcDbBlockTableRecord
  2
AI9-BLK31
340
0
  0
BLOCK_RECORD
  5
2BE
100
AcDbSymbolTableRecord
100
AcDbBlockTableRecord
  2
AI9-BLK32
340
0
  0
BLOCK_RECORD
  5
2C3
100
AcDbSymbolTableRecord
100
AcDbBlockTableRecord
  2
AI9-BLK33
340
0
  0
BLOCK_RECORD
  5
2C8
100
AcDbSymbolTableRecord
100
AcDbBlockTableRecord
  2
AI9-BLK34
340
0
  0
BLOCK_RECORD
  5
2CD
100
AcDbSymbolTableRecord
100
AcDbBlockTableRecord
  2
AI9-BLK35
340
0
  0
BLOCK_RECORD
  5
2D2
100
AcDbSymbolTableRecord
100
AcDbBlockTableRecord
  2
AI9-BLK36
340
0
  0
BLOCK_RECORD
  5
2D7
100
AcDbSymbolTableRecord
100
AcDbBlockTableRecord
  2
AI9-BLK37
340
0
  0
BLOCK_RECORD
  5
2DC
100
AcDbSymbolTableRecord
100
AcDbBlockTableRecord
  2
AI9-BLK38
340
0
  0
BLOCK_RECORD
  5
2E1
100
AcDbSymbolTableRecord
100
AcDbBlockTableRecord
  2
AI9-BLK39
340
0
  0
BLOCK_RECORD
  5
325
100
AcDbSymbolTableRecord
100
AcDbBlockTableRecord
  2
AI9-BLK40
340
0
  0
ENDTAB
  0
ENDSEC
  0
SECTION
  2
BLOCKS
  0
BLOCK
  5
D
100
AcDbEntity
  8
0
100
AcDbBlockBegin
  2
*MODEL_SPACE
 70
     0
 10
0.0
 20
0.0
 30
0.0
  3
*MODEL_SPACE
  1

  0
ENDBLK
  5
E
100
AcDbEntity
  8
0
100
AcDbBlockEnd
  0
BLOCK
  5
F
100
AcDbEntity
 67
     1
  8
0
100
AcDbBlockBegin
  2
*PAPER_SPACE
 70
     0
 10
0.0
 20
0.0
 30
0.0
  3
*PAPER_SPACE
  1

  0
ENDBLK
  5
10
100
AcDbEntity
 67
     1
  8
0
100
AcDbBlockEnd
  0
BLOCK
  5
2E
100
AcDbEntity
  8
0
 62
     7
100
AcDbBlockBegin
  2
AI9-BLK1
 70
     0
 10
0.0
 20
0.0
 30
0.0
  3
AI9-BLK1
  1

  0
LINE
  5
A8
100
AcDbEntity
  8
0
 62
     7
100
AcDbLine
 10
-56.655887
 20
-74.41079
 30
0.0
 11
-56.655887
 21
-73.603948
 31
0.0
  0
LINE
  5
A7
100
AcDbEntity
  8
0
 62
     7
100
AcDbLine
 10
-47.275753
 20
-74.41079
 30
0.0
 11
-47.275753
 21
-74.223376
 31
0.0
  0
LINE
  5
A6
100
AcDbEntity
  8
0
 62
     7
100
AcDbLine
 10
-46.525412
 20
-60.528433
 30
0.0
 11
-46.525412
 21
-61.446551
 31
0.0
  0
LINE
  5
A5
100
AcDbEntity
  8
0
 62
     7
100
AcDbLine
 10
-57.031058
 20
-60.528433
 30
0.0
 11
-57.031058
 21
-61.446551
 31
0.0
  0
LINE
  5
A4
100
AcDbEntity
  8
0
 62
     7
100
AcDbLine
 10
43.5237
 20
-60.528433
 30
0.0
 11
43.5237
 21
-61.091017
 31
0.0
  0
LINE
  5
A3
100
AcDbEntity
  8
0
 62
     7
100
AcDbLine
 10
36.019937
 20
-74.223376
 30
0.0
 11
36.019937
 21
-73.848206
 31
0.0
  0
LINE
  5
A2
100
AcDbEntity
  8
0
 62
     7
100
AcDbLine
 10
54.217276
 20
-59.215162
 30
0.0
 11
54.217276
 21
-76.474746
 31
0.0
  0
LINE
  5
A1
100
AcDbEntity
  8
0
 62
     7
100
AcDbLine
 10
55.805121
 20
-71.784593
 30
0.0
 11
55.155376
 21
-71.784593
 31
0.0
  0
LINE
  5
A0
100
AcDbEntity
  8
0
 62
     7
100
AcDbLine
 10
-58.907085
 20
55.712017
 30
0.0
 11
-58.907085
 21
67.282026
 31
0.0
  0
LINE
  5
9F
100
AcDbEntity
  8
0
 62
     7
100
AcDbLine
 10
-44.649385
 20
55.712017
 30
0.0
 11
-44.649385
 21
67.282026
 31
0.0
  0
LINE
  5
9E
100
AcDbEntity
  8
0
 62
     7
100
AcDbLine
 10
48.876345
 20
-73.473035
 30
0.0
 11
40.371438
 21
-73.473035
 31
0.0
  0
LINE
  5
9D
100
AcDbEntity
  8
0
 62
     7
100
AcDbLine
 10
48.876345
 20
-62.216874
 30
0.0
 11
31.892369
 21
-62.216874
 31
0.0
  0
LINE
  5
9C
100
AcDbEntity
  8
0
 62
     7
100
AcDbLine
 10
35.644422
 20
-74.41079
 30
0.0
 11
35.644422
 21
-74.223376
 31
0.0
  0
LINE
  5
9B
100
AcDbEntity
  8
0
 62
     7
100
AcDbLine
 10
-56.280716
 20
-74.223376
 30
0.0
 11
-56.655887
 21
-73.603948
 31
0.0
  0
LINE
  5
9A
100
AcDbEntity
  8
0
 62
     7
100
AcDbLine
 10
-46.900583
 20
-73.603948
 30
0.0
 11
-47.275753
 21
-74.223376
 31
0.0
  0
LINE
  5
99
100
AcDbEntity
  8
0
 62
     7
100
AcDbLine
 10
-46.900583
 20
-73.603948
 30
0.0
 11
-46.900583
 21
-74.41079
 31
0.0
  0
LINE
  5
98
100
AcDbEntity
  8
0
 62
     7
100
AcDbLine
 10
-56.280716
 20
-74.223376
 30
0.0
 11
-56.280716
 21
-74.41079
 31
0.0
  0
LINE
  5
97
100
AcDbEntity
  8
0
 62
     7
100
AcDbLine
 10
-56.655887
 20
-74.223376
 30
0.0
 11
-46.900583
 21
-74.223376
 31
0.0
  0
LINE
  5
96
100
AcDbEntity
  8
0
 62
     7
100
AcDbLine
 10
26.639631
 20
-74.223376
 30
0.0
 11
26.264461
 21
-73.848206
 31
0.0
  0
LINE
  5
95
100
AcDbEntity
  8
0
 62
     7
100
AcDbLine
 10
36.019937
 20
-73.848206
 30
0.0
 11
35.644422
 21
-74.223376
 31
0.0
  0
LINE
  5
94
100
AcDbEntity
  8
0
 62
     7
100
AcDbLine
 10
-55.905373
 20
70.283565
 30
0.0
 11
-47.650924
 21
70.283565
 31
0.0
  0
LINE
  5
93
100
AcDbEntity
  8
0
 62
     7
100
AcDbLine
 10
-44.274214
 20
54.337424
 30
0.0
 11
-44.274214
 21
47.583659
 31
0.0
  0
LINE
  5
92
100
AcDbEntity
  8
0
 62
     7
100
AcDbLine
 10
-59.282256
 20
54.337424
 30
0.0
 11
-59.282256
 21
47.583659
 31
0.0
  0
LINE
  5
91
100
AcDbEntity
  8
0
 62
     7
100
AcDbLine
 10
-44.274214
 20
67.940384
 30
0.0
 11
-44.274214
 21
54.337424
 31
0.0
  0
LINE
  5
90
100
AcDbEntity
  8
0
 62
     7
100
AcDbLine
 10
-59.282256
 20
67.940384
 30
0.0
 11
-59.282256
 21
54.337424
 31
0.0
  0
LINE
  5
8F
100
AcDbEntity
  8
0
 62
     7
100
AcDbLine
 10
-55.717788
 20
71.221665
 30
0.0
 11
-47.83851
 21
71.221665
 31
0.0
  0
LINE
  5
8E
100
AcDbEntity
  8
0
 62
     7
100
AcDbLine
 10
-55.342617
 20
76.099231
 30
0.0
 11
-48.213853
 21
76.099231
 31
0.0
  0
LINE
  5
8D
100
AcDbEntity
  8
0
 62
     7
100
AcDbLine
 10
-55.342617
 20
71.871582
 30
0.0
 11
-48.213853
 21
71.871582
 31
0.0
  0
LINE
  5
8C
100
AcDbEntity
  8
0
 62
     7
100
AcDbLine
 10
-43.148529
 20
71.221665
 30
0.0
 11
-43.148529
 21
70.283565
 31
0.0
  0
LINE
  5
8B
100
AcDbEntity
  8
0
 62
     7
100
AcDbLine
 10
-47.83851
 20
71.221665
 30
0.0
 11
-43.148529
 21
71.221665
 31
0.0
  0
LINE
  5
8A
100
AcDbEntity
  8
0
 62
     7
100
AcDbLine
 10
-47.83851
 20
76.099231
 30
0.0
 11
-47.83851
 21
71.871582
 31
0.0
  0
LINE
  5
89
100
AcDbEntity
  8
0
 62
     7
100
AcDbLine
 10
-51.778149
 20
76.474574
 30
0.0
 11
-48.213853
 21
76.474574
 31
0.0
  0
LINE
  5
88
100
AcDbEntity
  8
0
 62
     7
100
AcDbLine
 10
-48.213853
 20
71.871582
 30
0.0
 11
-47.83851
 21
71.221665
 31
0.0
  0
LINE
  5
87
100
AcDbEntity
  8
0
 62
     7
100
AcDbLine
 10
-48.213853
 20
76.474574
 30
0.0
 11
-48.213853
 21
76.099231
 31
0.0
  0
LINE
  5
86
100
AcDbEntity
  8
0
 62
     7
100
AcDbLine
 10
-47.83851
 20
76.099231
 30
0.0
 11
-48.213853
 21
76.474574
 31
0.0
  0
LINE
  5
85
100
AcDbEntity
  8
0
 62
     7
100
AcDbLine
 10
-55.342617
 20
76.474574
 30
0.0
 11
-55.717788
 21
76.099231
 31
0.0
  0
LINE
  5
84
100
AcDbEntity
  8
0
 62
     7
100
AcDbLine
 10
-55.342617
 20
76.474574
 30
0.0
 11
-51.778149
 21
76.474574
 31
0.0
  0
LINE
  5
83
100
AcDbEntity
  8
0
 62
     7
100
AcDbLine
 10
-55.342617
 20
71.871582
 30
0.0
 11
-55.342617
 21
76.099231
 31
0.0
  0
LINE
  5
82
100
AcDbEntity
  8
0
 62
     7
100
AcDbLine
 10
-55.717788
 20
71.221665
 30
0.0
 11
-55.342617
 21
71.871582
 31
0.0
  0
LINE
  5
81
100
AcDbEntity
  8
0
 62
     7
100
AcDbLine
 10
-55.717788
 20
71.221665
 30
0.0
 11
-55.717788
 21
71.871582
 31
0.0
  0
LINE
  5
80
100
AcDbEntity
  8
0
 62
     7
100
AcDbLine
 10
-60.407941
 20
71.221665
 30
0.0
 11
-55.717788
 21
71.221665
 31
0.0
  0
LINE
  5
7F
100
AcDbEntity
  8
0
 62
     7
100
AcDbLine
 10
-60.407941
 20
70.283565
 30
0.0
 11
-60.407941
 21
71.221665
 31
0.0
  0
LINE
  5
7E
100
AcDbEntity
  8
0
 62
     7
100
AcDbLine
 10
-55.717788
 20
76.099231
 30
0.0
 11
-55.342617
 21
76.099231
 31
0.0
  0
LINE
  5
7D
100
AcDbEntity
  8
0
 62
     7
100
AcDbLine
 10
-55.342617
 20
76.099231
 30
0.0
 11
-55.342617
 21
76.474574
 31
0.0
  0
LINE
  5
7C
100
AcDbEntity
  8
0
 62
     7
100
AcDbLine
 10
-47.83851
 20
76.099231
 30
0.0
 11
-48.213853
 21
76.099231
 31
0.0
  0
LINE
  5
7B
100
AcDbEntity
  8
0
 62
     7
100
AcDbLine
 10
-48.213853
 20
76.099231
 30
0.0
 11
-48.213853
 21
71.871582
 31
0.0
  0
LINE
  5
7A
100
AcDbEntity
  8
0
 62
     7
100
AcDbLine
 10
-48.213853
 20
71.871582
 30
0.0
 11
-47.83851
 21
71.871582
 31
0.0
  0
LINE
  5
79
100
AcDbEntity
  8
0
 62
     7
100
AcDbLine
 10
-47.83851
 20
71.871582
 30
0.0
 11
-47.83851
 21
71.221665
 31
0.0
  0
LINE
  5
78
100
AcDbEntity
  8
0
 62
     7
100
AcDbLine
 10
-55.342617
 20
71.871582
 30
0.0
 11
-55.717788
 21
71.871582
 31
0.0
  0
LINE
  5
77
100
AcDbEntity
  8
0
 62
     7
100
AcDbLine
 10
-55.717788
 20
71.871582
 30
0.0
 11
-55.717788
 21
76.099231
 31
0.0
  0
LINE
  5
76
100
AcDbEntity
  8
0
 62
     7
100
AcDbLine
 10
55.805121
 20
-63.905315
 30
0.0
 11
60.032942
 21
-63.905315
 31
0.0
  0
LINE
  5
75
100
AcDbEntity
  8
0
 62
     7
100
AcDbLine
 10
55.805121
 20
-71.784593
 30
0.0
 11
55.805121
 21
-63.905315
 31
0.0
  0
LINE
  5
74
100
AcDbEntity
  8
0
 62
     7
100
AcDbLine
 10
60.032942
 20
-71.784593
 30
0.0
 11
55.805121
 21
-71.784593
 31
0.0
  0
LINE
  5
73
100
AcDbEntity
  8
0
 62
     7
100
AcDbLine
 10
60.408113
 20
-71.409422
 30
0.0
 11
55.805121
 21
-71.409422
 31
0.0
  0
LINE
  5
72
100
AcDbEntity
  8
0
 62
     7
100
AcDbLine
 10
60.032942
 20
-64.280486
 30
0.0
 11
60.408113
 21
-64.280486
 31
0.0
  0
LINE
  5
71
100
AcDbEntity
  8
0
 62
     7
100
AcDbLine
 10
60.032942
 20
-63.905315
 30
0.0
 11
60.032942
 21
-71.784593
 31
0.0
  0
LINE
  5
70
100
AcDbEntity
  8
0
 62
     7
100
AcDbLine
 10
31.892369
 20
-62.216874
 30
0.0
 11
31.641566
 21
-62.216874
 31
0.0
  0
LINE
  5
6F
100
AcDbEntity
  8
0
 62
     7
100
AcDbLine
 10
54.217276
 20
-59.215162
 30
0.0
 11
55.155376
 21
-59.215162
 31
0.0
  0
LINE
  5
6E
100
AcDbEntity
  8
0
 62
     7
100
AcDbLine
 10
55.155376
 20
-59.215162
 30
0.0
 11
55.155376
 21
-71.784593
 31
0.0
  0
LINE
  5
6D
100
AcDbEntity
  8
0
 62
     7
100
AcDbLine
 10
55.155376
 20
-63.905315
 30
0.0
 11
55.805121
 21
-63.905315
 31
0.0
  0
LINE
  5
6C
100
AcDbEntity
  8
0
 62
     7
100
AcDbLine
 10
60.408113
 20
-64.280486
 30
0.0
 11
60.408113
 21
-67.844782
 31
0.0
  0
LINE
  5
6B
100
AcDbEntity
  8
0
 62
     7
100
AcDbLine
 10
55.155376
 20
-63.905315
 30
0.0
 11
55.805121
 21
-64.280486
 31
0.0
  0
LINE
  5
6A
100
AcDbEntity
  8
0
 62
     7
100
AcDbLine
 10
55.805121
 20
-64.280486
 30
0.0
 11
60.032942
 21
-64.280486
 31
0.0
  0
LINE
  5
69
100
AcDbEntity
  8
0
 62
     7
100
AcDbLine
 10
60.408113
 20
-64.280486
 30
0.0
 11
60.032942
 21
-63.905315
 31
0.0
  0
LINE
  5
68
100
AcDbEntity
  8
0
 62
     7
100
AcDbLine
 10
51.215565
 20
-73.473035
 30
0.0
 11
48.876345
 21
-73.473035
 31
0.0
  0
LINE
  5
67
100
AcDbEntity
  8
0
 62
     7
100
AcDbLine
 10
60.032942
 20
-71.784593
 30
0.0
 11
60.408113
 21
-71.409422
 31
0.0
  0
LINE
  5
66
100
AcDbEntity
  8
0
 62
     7
100
AcDbLine
 10
60.408113
 20
-67.844782
 30
0.0
 11
60.408113
 21
-71.409422
 31
0.0
  0
LINE
  5
65
100
AcDbEntity
  8
0
 62
     7
100
AcDbLine
 10
55.805121
 20
-71.409422
 30
0.0
 11
55.155376
 21
-71.784593
 31
0.0
  0
LINE
  5
64
100
AcDbEntity
  8
0
 62
     7
100
AcDbLine
 10
55.155376
 20
-71.784593
 30
0.0
 11
55.155376
 21
-76.474746
 31
0.0
  0
LINE
  5
63
100
AcDbEntity
  8
0
 62
     7
100
AcDbLine
 10
55.155376
 20
-76.474746
 30
0.0
 11
54.217276
 21
-76.474746
 31
0.0
  0
LINE
  5
62
100
AcDbEntity
  8
0
 62
     7
100
AcDbLine
 10
51.215565
 20
-62.216874
 30
0.0
 11
48.876345
 21
-62.216874
 31
0.0
  0
LINE
  5
61
100
AcDbEntity
  8
0
 62
     7
100
AcDbLine
 10
33.018226
 20
-61.091017
 30
0.0
 11
33.018226
 21
-60.528433
 31
0.0
  0
LINE
  5
60
100
AcDbEntity
  8
0
 62
     7
100
AcDbLine
 10
36.019937
 20
-74.41079
 30
0.0
 11
36.019937
 21
-74.223376
 31
0.0
  0
LINE
  5
5F
100
AcDbEntity
  8
0
 62
     7
100
AcDbLine
 10
40.371438
 20
-73.473035
 30
0.0
 11
25.138948
 21
-73.473035
 31
0.0
  0
LINE
  5
5E
100
AcDbEntity
  8
0
 62
     7
100
AcDbLine
 10
26.264461
 20
-74.41079
 30
0.0
 11
26.264461
 21
-74.223376
 31
0.0
  0
LINE
  5
5D
100
AcDbEntity
  8
0
 62
     7
100
AcDbLine
 10
26.264461
 20
-74.223376
 30
0.0
 11
36.019937
 21
-74.223376
 31
0.0
  0
LINE
  5
5C
100
AcDbEntity
  8
0
 62
     7
100
AcDbLine
 10
26.639631
 20
-74.223376
 30
0.0
 11
26.639631
 21
-74.41079
 31
0.0
  0
LINE
  5
5B
100
AcDbEntity
  8
0
 62
     7
100
AcDbLine
 10
26.264461
 20
-73.848206
 30
0.0
 11
26.264461
 21
-74.223376
 31
0.0
  0
SPLINE
  5
5A
100
AcDbEntity
  8
0
 62
     7
100
AcDbSpline
210
0.0
220
0.0
230
1.0
 70
     8
 71
     3
 72
    11
 73
     7
 74
     0
 42
0.00000001
 43
0.00000001
 40
0.0
 40
0.0
 40
0.0
 40
0.0
 40
1.0
 40
1.0
 40
1.0
 40
2.0
 40
2.0
 40
2.0
 40
2.0
 10
-57.031058078342006
 20
-60.9979994032118
 30
0.0
 10
-60.812567138671866
 20
-63.899114312065969
 30
0.0
 10
-61.526046413845478
 20
-69.316182454427079
 30
0.0
 10
-58.625103759765622
 20
-73.097519259982633
 30
0.0
 10
-58.165700276692704
 20
-73.696276855468739
 30
0.0
 10
-57.629815673828119
 20
-74.232333713107636
 30
0.0
 10
-57.031058078342006
 20
-74.691564941406241
 30
0.0
  0
SPLINE
  5
59
100
AcDbEntity
  8
0
 62
     7
100
AcDbSpline
210
0.0
220
0.0
230
1.0
 70
     8
 71
     3
 72
    11
 73
     7
 74
     0
 42
0.00000001
 43
0.00000001
 40
0.0
 40
0.0
 40
0.0
 40
0.0
 40
1.0
 40
1.0
 40
1.0
 40
2.0
 40
2.0
 40
2.0
 40
2.0
 10
-46.525411648220484
 20
-74.691564941406241
 30
0.0
 10
-42.743902587890624
 20
-71.790450032552073
 30
0.0
 10
-42.030251057942706
 20
-66.37338189019097
 30
0.0
 10
-44.931365966796868
 20
-62.592045084635409
 30
0.0
 10
-45.390769449869786
 20
-61.993287489149303
 30
0.0
 10
-45.926481797960065
 20
-61.457230631510413
 30
0.0
 10
-46.525411648220484
 20
-60.9979994032118
 30
0.0
  0
SPLINE
  5
58
100
AcDbEntity
  8
0
 62
     7
100
AcDbSpline
210
0.0
220
0.0
230
1.0
 70
     8
 71
     3
 72
     8
 73
     4
 74
     0
 42
0.00000001
 43
0.00000001
 40
0.0
 40
0.0
 40
0.0
 40
0.0
 40
1.0
 40
1.0
 40
1.0
 40
1.0
 10
-59.272953965928814
 20
47.208487955729161
 30
0.0
 10
-59.092430962456589
 20
43.603023274739577
 30
0.0
 10
-56.370288764105901
 20
40.637140570746524
 30
0.0
 10
-52.793418375651036
 20
40.148626030815969
 30
0.0
  0
SPLINE
  5
57
100
AcDbEntity
  8
0
 62
     7
100
AcDbSpline
210
0.0
220
0.0
230
1.0
 70
     8
 71
     3
 72
     8
 73
     4
 74
     0
 42
0.00000001
 43
0.00000001
 40
0.0
 40
0.0
 40
0.0
 40
0.0
 40
1.0
 40
1.0
 40
1.0
 40
1.0
 10
-58.031686062282979
 20
-62.565173339843746
 30
0.0
 10
-58.045466444227422
 20
-62.566895887586803
 30
0.0
 10
-58.059074571397566
 20
-62.568273925781241
 30
0.0
 10
-58.072854953342009
 20
-62.569996473524299
 30
0.0
  0
SPLINE
  5
56
100
AcDbEntity
  8
0
 62
     7
100
AcDbSpline
210
0.0
220
0.0
230
1.0
 70
     8
 71
     3
 72
     8
 73
     4
 74
     0
 42
0.00000001
 43
0.00000001
 40
0.0
 40
0.0
 40
0.0
 40
0.0
 40
1.0
 40
1.0
 40
1.0
 40
1.0
 10
-44.274214002821175
 20
-67.844782172309024
 30
0.0
 10
-44.274214002821175
 20
-66.418857150607636
 30
0.0
 10
-44.346044243706594
 20
-64.993965657552081
 30
0.0
 10
-44.489532470703118
 20
-63.574930826822914
 30
0.0
  0
SPLINE
  5
55
100
AcDbEntity
  8
0
 62
     7
100
AcDbSpline
210
0.0
220
0.0
230
1.0
 70
     8
 71
     3
 72
     8
 73
     4
 74
     0
 42
0.00000001
 43
0.00000001
 40
0.0
 40
0.0
 40
0.0
 40
0.0
 40
1.0
 40
1.0
 40
1.0
 40
1.0
 10
-46.560207112630202
 20
-73.230499945746516
 30
0.0
 10
-46.201055908203124
 20
-73.19708251953125
 30
0.0
 10
-45.842076958550344
 20
-73.160219997829856
 30
0.0
 10
-45.483614773220481
 20
-73.119912380642361
 30
0.0
  0
SPLINE
  5
54
100
AcDbEntity
  8
0
 62
     7
100
AcDbSpline
210
0.0
220
0.0
230
1.0
 70
     8
 71
     3
 72
     8
 73
     4
 74
     0
 42
0.00000001
 43
0.00000001
 40
0.0
 40
0.0
 40
0.0
 40
0.0
 40
1.0
 40
1.0
 40
1.0
 40
1.0
 10
-59.282255723741315
 20
-67.844782172309024
 30
0.0
 10
-59.282255723741315
 20
-69.270707194010413
 30
0.0
 10
-59.210425482855896
 20
-70.695943196614579
 30
0.0
 10
-59.066765001085066
 20
-72.114633517795127
 30
0.0
  0
SPLINE
  5
53
100
AcDbEntity
  8
0
 62
     7
100
AcDbSpline
210
0.0
220
0.0
230
1.0
 70
     8
 71
     3
 72
     8
 73
     4
 74
     0
 42
0.00000001
 43
0.00000001
 40
0.0
 40
0.0
 40
0.0
 40
0.0
 40
1.0
 40
1.0
 40
1.0
 40
1.0
 10
-51.778148735894092
 20
-62.216874186197913
 30
0.0
 10
-53.532046847873261
 20
-62.216874186197913
 30
0.0
 10
-55.284911431206595
 20
-62.298867458767354
 30
0.0
 10
-57.031058078342006
 20
-62.462509494357633
 30
0.0
  0
SPLINE
  5
52
100
AcDbEntity
  8
0
 62
     7
100
AcDbSpline
210
0.0
220
0.0
230
1.0
 70
     8
 71
     3
 72
     8
 73
     4
 74
     0
 42
0.00000001
 43
0.00000001
 40
0.0
 40
0.0
 40
0.0
 40
0.0
 40
1.0
 40
1.0
 40
1.0
 40
1.0
 10
-57.031058078342006
 20
-62.462509494357633
 30
0.0
 10
-57.364887830946174
 20
-62.493859863281244
 30
0.0
 10
-57.698373074001729
 20
-62.527966308593747
 30
0.0
 10
-58.031686062282979
 20
-62.565173339843746
 30
0.0
  0
SPLINE
  5
51
100
AcDbEntity
  8
0
  6
AI9-LType1
 62
     7
100
AcDbSpline
210
0.0
220
0.0
230
1.0
 70
     8
 71
     3
 72
     8
 73
     4
 74
     0
 42
0.00000001
 43
0.00000001
 40
0.0
 40
0.0
 40
0.0
 40
0.0
 40
1.0
 40
1.0
 40
1.0
 40
1.0
 10
-45.483614773220481
 20
-62.569996473524299
 30
0.0
 10
-45.497395155164924
 20
-62.568273925781241
 30
0.0
 10
-45.511175537109374
 20
-62.566895887586803
 30
0.0
 10
-45.524783664279511
 20
-62.565173339843746
 30
0.0
  0
SPLINE
  5
4F
100
AcDbEntity
  8
0
 62
     7
100
AcDbSpline
210
0.0
220
0.0
230
1.0
 70
     8
 71
     3
 72
     8
 73
     4
 74
     0
 42
0.00000001
 43
0.00000001
 40
0.0
 40
0.0
 40
0.0
 40
0.0
 40
1.0
 40
1.0
 40
1.0
 40
1.0
 10
-46.900582546657979
 20
-73.261161295572904
 30
0.0
 10
-46.787066650390621
 20
-73.251170518663187
 30
0.0
 10
-46.673550754123262
 20
-73.24117974175347
 30
0.0
 10
-46.560207112630202
 20
-73.230499945746516
 30
0.0
  0
SPLINE
  5
4E
100
AcDbEntity
  8
0
 62
     7
100
AcDbSpline
210
0.0
220
0.0
230
1.0
 70
     8
 71
     3
 72
     8
 73
     4
 74
     0
 42
0.00000001
 43
0.00000001
 40
0.0
 40
0.0
 40
0.0
 40
0.0
 40
1.0
 40
1.0
 40
1.0
 40
1.0
 10
-58.072854953342009
 20
-73.119912380642361
 30
0.0
 10
-57.714392768012146
 20
-73.160219997829856
 30
0.0
 10
-57.355413818359366
 20
-73.19708251953125
 30
0.0
 10
-56.996434868706594
 20
-73.230499945746516
 30
0.0
  0
SPLINE
  5
4D
100
AcDbEntity
  8
0
 62
     7
100
AcDbSpline
210
0.0
220
0.0
230
1.0
 70
     8
 71
     3
 72
     8
 73
     4
 74
     0
 42
0.00000001
 43
0.00000001
 40
0.0
 40
0.0
 40
0.0
 40
0.0
 40
1.0
 40
1.0
 40
1.0
 40
1.0
 10
-51.778148735894092
 20
-73.473034667968747
 30
0.0
 10
-50.149996609157981
 20
-73.473034667968747
 30
0.0
 10
-48.522705756293398
 20
-73.402410210503461
 30
0.0
 10
-46.900582546657979
 20
-73.261161295572904
 30
0.0
  0
SPLINE
  5
4C
100
AcDbEntity
  8
0
 62
     7
100
AcDbSpline
210
0.0
220
0.0
230
1.0
 70
     8
 71
     3
 72
     8
 73
     4
 74
     0
 42
0.00000001
 43
0.00000001
 40
0.0
 40
0.0
 40
0.0
 40
0.0
 40
1.0
 40
1.0
 40
1.0
 40
1.0
 10
30.803718397352426
 20
-62.59066704644097
 30
0.0
 10
29.308546956380205
 20
-64.25774875217013
 30
0.0
 10
27.914661322699651
 20
-66.01199137369791
 30
0.0
 10
26.628607177734374
 20
-67.844782172309024
 30
0.0
  0
SPLINE
  5
4B
100
AcDbEntity
  8
0
 62
     7
100
AcDbSpline
210
0.0
220
0.0
230
1.0
 70
     8
 71
     3
 72
     8
 73
     4
 74
     0
 42
0.00000001
 43
0.00000001
 40
0.0
 40
0.0
 40
0.0
 40
0.0
 40
1.0
 40
1.0
 40
1.0
 40
1.0
 10
-50.760639784071174
 20
40.14897054036458
 30
0.0
 10
-47.044243028428816
 20
40.657466634114577
 30
0.0
 10
-44.274214002821175
 20
43.832466634114581
 30
0.0
 10
-44.274214002821175
 20
47.583658854166664
 30
0.0
  0
SPLINE
  5
4A
100
AcDbEntity
  8
0
 62
     7
100
AcDbSpline
210
0.0
220
0.0
230
1.0
 70
     8
 71
     3
 72
     8
 73
     4
 74
     0
 42
0.00000001
 43
0.00000001
 40
0.0
 40
0.0
 40
0.0
 40
0.0
 40
1.0
 40
1.0
 40
1.0
 40
1.0
 10
-43.148529052734368
 20
70.28356526692707
 30
0.0
 10
-43.859941270616318
 20
69.713918728298609
 30
0.0
 10
-44.274214002821175
 20
68.8519558376736
 30
0.0
 10
-44.274214002821175
 20
67.940383572048603
 30
0.0
  0
SPLINE
  5
49
100
AcDbEntity
  8
0
 62
     7
100
AcDbSpline
210
0.0
220
0.0
230
1.0
 70
     8
 71
     3
 72
     8
 73
     4
 74
     0
 42
0.00000001
 43
0.00000001
 40
0.0
 40
0.0
 40
0.0
 40
0.0
 40
1.0
 40
1.0
 40
1.0
 40
1.0
 10
-59.282255723741315
 20
67.940383572048603
 30
0.0
 10
-59.282255723741315
 20
68.8519558376736
 30
0.0
 10
-59.696356201171866
 20
69.713918728298609
 30
0.0
 10
-60.407940673828122
 20
70.28356526692707
 30
0.0
  0
SPLINE
  5
48
100
AcDbEntity
  8
0
 62
     7
100
AcDbSpline
210
0.0
220
0.0
230
1.0
 70
     8
 71
     3
 72
    11
 73
     7
 74
     0
 42
0.00000001
 43
0.00000001
 40
0.0
 40
0.0
 40
0.0
 40
0.0
 40
1.0
 40
1.0
 40
1.0
 40
2.0
 40
2.0
 40
2.0
 40
2.0
 10
24.01343519422743
 20
-71.937900119357636
 30
0.0
 10
23.785369873046871
 20
-72.516331651475681
 30
0.0
 10
24.069590250651039
 20
-73.169866265190961
 30
0.0
 10
24.648021782769096
 20
-73.397931586371527
 30
0.0
 10
24.803740098741319
 20
-73.459254286024304
 30
0.0
 10
24.971516248914927
 20
-73.485092502170133
 30
0.0
 10
25.138947889539928
 20
-73.473379177517359
 30
0.0
  0
SPLINE
  5
47
100
AcDbEntity
  8
0
 62
     7
100
AcDbSpline
210
0.0
220
0.0
230
1.0
 70
     8
 71
     3
 72
     8
 73
     4
 74
     0
 42
0.00000001
 43
0.00000001
 40
0.0
 40
0.0
 40
0.0
 40
0.0
 40
1.0
 40
1.0
 40
1.0
 40
1.0
 10
26.628607177734374
 20
-67.844782172309024
 30
0.0
 10
25.698431396484374
 20
-69.170799424913184
 30
0.0
 10
24.825788709852429
 20
-70.53643527560763
 30
0.0
 10
24.01343519422743
 20
-71.937900119357636
 30
0.0
  0
SPLINE
  5
46
100
AcDbEntity
  8
0
 62
     7
100
AcDbSpline
210
0.0
220
0.0
230
1.0
 70
     8
 71
     3
 72
     8
 73
     4
 74
     0
 42
0.00000001
 43
0.00000001
 40
0.0
 40
0.0
 40
0.0
 40
0.0
 40
1.0
 40
1.0
 40
1.0
 40
1.0
 10
-45.524783664279511
 20
-62.565173339843746
 30
0.0
 10
-47.601142713758676
 20
-62.332973904079857
 30
0.0
 10
-49.688870578342012
 20
-62.216874186197913
 30
0.0
 10
-51.778148735894092
 20
-62.216874186197913
 30
0.0
  0
SPLINE
  5
45
100
AcDbEntity
  8
0
 62
     7
100
AcDbSpline
210
0.0
220
0.0
230
1.0
 70
     8
 71
     3
 72
     8
 73
     4
 74
     0
 42
0.00000001
 43
0.00000001
 40
0.0
 40
0.0
 40
0.0
 40
0.0
 40
1.0
 40
1.0
 40
1.0
 40
1.0
 10
-56.996434868706594
 20
-73.230499945746516
 30
0.0
 10
-55.261657036675345
 20
-73.392074924045133
 30
0.0
 10
-53.520333523220479
 20
-73.473034667968747
 30
0.0
 10
-51.778148735894092
 20
-73.473034667968747
 30
0.0
  0
SPLINE
  5
44
100
AcDbEntity
  8
0
 62
     7
100
AcDbSpline
210
0.0
220
0.0
230
1.0
 70
     8
 71
     3
 72
     8
 73
     4
 74
     0
 42
0.00000001
 43
0.00000001
 40
0.0
 40
0.0
 40
0.0
 40
0.0
 40
1.0
 40
1.0
 40
1.0
 40
1.0
 10
-59.066765001085066
 20
-63.574930826822914
 30
0.0
 10
-59.210425482855896
 20
-64.993965657552081
 30
0.0
 10
-59.282255723741315
 20
-66.418857150607636
 30
0.0
 10
-59.282255723741315
 20
-67.844782172309024
 30
0.0
  0
SPLINE
  5
43
100
AcDbEntity
  8
0
 62
     7
100
AcDbSpline
210
0.0
220
0.0
230
1.0
 70
     8
 71
     3
 72
     8
 73
     4
 74
     0
 42
0.00000001
 43
0.00000001
 40
0.0
 40
0.0
 40
0.0
 40
0.0
 40
1.0
 40
1.0
 40
1.0
 40
1.0
 10
-44.489532470703118
 20
-72.114633517795127
 30
0.0
 10
-44.346044243706594
 20
-70.695943196614579
 30
0.0
 10
-44.274214002821175
 20
-69.270707194010413
 30
0.0
 10
-44.274214002821175
 20
-67.844782172309024
 30
0.0
  0
SPLINE
  5
42
100
AcDbEntity
  8
0
 62
     7
100
AcDbSpline
210
0.0
220
0.0
230
1.0
 70
     8
 71
     3
 72
     8
 73
     4
 74
     0
 42
0.00000001
 43
0.00000001
 40
0.0
 40
0.0
 40
0.0
 40
0.0
 40
1.0
 40
1.0
 40
1.0
 40
1.0
 10
-59.282255723741315
 20
47.583658854166664
 30
0.0
 10
-59.282255723741315
 20
47.45860188802083
 30
0.0
 10
-59.279155137803812
 20
47.33337266710069
 30
0.0
 10
-59.272953965928814
 20
47.208487955729161
 30
0.0
  0
SPLINE
  5
41
100
AcDbEntity
  8
0
 62
     7
100
AcDbSpline
210
0.0
220
0.0
230
1.0
 70
     8
 71
     3
 72
     8
 73
     4
 74
     0
 42
0.00000001
 43
0.00000001
 40
0.0
 40
0.0
 40
0.0
 40
0.0
 40
1.0
 40
1.0
 40
1.0
 40
1.0
 10
-58.072854953342009
 20
-62.569996473524299
 30
0.0
 10
-58.599437798394092
 20
-62.629252115885414
 30
0.0
 10
-59.013366021050345
 20
-63.047831217447914
 30
0.0
 10
-59.066765001085066
 20
-63.574930826822914
 30
0.0
  0
SPLINE
  5
40
100
AcDbEntity
  8
0
 62
     7
100
AcDbSpline
210
0.0
220
0.0
230
1.0
 70
     8
 71
     3
 72
     8
 73
     4
 74
     0
 42
0.00000001
 43
0.00000001
 40
0.0
 40
0.0
 40
0.0
 40
0.0
 40
1.0
 40
1.0
 40
1.0
 40
1.0
 10
-44.489532470703118
 20
-63.574930826822914
 30
0.0
 10
-44.542931450737846
 20
-63.047831217447914
 30
0.0
 10
-44.957031928168398
 20
-62.629252115885414
 30
0.0
 10
-45.483614773220481
 20
-62.569996473524299
 30
0.0
  0
SPLINE
  5
3F
100
AcDbEntity
  8
0
 62
     7
100
AcDbSpline
210
0.0
220
0.0
230
1.0
 70
     8
 71
     3
 72
     8
 73
     4
 74
     0
 42
0.00000001
 43
0.00000001
 40
0.0
 40
0.0
 40
0.0
 40
0.0
 40
1.0
 40
1.0
 40
1.0
 40
1.0
 10
-59.066765001085066
 20
-72.114633517795127
 30
0.0
 10
-59.013366021050345
 20
-72.641733127170127
 30
0.0
 10
-58.599437798394092
 20
-73.060656738281239
 30
0.0
 10
-58.072854953342009
 20
-73.119912380642361
 30
0.0
  0
SPLINE
  5
3E
100
AcDbEntity
  8
0
 62
     7
100
AcDbSpline
210
0.0
220
0.0
230
1.0
 70
     8
 71
     3
 72
     8
 73
     4
 74
     0
 42
0.00000001
 43
0.00000001
 40
0.0
 40
0.0
 40
0.0
 40
0.0
 40
1.0
 40
1.0
 40
1.0
 40
1.0
 10
-45.483614773220481
 20
-73.119912380642361
 30
0.0
 10
-44.957031928168398
 20
-73.060656738281239
 30
0.0
 10
-44.542931450737846
 20
-72.642077636718739
 30
0.0
 10
-44.489532470703118
 20
-72.114633517795127
 30
0.0
  0
SPLINE
  5
3D
100
AcDbEntity
  8
0
 62
     7
100
AcDbSpline
210
0.0
220
0.0
230
1.0
 70
     8
 71
     3
 72
     8
 73
     4
 74
     0
 42
0.00000001
 43
0.00000001
 40
0.0
 40
0.0
 40
0.0
 40
0.0
 40
1.0
 40
1.0
 40
1.0
 40
1.0
 10
-58.031686062282979
 20
-62.565173339843746
 30
0.0
 10
-57.461867268880205
 20
-62.501439073350689
 30
0.0
 10
-57.031058078342006
 20
-62.019814724392354
 30
0.0
 10
-57.031058078342006
 20
-61.446550835503466
 30
0.0
  0
SPLINE
  5
3C
100
AcDbEntity
  8
0
 62
     7
100
AcDbSpline
210
0.0
220
0.0
230
1.0
 70
     8
 71
     3
 72
     8
 73
     4
 74
     0
 42
0.00000001
 43
0.00000001
 40
0.0
 40
0.0
 40
0.0
 40
0.0
 40
1.0
 40
1.0
 40
1.0
 40
1.0
 10
-46.525411648220484
 20
-61.446550835503466
 30
0.0
 10
-46.525411648220484
 20
-62.019814724392354
 30
0.0
 10
-46.094602457682285
 20
-62.501439073350689
 30
0.0
 10
-45.524783664279511
 20
-62.565173339843746
 30
0.0
  0
SPLINE
  5
3B
100
AcDbEntity
  8
0
 62
     7
100
AcDbSpline
210
0.0
220
0.0
230
1.0
 70
     8
 71
     3
 72
     8
 73
     4
 74
     0
 42
0.00000001
 43
0.00000001
 40
0.0
 40
0.0
 40
0.0
 40
0.0
 40
1.0
 40
1.0
 40
1.0
 40
1.0
 10
-46.560207112630202
 20
-73.230499945746516
 30
0.0
 10
-46.753132459852424
 20
-73.248414442274296
 30
0.0
 10
-46.900582546657979
 20
-73.410333930121524
 30
0.0
 10
-46.900582546657979
 20
-73.603948296440961
 30
0.0
  0
SPLINE
  5
3A
100
AcDbEntity
  8
0
 62
     7
100
AcDbSpline
210
0.0
220
0.0
230
1.0
 70
     8
 71
     3
 72
     8
 73
     4
 74
     0
 42
0.00000001
 43
0.00000001
 40
0.0
 40
0.0
 40
0.0
 40
0.0
 40
1.0
 40
1.0
 40
1.0
 40
1.0
 10
-56.655887179904511
 20
-73.603948296440961
 30
0.0
 10
-56.655887179904511
 20
-73.410333930121524
 30
0.0
 10
-56.803337266710066
 20
-73.248414442274296
 30
0.0
 10
-56.996434868706594
 20
-73.230499945746516
 30
0.0
  0
SPLINE
  5
39
100
AcDbEntity
  8
0
 62
     7
100
AcDbSpline
210
0.0
220
0.0
230
1.0
 70
     8
 71
     3
 72
     8
 73
     4
 74
     0
 42
0.00000001
 43
0.00000001
 40
0.0
 40
0.0
 40
0.0
 40
0.0
 40
1.0
 40
1.0
 40
1.0
 40
1.0
 10
-44.649384901258678
 20
67.282025824652777
 30
0.0
 10
-44.649384901258678
 20
68.939805772569443
 30
0.0
 10
-45.993316650390618
 20
70.28356526692707
 30
0.0
 10
-47.650924343532985
 20
70.28356526692707
 30
0.0
  0
SPLINE
  5
38
100
AcDbEntity
  8
0
 62
     7
100
AcDbSpline
210
0.0
220
0.0
230
1.0
 70
     8
 71
     3
 72
     8
 73
     4
 74
     0
 42
0.00000001
 43
0.00000001
 40
0.0
 40
0.0
 40
0.0
 40
0.0
 40
1.0
 40
1.0
 40
1.0
 40
1.0
 10
-55.905373128255206
 20
70.28356526692707
 30
0.0
 10
-57.563325330946178
 20
70.28356526692707
 30
0.0
 10
-58.907084825303812
 20
68.939805772569443
 30
0.0
 10
-58.907084825303812
 20
67.282025824652777
 30
0.0
  0
SPLINE
  5
37
100
AcDbEntity
  8
0
 62
     7
100
AcDbSpline
210
0.0
220
0.0
230
1.0
 70
     8
 71
     3
 72
     8
 73
     4
 74
     0
 42
0.00000001
 43
0.00000001
 40
0.0
 40
0.0
 40
0.0
 40
0.0
 40
1.0
 40
1.0
 40
1.0
 40
1.0
 10
51.215564643012151
 20
-62.216874186197913
 30
0.0
 10
52.873344590928816
 20
-62.216874186197913
 30
0.0
 10
54.217276340060756
 20
-60.872942437065966
 30
0.0
 10
54.217276340060756
 20
-59.2151624891493
 30
0.0
  0
SPLINE
  5
36
100
AcDbEntity
  8
0
 62
     7
100
AcDbSpline
210
0.0
220
0.0
230
1.0
 70
     8
 71
     3
 72
     8
 73
     4
 74
     0
 42
0.00000001
 43
0.00000001
 40
0.0
 40
0.0
 40
0.0
 40
0.0
 40
1.0
 40
1.0
 40
1.0
 40
1.0
 10
54.217276340060756
 20
-76.474746365017353
 30
0.0
 10
54.217276340060756
 20
-74.816966417100687
 30
0.0
 10
52.873344590928816
 20
-73.473034667968747
 30
0.0
 10
51.215564643012151
 20
-73.473034667968747
 30
0.0
  0
SPLINE
  5
35
100
AcDbEntity
  8
0
 62
     7
100
AcDbSpline
210
0.0
220
0.0
230
1.0
 70
     8
 71
     3
 72
     8
 73
     4
 74
     0
 42
0.00000001
 43
0.00000001
 40
0.0
 40
0.0
 40
0.0
 40
0.0
 40
1.0
 40
1.0
 40
1.0
 40
1.0
 10
43.523699951171871
 20
-61.0910169813368
 30
0.0
 10
43.523699951171871
 20
-61.712856716579857
 30
0.0
 10
44.027717420789926
 20
-62.216874186197913
 30
0.0
 10
44.649557156032984
 20
-62.216874186197913
 30
0.0
  0
SPLINE
  5
34
100
AcDbEntity
  8
0
 62
     7
100
AcDbSpline
210
0.0
220
0.0
230
1.0
 70
     8
 71
     3
 72
     8
 73
     4
 74
     0
 42
0.00000001
 43
0.00000001
 40
0.0
 40
0.0
 40
0.0
 40
0.0
 40
1.0
 40
1.0
 40
1.0
 40
1.0
 10
31.892368570963537
 20
-62.216874186197913
 30
0.0
 10
32.514208306206591
 20
-62.216874186197913
 30
0.0
 10
33.018225775824646
 20
-61.712856716579857
 30
0.0
 10
33.018225775824646
 20
-61.0910169813368
 30
0.0
  0
SPLINE
  5
33
100
AcDbEntity
  8
0
 62
     7
100
AcDbSpline
210
0.0
220
0.0
230
1.0
 70
     8
 71
     3
 72
     8
 73
     4
 74
     0
 42
0.00000001
 43
0.00000001
 40
0.0
 40
0.0
 40
0.0
 40
0.0
 40
1.0
 40
1.0
 40
1.0
 40
1.0
 10
36.395108371310762
 20
-73.473034667968747
 30
0.0
 10
36.187713623046875
 20
-73.473034667968747
 30
0.0
 10
36.019937472873259
 20
-73.640810818142356
 30
0.0
 10
36.019937472873259
 20
-73.84820556640625
 30
0.0
  0
SPLINE
  5
32
100
AcDbEntity
  8
0
 62
     7
100
AcDbSpline
210
0.0
220
0.0
230
1.0
 70
     8
 71
     3
 72
     8
 73
     4
 74
     0
 42
0.00000001
 43
0.00000001
 40
0.0
 40
0.0
 40
0.0
 40
0.0
 40
1.0
 40
1.0
 40
1.0
 40
1.0
 10
36.395108371310762
 20
-73.473034667968747
 30
0.0
 10
36.187713623046875
 20
-73.473034667968747
 30
0.0
 10
36.019937472873259
 20
-73.640810818142356
 30
0.0
 10
36.019937472873259
 20
-73.84820556640625
 30
0.0
  0
SPLINE
  5
31
100
AcDbEntity
  8
0
 62
     7
100
AcDbSpline
210
0.0
220
0.0
230
1.0
 70
     8
 71
     3
 72
     8
 73
     4
 74
     0
 42
0.00000001
 43
0.00000001
 40
0.0
 40
0.0
 40
0.0
 40
0.0
 40
1.0
 40
1.0
 40
1.0
 40
1.0
 10
26.264460584852429
 20
-73.84820556640625
 30
0.0
 10
26.264460584852429
 20
-73.640810818142356
 30
0.0
 10
26.096339925130206
 20
-73.473034667968747
 30
0.0
 10
25.889289686414926
 20
-73.473034667968747
 30
0.0
  0
SPLINE
  5
30
100
AcDbEntity
  8
0
 62
     7
100
AcDbSpline
210
0.0
220
0.0
230
1.0
 70
     8
 71
     3
 72
     8
 73
     4
 74
     0
 42
0.00000001
 43
0.00000001
 40
0.0
 40
0.0
 40
0.0
 40
0.0
 40
1.0
 40
1.0
 40
1.0
 40
1.0
 10
26.264460584852429
 20
-73.84820556640625
 30
0.0
 10
26.264460584852429
 20
-73.640810818142356
 30
0.0
 10
26.096339925130206
 20
-73.473034667968747
 30
0.0
 10
25.889289686414926
 20
-73.473034667968747
 30
0.0
  0
SPLINE
  5
2F
100
AcDbEntity
  8
0
 62
     7
100
AcDbSpline
210
0.0
220
0.0
230
1.0
 70
     8
 71
     3
 72
     8
 73
     4
 74
     0
 42
0.00000001
 43
0.00000001
 40
0.0
 40
0.0
 40
0.0
 40
0.0
 40
1.0
 40
1.0
 40
1.0
 40
1.0
 10
31.641565619574649
 20
-62.216874186197913
 30
0.0
 10
31.32186075846354
 20
-62.216874186197913
 30
0.0
 10
31.016969807942704
 20
-62.352610948350687
 30
0.0
 10
30.803718397352426
 20
-62.59066704644097
 30
0.0
  0
ENDBLK
  5
A9
100
AcDbEntity
  8
0
100
AcDbBlockEnd
  0
BLOCK
  5
AC
100
AcDbEntity
  8
0
 62
     7
100
AcDbBlockBegin
  2
AI9-BLK2
 70
     0
 10
0.0
 20
0.0
 30
0.0
  3
AI9-BLK2
  1

  0
LINE
  5
106
100
AcDbEntity
  8
0
 62
     7
100
AcDbLine
 10
37.896739
 20
-46.044046
 30
0.0
 11
37.896739
 21
-60.623001
 31
0.0
  0
LINE
  5
105
100
AcDbEntity
  8
0
 62
     7
100
AcDbLine
 10
-41.749734
 20
-60.998172
 30
0.0
 11
-51.777201
 21
-60.998172
 31
0.0
  0
LINE
  5
104
100
AcDbEntity
  8
0
 62
     7
100
AcDbLine
 10
-43.804217
 20
-45.598939
 30
0.0
 11
-38.847413
 21
-45.598939
 31
0.0
  0
LINE
  5
103
100
AcDbEntity
  8
0
 62
     7
100
AcDbLine
 10
-43.804217
 20
-45.051858
 30
0.0
 11
-40.71121
 21
-45.051858
 31
0.0
  0
LINE
  5
102
100
AcDbEntity
  8
0
 62
     7
100
AcDbLine
 10
-38.269843
 20
-60.998172
 30
0.0
 11
-41.749734
 21
-60.998172
 31
0.0
  0
LINE
  5
101
100
AcDbEntity
  8
0
 62
     7
100
AcDbLine
 10
-37.894672
 20
-60.623001
 30
0.0
 11
-37.894672
 21
-46.044046
 31
0.0
  0
LINE
  5
100
100
AcDbEntity
  8
0
 62
     7
100
AcDbLine
 10
-51.199459
 20
-45.598939
 30
0.0
 11
-46.243
 21
-45.598939
 31
0.0
  0
LINE
  5
FF
100
AcDbEntity
  8
0
 62
     7
100
AcDbLine
 10
-49.335834
 20
-45.051858
 30
0.0
 11
-46.243
 21
-45.051858
 31
0.0
  0
LINE
  5
FE
100
AcDbEntity
  8
0
 62
     7
100
AcDbLine
 10
-52.152372
 20
-46.044046
 30
0.0
 11
-52.152372
 21
-60.623001
 31
0.0
  0
LINE
  5
FD
100
AcDbEntity
  8
0
 62
     7
100
AcDbLine
 10
45.025675
 20
-45.598939
 30
0.0
 11
51.201698
 21
-45.598939
 31
0.0
  0
LINE
  5
FC
100
AcDbEntity
  8
0
 62
     7
100
AcDbLine
 10
45.025675
 20
-45.051858
 30
0.0
 11
49.338246
 21
-45.051858
 31
0.0
  0
LINE
  5
FB
100
AcDbEntity
  8
0
 62
     7
100
AcDbLine
 10
51.779441
 20
-60.998172
 30
0.0
 11
45.025675
 21
-60.998172
 31
0.0
  0
LINE
  5
FA
100
AcDbEntity
  8
0
 62
     7
100
AcDbLine
 10
45.025675
 20
-45.051858
 30
0.0
 11
49.338246
 21
-45.051858
 31
0.0
  0
LINE
  5
F9
100
AcDbEntity
  8
0
 62
     7
100
AcDbLine
 10
45.025675
 20
-45.051858
 30
0.0
 11
49.340658
 21
-45.051858
 31
0.0
  0
LINE
  5
F8
100
AcDbEntity
  8
0
 62
     7
100
AcDbLine
 10
52.154612
 20
-60.623001
 30
0.0
 11
52.154612
 21
-46.044046
 31
0.0
  0
LINE
  5
F7
100
AcDbEntity
  8
0
 62
     7
100
AcDbLine
 10
38.849653
 20
-45.598939
 30
0.0
 11
45.025675
 21
-45.598939
 31
0.0
  0
LINE
  5
F6
100
AcDbEntity
  8
0
  6
AI9-LType3
 62
     7
100
AcDbLine
 10
-47.651872
 20
-49.179083
 30
0.0
 11
-42.156255
 21
-49.179083
 31
0.0
  0
LINE
  5
F5
100
AcDbEntity
  8
0
 62
     7
100
AcDbLine
 10
-46.081769
 20
-50.835829
 30
0.0
 11
-46.243
 21
-48.734321
 31
0.0
  0
LINE
  5
F4
100
AcDbEntity
  8
0
 62
     7
100
AcDbLine
 10
-43.804217
 20
-48.734321
 30
0.0
 11
-43.965275
 21
-50.835829
 31
0.0
  0
LINE
  5
F3
100
AcDbEntity
  8
0
 62
     7
100
AcDbLine
 10
-43.804217
 20
-48.734321
 30
0.0
 11
-43.804217
 21
-36.047068
 31
0.0
  0
LINE
  5
F2
100
AcDbEntity
  8
0
 62
     7
100
AcDbLine
 10
-43.804217
 20
-36.047068
 30
0.0
 11
-43.974577
 21
-31.41307
 31
0.0
  0
LINE
  5
F1
100
AcDbEntity
  8
0
 62
     7
100
AcDbLine
 10
-46.243
 20
-36.047068
 30
0.0
 11
-46.072468
 21
-31.41307
 31
0.0
  0
LINE
  5
F0
100
AcDbEntity
  8
0
 62
     7
100
AcDbLine
 10
-46.243
 20
-36.047068
 30
0.0
 11
-46.243
 21
-48.734321
 31
0.0
  0
LINE
  5
EF
100
AcDbEntity
  8
0
 62
     7
100
AcDbLine
 10
-43.522753
 20
42.611525
 30
0.0
 11
-43.522753
 21
46.316725
 31
0.0
  0
LINE
  5
EE
100
AcDbEntity
  8
0
 62
     7
100
AcDbLine
 10
-46.524292
 20
46.316725
 30
0.0
 11
-46.524292
 21
42.611525
 31
0.0
  0
LINE
  5
ED
100
AcDbEntity
  8
0
 62
     7
100
AcDbLine
 10
-45.961536
 20
36.392783
 30
0.0
 11
-45.961536
 21
15.862598
 31
0.0
  0
LINE
  5
EC
100
AcDbEntity
  8
0
 62
     7
100
AcDbLine
 10
-44.085509
 20
15.862598
 30
0.0
 11
-44.085509
 21
36.392783
 31
0.0
  0
LINE
  5
EB
100
AcDbEntity
  8
0
 62
     7
100
AcDbLine
 10
37.146398
 20
-51.430452
 30
0.0
 11
35.270543
 21
-51.430452
 31
0.0
  0
LINE
  5
EA
100
AcDbEntity
  8
0
 62
     7
100
AcDbLine
 10
35.270543
 20
-51.430452
 30
0.0
 11
13.131326
 21
-51.430452
 31
0.0
  0
LINE
  5
E9
100
AcDbEntity
  8
0
 62
     7
100
AcDbLine
 10
6.379628
 20
-36.047068
 30
0.0
 11
6.379628
 21
-38.298093
 31
0.0
  0
LINE
  5
E8
100
AcDbEntity
  8
0
 62
     7
100
AcDbLine
 10
40.713449
 20
-45.051858
 30
0.0
 11
45.025675
 21
-45.051858
 31
0.0
  0
LINE
  5
E7
100
AcDbEntity
  8
0
 62
     7
100
AcDbLine
 10
45.025675
 20
-60.998172
 30
0.0
 11
38.27191
 21
-60.998172
 31
0.0
  0
LINE
  5
E6
100
AcDbEntity
  8
0
 62
     7
100
AcDbLine
 10
40.713449
 20
-45.051858
 30
0.0
 11
45.025675
 21
-45.051858
 31
0.0
  0
LINE
  5
E5
100
AcDbEntity
  8
0
 62
     7
100
AcDbLine
 10
40.711038
 20
-45.051858
 30
0.0
 11
45.025675
 21
-45.051858
 31
0.0
  0
LINE
  5
E4
100
AcDbEntity
  8
0
  6
AI9-LType3
 62
     7
100
AcDbLine
 10
-27.548706
 20
52.929586
 30
0.0
 11
-7.018521
 21
52.929586
 31
0.0
  0
LINE
  5
E3
100
AcDbEntity
  8
0
  6
AI9-LType3
 62
     7
100
AcDbLine
 10
-7.018521
 20
54.805613
 30
0.0
 11
-27.548706
 21
54.805613
 31
0.0
  0
LINE
  5
E2
100
AcDbEntity
  8
0
  6
AI9-LType3
 62
     7
100
AcDbLine
 10
-37.472648
 20
52.366829
 30
0.0
 11
-33.767448
 21
52.366829
 31
0.0
  0
LINE
  5
E1
100
AcDbEntity
  8
0
  6
AI9-LType3
 62
     7
100
AcDbLine
 10
-33.767448
 20
55.368541
 30
0.0
 11
-37.472648
 21
55.368541
 31
0.0
  0
SPLINE
  5
E0
100
AcDbEntity
  8
0
 62
     7
100
AcDbSpline
210
0.0
220
0.0
230
1.0
 70
     8
 71
     3
 72
     8
 73
     4
 74
     0
 42
0.00000001
 43
0.00000001
 40
0.0
 40
0.0
 40
0.0
 40
0.0
 40
1.0
 40
1.0
 40
1.0
 40
1.0
 10
-44.375069173177081
 20
-30.889415147569441
 30
0.0
 10
-44.585392252604166
 20
-30.82636990017361
 30
0.0
 10
-44.80398356119791
 20
-30.793986002604164
 30
0.0
 10
-45.02343614366319
 20
-30.793986002604164
 30
0.0
  0
SPLINE
  5
DF
100
AcDbEntity
  8
0
 62
     7
100
AcDbSpline
210
0.0
220
0.0
230
1.0
 70
     8
 71
     3
 72
     8
 73
     4
 74
     0
 42
0.00000001
 43
0.00000001
 40
0.0
 40
0.0
 40
0.0
 40
0.0
 40
1.0
 40
1.0
 40
1.0
 40
1.0
 10
-38.331854926215271
 20
-45.495586480034717
 30
0.0
 10
-39.117853461371524
 20
-45.315752495659716
 30
0.0
 10
-39.910742187499999
 20
-45.167613389756937
 30
0.0
 10
-40.708626302083331
 20
-45.051858181423604
 30
0.0
  0
SPLINE
  5
DE
100
AcDbEntity
  8
0
 62
     7
100
AcDbSpline
210
0.0
220
0.0
230
1.0
 70
     8
 71
     3
 72
     8
 73
     4
 74
     0
 42
0.00000001
 43
0.00000001
 40
0.0
 40
0.0
 40
0.0
 40
0.0
 40
1.0
 40
1.0
 40
1.0
 40
1.0
 10
-49.338418240017354
 20
-45.051858181423604
 30
0.0
 10
-50.136302354600687
 20
-45.167613389756937
 30
0.0
 10
-50.929191080729161
 20
-45.315752495659716
 30
0.0
 10
-51.715017361111109
 20
-45.495586480034717
 30
0.0
  0
SPLINE
  5
DD
100
AcDbEntity
  8
0
 62
     7
100
AcDbSpline
210
0.0
220
0.0
230
1.0
 70
     8
 71
     3
 72
     8
 73
     4
 74
     0
 42
0.00000001
 43
0.00000001
 40
0.0
 40
0.0
 40
0.0
 40
0.0
 40
1.0
 40
1.0
 40
1.0
 40
1.0
 10
51.717428927951381
 20
-45.495586480034717
 30
0.0
 10
50.93125813802083
 20
-45.315752495659716
 30
0.0
 10
50.138541666666661
 20
-45.167613389756937
 30
0.0
 10
49.340657552083329
 20
-45.051858181423604
 30
0.0
  0
SPLINE
  5
DC
100
AcDbEntity
  8
0
 62
     7
100
AcDbSpline
210
0.0
220
0.0
230
1.0
 70
     8
 71
     3
 72
    14
 73
    10
 74
     0
 42
0.00000001
 43
0.00000001
 40
0.0
 40
0.0
 40
0.0
 40
0.0
 40
1.0
 40
1.0
 40
1.0
 40
2.0
 40
2.0
 40
2.0
 40
3.0
 40
3.0
 40
3.0
 40
3.0
 10
-46.242999945746526
 20
-47.286691623263884
 30
0.0
 10
-47.28806966145833
 20
-47.960207790798606
 30
0.0
 10
-47.589343261718746
 20
-49.353404405381937
 30
0.0
 10
-46.915827094184024
 20
-50.398646375868054
 30
0.0
 10
-46.242310926649303
 20
-51.443543836805553
 30
0.0
 10
-44.849114312065971
 20
-51.744989691840274
 30
0.0
 10
-43.804216851128466
 20
-51.071473524305553
 30
0.0
 10
-43.160845269097216
 20
-50.657028537326383
 30
0.0
 10
-42.772238498263881
 20
-49.944238281249994
 30
0.0
 10
-42.772238498263881
 20
-49.179082573784719
 30
0.0
  0
SPLINE
  5
DB
100
AcDbEntity
  8
0
 62
     7
100
AcDbSpline
210
0.0
220
0.0
230
1.0
 70
     8
 71
     3
 72
     8
 73
     4
 74
     0
 42
0.00000001
 43
0.00000001
 40
0.0
 40
0.0
 40
0.0
 40
0.0
 40
1.0
 40
1.0
 40
1.0
 40
1.0
 10
-42.772238498263881
 20
-49.179082573784719
 30
0.0
 10
-42.772238498263881
 20
-48.413926866319443
 30
0.0
 10
-43.160845269097216
 20
-47.701136610243054
 30
0.0
 10
-43.804216851128466
 20
-47.286691623263884
 30
0.0
  0
SPLINE
  5
DA
100
AcDbEntity
  8
0
 62
     7
100
AcDbSpline
210
0.0
220
0.0
230
1.0
 70
     8
 71
     3
 72
     8
 73
     4
 74
     0
 42
0.00000001
 43
0.00000001
 40
0.0
 40
0.0
 40
0.0
 40
0.0
 40
1.0
 40
1.0
 40
1.0
 40
1.0
 10
-45.02343614366319
 20
-30.793986002604164
 30
0.0
 10
-45.243060980902776
 20
-30.793986002604164
 30
0.0
 10
-45.461652289496527
 20
-30.82636990017361
 30
0.0
 10
-45.671975368923604
 20
-30.889415147569441
 30
0.0
  0
SPLINE
  5
D9
100
AcDbEntity
  8
0
 62
     7
100
AcDbSpline
210
0.0
220
0.0
230
1.0
 70
     8
 71
     3
 72
     8
 73
     4
 74
     0
 42
0.00000001
 43
0.00000001
 40
0.0
 40
0.0
 40
0.0
 40
0.0
 40
1.0
 40
1.0
 40
1.0
 40
1.0
 10
-47.060348849826383
 20
47.035888671874993
 30
0.0
 10
-45.731403266059026
 20
46.639702690972221
 30
0.0
 10
-44.31564127604166
 20
46.639702690972221
 30
0.0
 10
-42.986695692274303
 20
47.035888671874993
 30
0.0
  0
SPLINE
  5
D8
100
AcDbEntity
  8
0
 62
     7
100
AcDbSpline
210
0.0
220
0.0
230
1.0
 70
     8
 71
     3
 72
     8
 73
     4
 74
     0
 42
0.00000001
 43
0.00000001
 40
0.0
 40
0.0
 40
0.0
 40
0.0
 40
1.0
 40
1.0
 40
1.0
 40
1.0
 10
-43.522752549913193
 20
42.6115247938368
 30
0.0
 10
-43.998175726996521
 20
40.574784342447913
 30
0.0
 10
-44.187655978732636
 20
38.481716579861107
 30
0.0
 10
-44.08550889756944
 20
36.392782931857639
 30
0.0
  0
SPLINE
  5
D7
100
AcDbEntity
  8
0
 62
     7
100
AcDbSpline
210
0.0
220
0.0
230
1.0
 70
     8
 71
     3
 72
     8
 73
     4
 74
     0
 42
0.00000001
 43
0.00000001
 40
0.0
 40
0.0
 40
0.0
 40
0.0
 40
1.0
 40
1.0
 40
1.0
 40
1.0
 10
-45.961535644531246
 20
36.392782931857639
 30
0.0
 10
-45.85938856336805
 20
38.481716579861107
 30
0.0
 10
-46.048868815104164
 20
40.574784342447913
 30
0.0
 10
-46.524291992187493
 20
42.6115247938368
 30
0.0
  0
SPLINE
  5
D6
100
AcDbEntity
  8
0
 62
     7
100
AcDbSpline
210
0.0
220
0.0
230
1.0
 70
     8
 71
     3
 72
     8
 73
     4
 74
     0
 42
0.00000001
 43
0.00000001
 40
0.0
 40
0.0
 40
0.0
 40
0.0
 40
1.0
 40
1.0
 40
1.0
 40
1.0
 10
-45.623744032118054
 20
15.346866861979166
 30
0.0
 10
-45.241166178385413
 20
15.179779730902776
 30
0.0
 10
-44.806050618489579
 20
15.179779730902776
 30
0.0
 10
-44.423128255208326
 20
15.346866861979166
 30
0.0
  0
SPLINE
  5
D5
100
AcDbEntity
  8
0
 62
     7
100
AcDbSpline
210
0.0
220
0.0
230
1.0
 70
     8
 71
     3
 72
    17
 73
    13
 74
     0
 42
0.00000001
 43
0.00000001
 40
0.0
 40
0.0
 40
0.0
 40
0.0
 40
1.0
 40
1.0
 40
1.0
 40
2.0
 40
2.0
 40
2.0
 40
3.0
 40
3.0
 40
3.0
 40
4.0
 40
4.0
 40
4.0
 40
4.0
 10
-42.986695692274303
 20
47.035888671874993
 30
0.0
 10
-39.213627115885416
 20
48.160884602864577
 30
0.0
 10
-37.066815863715277
 20
52.131357150607634
 30
0.0
 10
-38.191811794704854
 20
55.904425726996521
 30
0.0
 10
-39.316635470920133
 20
59.677494303385409
 30
0.0
 10
-43.287280273437496
 20
61.824305555555547
 30
0.0
 10
-47.060348849826383
 20
60.699481879340276
 30
0.0
 10
-50.83341742621527
 20
59.574485948350691
 30
0.0
 10
-52.980228678385409
 20
55.603841145833329
 30
0.0
 10
-51.855232747395831
 20
51.830772569444441
 30
0.0
 10
-51.168108452690966
 20
49.526003689236106
 30
0.0
 10
-49.365117730034719
 20
47.723012966579859
 30
0.0
 10
-47.060348849826383
 20
47.035888671874993
 30
0.0
  0
SPLINE
  5
D4
100
AcDbEntity
  8
0
 62
     7
100
AcDbSpline
210
0.0
220
0.0
230
1.0
 70
     8
 71
     3
 72
     8
 73
     4
 74
     0
 42
0.00000001
 43
0.00000001
 40
0.0
 40
0.0
 40
0.0
 40
0.0
 40
1.0
 40
1.0
 40
1.0
 40
1.0
 10
37.147775607638884
 20
-48.425984700520829
 30
0.0
 10
37.55877549913194
 20
-48.425295681423606
 30
0.0
 10
37.892949761284719
 20
-48.093532986111107
 30
0.0
 10
37.896739366319444
 20
-47.682533094618051
 30
0.0
  0
SPLINE
  5
D3
100
AcDbEntity
  8
0
 62
     7
100
AcDbSpline
210
0.0
220
0.0
230
1.0
 70
     8
 71
     3
 72
     8
 73
     4
 74
     0
 42
0.00000001
 43
0.00000001
 40
0.0
 40
0.0
 40
0.0
 40
0.0
 40
1.0
 40
1.0
 40
1.0
 40
1.0
 10
26.74668782552083
 20
-47.779684787326381
 30
0.0
 10
30.150442165798609
 20
-48.181038411458331
 30
0.0
 10
33.573489040798606
 20
-48.396356879340274
 30
0.0
 10
37.001014539930551
 20
-48.424262152777771
 30
0.0
  0
SPLINE
  5
D2
100
AcDbEntity
  8
0
 62
     7
100
AcDbSpline
210
0.0
220
0.0
230
1.0
 70
     8
 71
     3
 72
     8
 73
     4
 74
     0
 42
0.00000001
 43
0.00000001
 40
0.0
 40
0.0
 40
0.0
 40
0.0
 40
1.0
 40
1.0
 40
1.0
 40
1.0
 10
16.826879882812499
 20
-35.26434190538194
 30
0.0
 10
16.43965115017361
 20
-32.694645182291666
 30
0.0
 10
14.231344943576387
 20
-30.793986002604164
 30
0.0
 10
11.632364908854166
 20
-30.793986002604164
 30
0.0
  0
SPLINE
  5
D1
100
AcDbEntity
  8
0
 62
     7
100
AcDbSpline
210
0.0
220
0.0
230
1.0
 70
     8
 71
     3
 72
     8
 73
     4
 74
     0
 42
0.00000001
 43
0.00000001
 40
0.0
 40
0.0
 40
0.0
 40
0.0
 40
1.0
 40
1.0
 40
1.0
 40
1.0
 10
10.309448242187498
 20
-49.787830946180549
 30
0.0
 10
10.949891493055555
 20
-50.737299262152774
 30
0.0
 10
11.989276801215278
 20
-51.342258029513886
 30
0.0
 10
13.13132595486111
 20
-51.430452473958326
 30
0.0
  0
SPLINE
  5
D0
100
AcDbEntity
  8
0
 62
     7
100
AcDbSpline
210
0.0
220
0.0
230
1.0
 70
     8
 71
     3
 72
     8
 73
     4
 74
     0
 42
0.00000001
 43
0.00000001
 40
0.0
 40
0.0
 40
0.0
 40
0.0
 40
1.0
 40
1.0
 40
1.0
 40
1.0
 10
6.3796278211805548
 20
-38.298092990451387
 30
0.0
 10
6.3796278211805548
 20
-42.45770128038194
 30
0.0
 10
7.7621446397569436
 20
-46.499487304687499
 30
0.0
 10
10.309448242187498
 20
-49.787830946180549
 30
0.0
  0
SPLINE
  5
CF
100
AcDbEntity
  8
0
 62
     7
100
AcDbSpline
210
0.0
220
0.0
230
1.0
 70
     8
 71
     3
 72
     8
 73
     4
 74
     0
 42
0.00000001
 43
0.00000001
 40
0.0
 40
0.0
 40
0.0
 40
0.0
 40
1.0
 40
1.0
 40
1.0
 40
1.0
 10
11.632364908854166
 20
-30.793986002604164
 30
0.0
 10
8.7312499999999993
 20
-30.793986002604164
 30
0.0
 10
6.3796278211805548
 20
-33.145952690972216
 30
0.0
 10
6.3796278211805548
 20
-36.047067599826384
 30
0.0
  0
SPLINE
  5
CE
100
AcDbEntity
  8
0
 62
     7
100
AcDbSpline
210
0.0
220
0.0
230
1.0
 70
     8
 71
     3
 72
     8
 73
     4
 74
     0
 42
0.00000001
 43
0.00000001
 40
0.0
 40
0.0
 40
0.0
 40
0.0
 40
1.0
 40
1.0
 40
1.0
 40
1.0
 10
16.826879882812499
 20
-35.26434190538194
 30
0.0
 10
17.146584743923608
 20
-37.949104817708331
 30
0.0
 10
18.043343098958331
 20
-40.53292643229166
 30
0.0
 10
19.454798719618054
 20
-42.839073350694441
 30
0.0
  0
SPLINE
  5
CD
100
AcDbEntity
  8
0
 62
     7
100
AcDbSpline
210
0.0
220
0.0
230
1.0
 70
     8
 71
     3
 72
     8
 73
     4
 74
     0
 42
0.00000001
 43
0.00000001
 40
0.0
 40
0.0
 40
0.0
 40
0.0
 40
1.0
 40
1.0
 40
1.0
 40
1.0
 10
19.454798719618054
 20
-42.839073350694441
 30
0.0
 10
21.113612196180554
 20
-45.408081054687493
 30
0.0
 10
23.746009657118055
 20
-47.191606987847216
 30
0.0
 10
26.74668782552083
 20
-47.779684787326381
 30
0.0
  0
SPLINE
  5
CC
100
AcDbEntity
  8
0
 62
     7
100
AcDbSpline
210
0.0
220
0.0
230
1.0
 70
     8
 71
     3
 72
    14
 73
    10
 74
     0
 42
0.00000001
 43
0.00000001
 40
0.0
 40
0.0
 40
0.0
 40
0.0
 40
1.0
 40
1.0
 40
1.0
 40
2.0
 40
2.0
 40
2.0
 40
3.0
 40
3.0
 40
3.0
 40
3.0
 10
-48.733287217881937
 20
54.428891330295137
 30
0.0
 10
-49.043345811631937
 20
54.452145724826387
 30
0.0
 10
-49.313441297743054
 20
54.219774034288193
 30
0.0
 10
-49.33686794704861
 20
53.909887695312499
 30
0.0
 10
-49.36012234157986
 20
53.599829101562499
 30
0.0
 10
-49.127750651041666
 20
53.329733615451381
 30
0.0
 10
-48.817692057291666
 20
53.306479220920131
 30
0.0
 10
-48.789614529079856
 20
53.304239908854164
 30
0.0
 10
-48.761364746093747
 20
53.304239908854164
 30
0.0
 10
-48.733287217881937
 20
53.306479220920131
 30
0.0
  0
SPLINE
  5
CB
100
AcDbEntity
  8
0
 62
     7
100
AcDbSpline
210
0.0
220
0.0
230
1.0
 70
     8
 71
     3
 72
     8
 73
     4
 74
     0
 42
0.00000001
 43
0.00000001
 40
0.0
 40
0.0
 40
0.0
 40
0.0
 40
1.0
 40
1.0
 40
1.0
 40
1.0
 10
40.711037868923604
 20
-45.051858181423604
 30
0.0
 10
39.91280924479166
 20
-45.167613389756937
 30
0.0
 10
39.120092773437499
 20
-45.315752495659716
 30
0.0
 10
38.334266493055551
 20
-45.495586480034717
 30
0.0
  0
SPLINE
  5
CA
100
AcDbEntity
  8
0
  6
AI9-LType3
 62
     7
100
AcDbSpline
210
0.0
220
0.0
230
1.0
 70
     8
 71
     3
 72
     8
 73
     4
 74
     0
 42
0.00000001
 43
0.00000001
 40
0.0
 40
0.0
 40
0.0
 40
0.0
 40
1.0
 40
1.0
 40
1.0
 40
1.0
 10
-6.5026177300347214
 20
53.26737738715277
 30
0.0
 10
-6.3357028537326388
 20
53.650127495659717
 30
0.0
 10
-6.3357028537326388
 20
54.085243055555551
 30
0.0
 10
-6.5026177300347214
 20
54.467993164062499
 30
0.0
  0
SPLINE
  5
C9
100
AcDbEntity
  8
0
  6
AI9-LType3
 62
     7
100
AcDbSpline
210
0.0
220
0.0
230
1.0
 70
     8
 71
     3
 72
     8
 73
     4
 74
     0
 42
0.00000001
 43
0.00000001
 40
0.0
 40
0.0
 40
0.0
 40
0.0
 40
1.0
 40
1.0
 40
1.0
 40
1.0
 10
-27.548706054687496
 20
52.929585774739579
 30
0.0
 10
-29.637639702690969
 20
53.03190511067708
 30
0.0
 10
-31.730707465277774
 20
52.842424858940966
 30
0.0
 10
-33.767447916666661
 20
52.366829427083331
 30
0.0
  0
SPLINE
  5
C8
100
AcDbEntity
  8
0
  6
AI9-LType3
 62
     7
100
AcDbSpline
210
0.0
220
0.0
230
1.0
 70
     8
 71
     3
 72
     8
 73
     4
 74
     0
 42
0.00000001
 43
0.00000001
 40
0.0
 40
0.0
 40
0.0
 40
0.0
 40
1.0
 40
1.0
 40
1.0
 40
1.0
 10
-33.767447916666661
 20
55.368541124131937
 30
0.0
 10
-31.730707465277774
 20
54.892945692274303
 30
0.0
 10
-29.637639702690969
 20
54.703465440538189
 30
0.0
 10
-27.548706054687496
 20
54.805612521701384
 30
0.0
  0
CIRCLE
  5
C7
100
AcDbEntity
  8
0
 62
     7
100
AcDbCircle
 10
-45.023436
 20
53.867685
 30
0.0
 40
3.752053
  0
CIRCLE
  5
C6
100
AcDbEntity
  8
0
 62
     7
100
AcDbCircle
 10
-45.023522
 20
53.867685
 30
0.0
 40
4.314896
  0
SPLINE
  5
C5
100
AcDbEntity
  8
0
 62
     7
100
AcDbSpline
210
0.0
220
0.0
230
1.0
 70
     8
 71
     3
 72
   935
 73
   931
 74
     0
 42
0.00000001
 43
0.00000001
 40
0.0
 40
0.0
 40
0.0
 40
0.0
 40
1.0
 40
1.0
 40
1.0
 40
2.0
 40
2.0
 40
2.0
 40
3.0
 40
3.0
 40
3.0
 40
4.0
 40
4.0
 40
4.0
 40
5.0
 40
5.0
 40
5.0
 40
6.0
 40
6.0
 40
6.0
 40
7.0
 40
7.0
 40
7.0
 40
8.0
 40
8.0
 40
8.0
 40
9.0
 40
9.0
 40
9.0
 40
10.0
 40
10.0
 40
10.0
 40
11.0
 40
11.0
 40
11.0
 40
12.0
 40
12.0
 40
12.0
 40
13.0
 40
13.0
 40
13.0
 40
14.0
 40
14.0
 40
14.0
 40
15.0
 40
15.0
 40
15.0
 40
16.0
 40
16.0
 40
16.0
 40
17.0
 40
17.0
 40
17.0
 40
18.0
 40
18.0
 40
18.0
 40
19.0
 40
19.0
 40
19.0
 40
20.0
 40
20.0
 40
20.0
 40
21.0
 40
21.0
 40
21.0
 40
22.0
 40
22.0
 40
22.0
 40
23.0
 40
23.0
 40
23.0
 40
24.0
 40
24.0
 40
24.0
 40
25.0
 40
25.0
 40
25.0
 40
26.0
 40
26.0
 40
26.0
 40
27.0
 40
27.0
 40
27.0
 40
28.0
 40
28.0
 40
28.0
 40
29.0
 40
29.0
 40
29.0
 40
30.0
 40
30.0
 40
30.0
 40
31.0
 40
31.0
 40
31.0
 40
32.0
 40
32.0
 40
32.0
 40
33.0
 40
33.0
 40
33.0
 40
34.0
 40
34.0
 40
34.0
 40
35.0
 40
35.0
 40
35.0
 40
36.0
 40
36.0
 40
36.0
 40
37.0
 40
37.0
 40
37.0
 40
38.0
 40
38.0
 40
38.0
 40
39.0
 40
39.0
 40
39.0
 40
40.0
 40
40.0
 40
40.0
 40
41.0
 40
41.0
 40
41.0
 40
42.0
 40
42.0
 40
42.0
 40
43.0
 40
43.0
 40
43.0
 40
44.0
 40
44.0
 40
44.0
 40
45.0
 40
45.0
 40
45.0
 40
46.0
 40
46.0
 40
46.0
 40
47.0
 40
47.0
 40
47.0
 40
48.0
 40
48.0
 40
48.0
 40
49.0
 40
49.0
 40
49.0
 40
50.0
 40
50.0
 40
50.0
 40
51.0
 40
51.0
 40
51.0
 40
52.0
 40
52.0
 40
52.0
 40
53.0
 40
53.0
 40
53.0
 40
54.0
 40
54.0
 40
54.0
 40
55.0
 40
55.0
 40
55.0
 40
56.0
 40
56.0
 40
56.0
 40
57.0
 40
57.0
 40
57.0
 40
58.0
 40
58.0
 40
58.0
 40
59.0
 40
59.0
 40
59.0
 40
60.0
 40
60.0
 40
60.0
 40
61.0
 40
61.0
 40
61.0
 40
62.0
 40
62.0
 40
62.0
 40
63.0
 40
63.0
 40
63.0
 40
64.0
 40
64.0
 40
64.0
 40
65.0
 40
65.0
 40
65.0
 40
66.0
 40
66.0
 40
66.0
 40
67.0
 40
67.0
 40
67.0
 40
68.0
 40
68.0
 40
68.0
 40
69.0
 40
69.0
 40
69.0
 40
70.0
 40
70.0
 40
70.0
 40
71.0
 40
71.0
 40
71.0
 40
72.0
 40
72.0
 40
72.0
 40
73.0
 40
73.0
 40
73.0
 40
74.0
 40
74.0
 40
74.0
 40
75.0
 40
75.0
 40
75.0
 40
76.0
 40
76.0
 40
76.0
 40
77.0
 40
77.0
 40
77.0
 40
78.0
 40
78.0
 40
78.0
 40
79.0
 40
79.0
 40
79.0
 40
80.0
 40
80.0
 40
80.0
 40
81.0
 40
81.0
 40
81.0
 40
82.0
 40
82.0
 40
82.0
 40
83.0
 40
83.0
 40
83.0
 40
84.0
 40
84.0
 40
84.0
 40
85.0
 40
85.0
 40
85.0
 40
86.0
 40
86.0
 40
86.0
 40
87.0
 40
87.0
 40
87.0
 40
88.0
 40
88.0
 40
88.0
 40
89.0
 40
89.0
 40
89.0
 40
90.0
 40
90.0
 40
90.0
 40
91.0
 40
91.0
 40
91.0
 40
92.0
 40
92.0
 40
92.0
 40
93.0
 40
93.0
 40
93.0
 40
94.0
 40
94.0
 40
94.0
 40
95.0
 40
95.0
 40
95.0
 40
96.0
 40
96.0
 40
96.0
 40
97.0
 40
97.0
 40
97.0
 40
98.0
 40
98.0
 40
98.0
 40
99.0
 40
99.0
 40
99.0
 40
100.0
 40
100.0
 40
100.0
 40
101.0
 40
101.0
 40
101.0
 40
102.0
 40
102.0
 40
102.0
 40
103.0
 40
103.0
 40
103.0
 40
104.0
 40
104.0
 40
104.0
 40
105.0
 40
105.0
 40
105.0
 40
106.0
 40
106.0
 40
106.0
 40
107.0
 40
107.0
 40
107.0
 40
108.0
 40
108.0
 40
108.0
 40
109.0
 40
109.0
 40
109.0
 40
110.0
 40
110.0
 40
110.0
 40
111.0
 40
111.0
 40
111.0
 40
112.0
 40
112.0
 40
112.0
 40
113.0
 40
113.0
 40
113.0
 40
114.0
 40
114.0
 40
114.0
 40
115.0
 40
115.0
 40
115.0
 40
116.0
 40
116.0
 40
116.0
 40
117.0
 40
117.0
 40
117.0
 40
118.0
 40
118.0
 40
118.0
 40
119.0
 40
119.0
 40
119.0
 40
120.0
 40
120.0
 40
120.0
 40
121.0
 40
121.0
 40
121.0
 40
122.0
 40
122.0
 40
122.0
 40
123.0
 40
123.0
 40
123.0
 40
124.0
 40
124.0
 40
124.0
 40
125.0
 40
125.0
 40
125.0
 40
126.0
 40
126.0
 40
126.0
 40
127.0
 40
127.0
 40
127.0
 40
128.0
 40
128.0
 40
128.0
 40
129.0
 40
129.0
 40
129.0
 40
130.0
 40
130.0
 40
130.0
 40
131.0
 40
131.0
 40
131.0
 40
132.0
 40
132.0
 40
132.0
 40
133.0
 40
133.0
 40
133.0
 40
134.0
 40
134.0
 40
134.0
 40
135.0
 40
135.0
 40
135.0
 40
136.0
 40
136.0
 40
136.0
 40
137.0
 40
137.0
 40
137.0
 40
138.0
 40
138.0
 40
138.0
 40
139.0
 40
139.0
 40
139.0
 40
140.0
 40
140.0
 40
140.0
 40
141.0
 40
141.0
 40
141.0
 40
142.0
 40
142.0
 40
142.0
 40
143.0
 40
143.0
 40
143.0
 40
144.0
 40
144.0
 40
144.0
 40
145.0
 40
145.0
 40
145.0
 40
146.0
 40
146.0
 40
146.0
 40
147.0
 40
147.0
 40
147.0
 40
148.0
 40
148.0
 40
148.0
 40
149.0
 40
149.0
 40
149.0
 40
150.0
 40
150.0
 40
150.0
 40
151.0
 40
151.0
 40
151.0
 40
152.0
 40
152.0
 40
152.0
 40
153.0
 40
153.0
 40
153.0
 40
154.0
 40
154.0
 40
154.0
 40
155.0
 40
155.0
 40
155.0
 40
156.0
 40
156.0
 40
156.0
 40
157.0
 40
157.0
 40
157.0
 40
158.0
 40
158.0
 40
158.0
 40
159.0
 40
159.0
 40
159.0
 40
160.0
 40
160.0
 40
160.0
 40
161.0
 40
161.0
 40
161.0
 40
162.0
 40
162.0
 40
162.0
 40
163.0
 40
163.0
 40
163.0
 40
164.0
 40
164.0
 40
164.0
 40
165.0
 40
165.0
 40
165.0
 40
166.0
 40
166.0
 40
166.0
 40
167.0
 40
167.0
 40
167.0
 40
168.0
 40
168.0
 40
168.0
 40
169.0
 40
169.0
 40
169.0
 40
170.0
 40
170.0
 40
170.0
 40
171.0
 40
171.0
 40
171.0
 40
172.0
 40
172.0
 40
172.0
 40
173.0
 40
173.0
 40
173.0
 40
174.0
 40
174.0
 40
174.0
 40
175.0
 40
175.0
 40
175.0
 40
176.0
 40
176.0
 40
176.0
 40
177.0
 40
177.0
 40
177.0
 40
178.0
 40
178.0
 40
178.0
 40
179.0
 40
179.0
 40
179.0
 40
180.0
 40
180.0
 40
180.0
 40
181.0
 40
181.0
 40
181.0
 40
182.0
 40
182.0
 40
182.0
 40
183.0
 40
183.0
 40
183.0
 40
184.0
 40
184.0
 40
184.0
 40
185.0
 40
185.0
 40
185.0
 40
186.0
 40
186.0
 40
186.0
 40
187.0
 40
187.0
 40
187.0
 40
188.0
 40
188.0
 40
188.0
 40
189.0
 40
189.0
 40
189.0
 40
190.0
 40
190.0
 40
190.0
 40
191.0
 40
191.0
 40
191.0
 40
192.0
 40
192.0
 40
192.0
 40
193.0
 40
193.0
 40
193.0
 40
194.0
 40
194.0
 40
194.0
 40
195.0
 40
195.0
 40
195.0
 40
196.0
 40
196.0
 40
196.0
 40
197.0
 40
197.0
 40
197.0
 40
198.0
 40
198.0
 40
198.0
 40
199.0
 40
199.0
 40
199.0
 40
200.0
 40
200.0
 40
200.0
 40
201.0
 40
201.0
 40
201.0
 40
202.0
 40
202.0
 40
202.0
 40
203.0
 40
203.0
 40
203.0
 40
204.0
 40
204.0
 40
204.0
 40
205.0
 40
205.0
 40
205.0
 40
206.0
 40
206.0
 40
206.0
 40
207.0
 40
207.0
 40
207.0
 40
208.0
 40
208.0
 40
208.0
 40
209.0
 40
209.0
 40
209.0
 40
210.0
 40
210.0
 40
210.0
 40
211.0
 40
211.0
 40
211.0
 40
212.0
 40
212.0
 40
212.0
 40
213.0
 40
213.0
 40
213.0
 40
214.0
 40
214.0
 40
214.0
 40
215.0
 40
215.0
 40
215.0
 40
216.0
 40
216.0
 40
216.0
 40
217.0
 40
217.0
 40
217.0
 40
218.0
 40
218.0
 40
218.0
 40
219.0
 40
219.0
 40
219.0
 40
220.0
 40
220.0
 40
220.0
 40
221.0
 40
221.0
 40
221.0
 40
222.0
 40
222.0
 40
222.0
 40
223.0
 40
223.0
 40
223.0
 40
224.0
 40
224.0
 40
224.0
 40
225.0
 40
225.0
 40
225.0
 40
226.0
 40
226.0
 40
226.0
 40
227.0
 40
227.0
 40
227.0
 40
228.0
 40
228.0
 40
228.0
 40
229.0
 40
229.0
 40
229.0
 40
230.0
 40
230.0
 40
230.0
 40
231.0
 40
231.0
 40
231.0
 40
232.0
 40
232.0
 40
232.0
 40
233.0
 40
233.0
 40
233.0
 40
234.0
 40
234.0
 40
234.0
 40
235.0
 40
235.0
 40
235.0
 40
236.0
 40
236.0
 40
236.0
 40
237.0
 40
237.0
 40
237.0
 40
238.0
 40
238.0
 40
238.0
 40
239.0
 40
239.0
 40
239.0
 40
240.0
 40
240.0
 40
240.0
 40
241.0
 40
241.0
 40
241.0
 40
242.0
 40
242.0
 40
242.0
 40
243.0
 40
243.0
 40
243.0
 40
244.0
 40
244.0
 40
244.0
 40
245.0
 40
245.0
 40
245.0
 40
246.0
 40
246.0
 40
246.0
 40
247.0
 40
247.0
 40
247.0
 40
248.0
 40
248.0
 40
248.0
 40
249.0
 40
249.0
 40
249.0
 40
250.0
 40
250.0
 40
250.0
 40
251.0
 40
251.0
 40
251.0
 40
252.0
 40
252.0
 40
252.0
 40
253.0
 40
253.0
 40
253.0
 40
254.0
 40
254.0
 40
254.0
 40
255.0
 40
255.0
 40
255.0
 40
256.0
 40
256.0
 40
256.0
 40
257.0
 40
257.0
 40
257.0
 40
258.0
 40
258.0
 40
258.0
 40
259.0
 40
259.0
 40
259.0
 40
260.0
 40
260.0
 40
260.0
 40
261.0
 40
261.0
 40
261.0
 40
262.0
 40
262.0
 40
262.0
 40
263.0
 40
263.0
 40
263.0
 40
264.0
 40
264.0
 40
264.0
 40
265.0
 40
265.0
 40
265.0
 40
266.0
 40
266.0
 40
266.0
 40
267.0
 40
267.0
 40
267.0
 40
268.0
 40
268.0
 40
268.0
 40
269.0
 40
269.0
 40
269.0
 40
270.0
 40
270.0
 40
270.0
 40
271.0
 40
271.0
 40
271.0
 40
272.0
 40
272.0
 40
272.0
 40
273.0
 40
273.0
 40
273.0
 40
274.0
 40
274.0
 40
274.0
 40
275.0
 40
275.0
 40
275.0
 40
276.0
 40
276.0
 40
276.0
 40
277.0
 40
277.0
 40
277.0
 40
278.0
 40
278.0
 40
278.0
 40
279.0
 40
279.0
 40
279.0
 40
280.0
 40
280.0
 40
280.0
 40
281.0
 40
281.0
 40
281.0
 40
282.0
 40
282.0
 40
282.0
 40
283.0
 40
283.0
 40
283.0
 40
284.0
 40
284.0
 40
284.0
 40
285.0
 40
285.0
 40
285.0
 40
286.0
 40
286.0
 40
286.0
 40
287.0
 40
287.0
 40
287.0
 40
288.0
 40
288.0
 40
288.0
 40
289.0
 40
289.0
 40
289.0
 40
290.0
 40
290.0
 40
290.0
 40
291.0
 40
291.0
 40
291.0
 40
292.0
 40
292.0
 40
292.0
 40
293.0
 40
293.0
 40
293.0
 40
294.0
 40
294.0
 40
294.0
 40
295.0
 40
295.0
 40
295.0
 40
296.0
 40
296.0
 40
296.0
 40
297.0
 40
297.0
 40
297.0
 40
298.0
 40
298.0
 40
298.0
 40
299.0
 40
299.0
 40
299.0
 40
300.0
 40
300.0
 40
300.0
 40
301.0
 40
301.0
 40
301.0
 40
302.0
 40
302.0
 40
302.0
 40
303.0
 40
303.0
 40
303.0
 40
304.0
 40
304.0
 40
304.0
 40
305.0
 40
305.0
 40
305.0
 40
306.0
 40
306.0
 40
306.0
 40
307.0
 40
307.0
 40
307.0
 40
308.0
 40
308.0
 40
308.0
 40
309.0
 40
309.0
 40
309.0
 40
310.0
 40
310.0
 40
310.0
 40
310.0
 10
33.744021267361106
 20
-49.739599609374999
 30
0.0
 10
33.739887152777776
 20
-49.72857530381944
 30
0.0
 10
33.735753038194439
 20
-49.71720648871527
 30
0.0
 10
33.731274414062497
 20
-49.70652669270833
 30
0.0
 10
33.726795789930556
 20
-49.695502387152771
 30
0.0
 10
33.721972656249996
 20
-49.68447808159722
 30
0.0
 10
33.716805013020831
 20
-49.673798285590273
 30
0.0
 10
33.714393446180551
 20
-49.668286132812497
 30
0.0
 10
33.711981879340271
 20
-49.663118489583326
 30
0.0
 10
33.709225802951387
 20
-49.657950846354161
 30
0.0
 10
33.706814236111107
 20
-49.652783203124997
 30
0.0
 10
33.704058159722216
 20
-49.647615559895826
 30
0.0
 10
33.701302083333331
 20
-49.642447916666661
 30
0.0
 10
33.69854600694444
 20
-49.637280273437497
 30
0.0
 10
33.695789930555556
 20
-49.632112630208326
 30
0.0
 10
33.693033854166664
 20
-49.627289496527773
 30
0.0
 10
33.689933268229161
 20
-49.622121853298609
 30
0.0
 10
33.687177191840277
 20
-49.616954210069437
 30
0.0
 10
33.684421115451386
 20
-49.612131076388884
 30
0.0
 10
33.683387586805551
 20
-49.610408528645827
 30
0.0
 10
33.682354058159717
 20
-49.60868598090277
 30
0.0
 10
33.681665039062494
 20
-49.607307942708331
 30
0.0
 10
33.680631510416667
 20
-49.605585394965274
 30
0.0
 10
33.679597981770833
 20
-49.604207356770829
 30
0.0
 10
33.678564453124999
 20
-49.602829318576383
 30
0.0
 10
33.676152886284719
 20
-49.598695203993053
 30
0.0
 10
33.673396809895827
 20
-49.594561089409716
 30
0.0
 10
33.670640733506943
 20
-49.590426974826386
 30
0.0
 10
33.667884657118051
 20
-49.58663736979166
 30
0.0
 10
33.665128580729167
 20
-49.58250325520833
 30
0.0
 10
33.662372504340276
 20
-49.578369140624993
 30
0.0
 10
33.659616427951384
 20
-49.574579535590274
 30
0.0
 10
33.657204861111111
 20
-49.570445421006937
 30
0.0
 10
33.65444878472222
 20
-49.566311306423607
 30
0.0
 10
33.651692708333329
 20
-49.562521701388881
 30
0.0
 10
33.648936631944444
 20
-49.558387586805551
 30
0.0
 10
33.646180555555553
 20
-49.554253472222214
 30
0.0
 10
33.64307996961805
 20
-49.549774848090273
 30
0.0
 10
33.639634874131943
 20
-49.54495171440972
 30
0.0
 10
33.636189778645829
 20
-49.540473090277771
 30
0.0
 10
33.632744683159721
 20
-49.535649956597219
 30
0.0
 10
33.629299587673607
 20
-49.53117133246527
 30
0.0
 10
33.625509982638889
 20
-49.52703721788194
 30
0.0
 10
33.621720377604163
 20
-49.522558593749999
 30
0.0
 10
33.618275282118056
 20
-49.51807996961805
 30
0.0
 10
33.61448567708333
 20
-49.513601345486109
 30
0.0
 10
33.610696072048611
 20
-49.509467230902771
 30
0.0
 10
33.606561957465274
 20
-49.505333116319441
 30
0.0
 10
33.602772352430556
 20
-49.500854492187493
 30
0.0
 10
33.59898274739583
 20
-49.496720377604163
 30
0.0
 10
33.5948486328125
 20
-49.492586263020826
 30
0.0
 10
33.590714518229163
 20
-49.488452148437496
 30
0.0
 10
33.586924913194444
 20
-49.483973524305554
 30
0.0
 10
33.582790798611107
 20
-49.479839409722217
 30
0.0
 10
33.578656684027777
 20
-49.475705295138887
 30
0.0
 10
33.57452256944444
 20
-49.471915690104161
 30
0.0
 10
33.57038845486111
 20
-49.467781575520831
 30
0.0
 10
33.566254340277773
 20
-49.463647460937494
 30
0.0
 10
33.562120225694443
 20
-49.459513346354164
 30
0.0
 10
33.557986111111106
 20
-49.455723741319439
 30
0.0
 10
33.553851996527776
 20
-49.451589626736109
 30
0.0
 10
33.549028862847216
 20
-49.44711100260416
 30
0.0
 10
33.544205729166663
 20
-49.44297688802083
 30
0.0
 10
33.539727105034721
 20
-49.438498263888881
 30
0.0
 10
33.534903971354161
 20
-49.434364149305551
 30
0.0
 10
33.530080837673609
 20
-49.42988552517361
 30
0.0
 10
33.525257703993056
 20
-49.425751410590273
 30
0.0
 10
33.520434570312496
 20
-49.421272786458331
 30
0.0
 10
33.515611436631943
 20
-49.417138671874994
 30
0.0
 10
33.510443793402771
 20
-49.413004557291664
 30
0.0
 10
33.505620659722219
 20
-49.408870442708327
 30
0.0
 10
33.500797526041666
 20
-49.404736328124997
 30
0.0
 10
33.495974392361106
 20
-49.40060221354166
 30
0.0
 10
33.490806749131941
 20
-49.39646809895833
 30
0.0
 10
33.485983615451389
 20
-49.392333984374993
 30
0.0
 10
33.480815972222217
 20
-49.388199869791663
 30
0.0
 10
33.475992838541664
 20
-49.384065755208326
 30
0.0
 10
33.471169704861111
 20
-49.379931640624996
 30
0.0
 10
33.46600206163194
 20
-49.375797526041666
 30
0.0
 10
33.460834418402776
 20
-49.371663411458329
 30
0.0
 10
33.455322265625
 20
-49.367184787326387
 30
0.0
 10
33.450154622395829
 20
-49.36305067274305
 30
0.0
 10
33.444642469618053
 20
-49.35891655815972
 30
0.0
 10
33.439474826388889
 20
-49.354782443576383
 30
0.0
 10
33.433962673611106
 20
-49.350648328993053
 30
0.0
 10
33.428795030381941
 20
-49.346169704861104
 30
0.0
 10
33.423282877604166
 20
-49.342035590277774
 30
0.0
 10
33.417770724826383
 20
-49.337901475694437
 30
0.0
 10
33.412603081597219
 20
-49.333767361111107
 30
0.0
 10
33.407090928819443
 20
-49.32963324652777
 30
0.0
 10
33.401578776041667
 20
-49.325843641493051
 30
0.0
 10
33.397100151909719
 20
-49.322398546006937
 30
0.0
 10
33.392621527777777
 20
-49.31895345052083
 30
0.0
 10
33.388142903645829
 20
-49.315852864583327
 30
0.0
 10
33.383664279513887
 20
-49.31240776909722
 30
0.0
 10
33.379185655381939
 20
-49.309307183159717
 30
0.0
 10
33.374707031249997
 20
-49.30586208767361
 30
0.0
 10
33.369539388020833
 20
-49.302072482638884
 30
0.0
 10
33.364371744791661
 20
-49.29862738715277
 30
0.0
 10
33.358859592013886
 20
-49.294837782118051
 30
0.0
 10
33.353691948784721
 20
-49.291048177083326
 30
0.0
 10
33.34852430555555
 20
-49.287603081597219
 30
0.0
 10
33.343356662326386
 20
-49.283813476562493
 30
0.0
 10
33.338189019097221
 20
-49.280368381076386
 30
0.0
 10
33.332676866319439
 20
-49.27657877604166
 30
0.0
 10
33.327509223090274
 20
-49.273133680555553
 30
0.0
 10
33.32234157986111
 20
-49.269344075520827
 30
0.0
 10
33.317173936631939
 20
-49.26589898003472
 30
0.0
 10
33.311661783854163
 20
-49.262453884548606
 30
0.0
 10
33.306149631076387
 20
-49.259008789062499
 30
0.0
 10
33.300981987847216
 20
-49.255563693576384
 30
0.0
 10
33.29546983506944
 20
-49.251774088541666
 30
0.0
 10
33.290302191840276
 20
-49.248328993055551
 30
0.0
 10
33.2847900390625
 20
-49.244883897569437
 30
0.0
 10
33.279622395833329
 20
-49.241783311631941
 30
0.0
 10
33.274110243055553
 20
-49.238338216145827
 30
0.0
 10
33.268598090277777
 20
-49.23489312065972
 30
0.0
 10
33.263085937499994
 20
-49.231448025173606
 30
0.0
 10
33.25791829427083
 20
-49.22834743923611
 30
0.0
 10
33.252406141493054
 20
-49.224902343749996
 30
0.0
 10
33.246893988715271
 20
-49.221457248263881
 30
0.0
 10
33.241381835937496
 20
-49.218356662326386
 30
0.0
 10
33.23586968315972
 20
-49.214911566840271
 30
0.0
 10
33.230357530381944
 20
-49.211810980902776
 30
0.0
 10
33.225189887152773
 20
-49.208365885416661
 30
0.0
 10
33.219677734374997
 20
-49.205265299479166
 30
0.0
 10
33.21382107204861
 20
-49.202164713541663
 30
0.0
 10
33.208308919270827
 20
-49.198719618055549
 30
0.0
 10
33.202796766493051
 20
-49.195619032118053
 30
0.0
 10
33.197284613715276
 20
-49.19251844618055
 30
0.0
 10
33.1917724609375
 20
-49.189417860243054
 30
0.0
 10
33.186260308159717
 20
-49.186317274305551
 30
0.0
 10
33.180748155381941
 20
-49.183216688368049
 30
0.0
 10
33.175236002604166
 20
-49.180116102430553
 30
0.0
 10
33.169723849826383
 20
-49.17701551649305
 30
0.0
 10
33.164556206597219
 20
-49.173914930555554
 30
0.0
 10
33.159044053819443
 20
-49.171158854166663
 30
0.0
 10
33.153531901041667
 20
-49.16805826822916
 30
0.0
 10
33.148019748263884
 20
-49.165302191840276
 30
0.0
 10
33.14285210503472
 20
-49.162201605902773
 30
0.0
 10
33.136995442708333
 20
-49.15910101996527
 30
0.0
 10
33.131827799479161
 20
-49.156344943576386
 30
0.0
 10
33.126315646701386
 20
-49.153244357638883
 30
0.0
 10
33.12080349392361
 20
-49.150488281249999
 30
0.0
 10
33.115291341145827
 20
-49.147732204861107
 30
0.0
 10
33.109779188368051
 20
-49.144631618923604
 30
0.0
 10
33.104267035590276
 20
-49.14187554253472
 30
0.0
 10
33.0987548828125
 20
-49.138774956597217
 30
0.0
 10
33.093242730034717
 20
-49.136018880208326
 30
0.0
 10
33.087730577256941
 20
-49.133262803819441
 30
0.0
 10
33.082218424479166
 20
-49.13050672743055
 30
0.0
 10
33.076706271701383
 20
-49.127406141493054
 30
0.0
 10
33.071194118923607
 20
-49.124650065104163
 30
0.0
 10
33.065681966145831
 20
-49.121893988715271
 30
0.0
 10
33.060169813368056
 20
-49.119137912326387
 30
0.0
 10
33.054657660590273
 20
-49.116037326388884
 30
0.0
 10
33.049145507812497
 20
-49.113281249999993
 30
0.0
 10
33.043633355034721
 20
-49.110525173611109
 30
0.0
 10
33.037776692708327
 20
-49.107769097222217
 30
0.0
 10
33.032264539930551
 20
-49.105013020833326
 30
0.0
 10
33.026407877604164
 20
-49.10191243489583
 30
0.0
 10
33.020895724826389
 20
-49.099156358506939
 30
0.0
 10
33.015039062499994
 20
-49.096400282118054
 30
0.0
 10
33.009526909722219
 20
-49.093644205729163
 30
0.0
 10
33.003670247395831
 20
-49.090888129340271
 30
0.0
 10
32.998158094618056
 20
-49.088132052951387
 30
0.0
 10
32.992301432291661
 20
-49.085375976562496
 30
0.0
 10
32.986789279513886
 20
-49.082275390624993
 30
0.0
 10
32.980932617187499
 20
-49.079519314236109
 30
0.0
 10
32.975420464409716
 20
-49.076763237847217
 30
0.0
 10
32.969563802083329
 20
-49.074351671006937
 30
0.0
 10
32.964051649305553
 20
-49.071595594618053
 30
0.0
 10
32.958194986979166
 20
-49.068839518229161
 30
0.0
 10
32.952338324652771
 20
-49.06608344184027
 30
0.0
 10
32.946826171874996
 20
-49.063327365451386
 30
0.0
 10
32.941658528645831
 20
-49.060915798611106
 30
0.0
 10
32.936146375868056
 20
-49.058504231770826
 30
0.0
 10
32.930978732638884
 20
-49.056092664930553
 30
0.0
 10
32.92581108940972
 20
-49.053681098090273
 30
0.0
 10
32.920643446180556
 20
-49.050925021701381
 30
0.0
 10
32.915475802951384
 20
-49.048513454861109
 30
0.0
 10
32.909963650173609
 20
-49.046101888020829
 30
0.0
 10
32.904106987847221
 20
-49.043345811631937
 30
0.0
 10
32.898594835069439
 20
-49.040934244791664
 30
0.0
 10
32.892738172743051
 20
-49.038178168402773
 30
0.0
 10
32.887226019965276
 20
-49.035766601562493
 30
0.0
 10
32.8817138671875
 20
-49.033010525173609
 30
0.0
 10
32.875857204861106
 20
-49.030598958333329
 30
0.0
 10
32.87034505208333
 20
-49.028187391493049
 30
0.0
 10
32.864488389756943
 20
-49.025431315104164
 30
0.0
 10
32.858976236979167
 20
-49.023019748263884
 30
0.0
 10
32.853464084201384
 20
-49.020608181423604
 30
0.0
 10
32.847607421874997
 20
-49.018196614583331
 30
0.0
 10
32.842095269097221
 20
-49.01544053819444
 30
0.0
 10
32.836238606770827
 20
-49.01302897135416
 30
0.0
 10
32.830726453993051
 20
-49.010617404513887
 30
0.0
 10
32.824869791666664
 20
-49.008205837673607
 30
0.0
 10
32.819357638888889
 20
-49.005794270833327
 30
0.0
 10
32.813500976562494
 20
-49.003382703993054
 30
0.0
 10
32.807988823784719
 20
-49.000971137152774
 30
0.0
 10
32.802132161458331
 20
-48.998215060763883
 30
0.0
 10
32.796620008680556
 20
-48.99580349392361
 30
0.0
 10
32.790763346354161
 20
-48.99339192708333
 30
0.0
 10
32.785251193576386
 20
-48.99098036024305
 30
0.0
 10
32.779394531249999
 20
-48.988913302951381
 30
0.0
 10
32.773537868923611
 20
-48.986501736111109
 30
0.0
 10
32.768025716145829
 20
-48.984090169270829
 30
0.0
 10
32.762169053819441
 20
-48.981678602430549
 30
0.0
 10
32.756312391493054
 20
-48.979267035590276
 30
0.0
 10
32.750800238715271
 20
-48.976855468749996
 30
0.0
 10
32.744943576388884
 20
-48.974443901909716
 30
0.0
 10
32.739431423611109
 20
-48.972376844618054
 30
0.0
 10
32.733574761284721
 20
-48.969965277777774
 30
0.0
 10
32.727718098958327
 20
-48.967553710937494
 30
0.0
 10
32.722205946180551
 20
-48.965142144097214
 30
0.0
 10
32.716349283854164
 20
-48.963075086805553
 30
0.0
 10
32.710492621527777
 20
-48.960663519965273
 30
0.0
 10
32.704980468749994
 20
-48.958251953124993
 30
0.0
 10
32.699123806423607
 20
-48.956184895833331
 30
0.0
 10
32.69326714409722
 20
-48.953773328993051
 30
0.0
 10
32.687410481770833
 20
-48.951706271701383
 30
0.0
 10
32.681553819444439
 20
-48.94929470486111
 30
0.0
 10
32.676041666666663
 20
-48.947227647569441
 30
0.0
 10
32.670185004340276
 20
-48.944816080729161
 30
0.0
 10
32.664328342013889
 20
-48.942749023437493
 30
0.0
 10
32.658471679687494
 20
-48.94033745659722
 30
0.0
 10
32.652959526909719
 20
-48.938270399305551
 30
0.0
 10
32.647102864583331
 20
-48.935858832465271
 30
0.0
 10
32.641246202256944
 20
-48.93379177517361
 30
0.0
 10
32.634011501736111
 20
-48.931035698784719
 30
0.0
 10
32.627121310763883
 20
-48.928279622395827
 30
0.0
 10
32.61988661024305
 20
-48.925868055555554
 30
0.0
 10
32.612651909722217
 20
-48.923111979166663
 30
0.0
 10
32.605761718749996
 20
-48.920355902777771
 30
0.0
 10
32.598527018229163
 20
-48.917944335937499
 30
0.0
 10
32.59129231770833
 20
-48.915188259548607
 30
0.0
 10
32.584402126736109
 20
-48.912432183159716
 30
0.0
 10
32.577167426215276
 20
-48.910020616319443
 30
0.0
 10
32.569932725694443
 20
-48.907264539930551
 30
0.0
 10
32.563042534722221
 20
-48.90450846354166
 30
0.0
 10
32.555807834201389
 20
-48.902096896701387
 30
0.0
 10
32.548573133680556
 20
-48.899340820312496
 30
0.0
 10
32.541682942708327
 20
-48.896929253472216
 30
0.0
 10
32.534448242187494
 20
-48.894517686631943
 30
0.0
 10
32.527213541666661
 20
-48.891761610243051
 30
0.0
 10
32.519978841145829
 20
-48.889350043402771
 30
0.0
 10
32.513088650173607
 20
-48.886593967013887
 30
0.0
 10
32.505853949652774
 20
-48.884182400173607
 30
0.0
 10
32.498619249131941
 20
-48.881770833333327
 30
0.0
 10
32.491384548611109
 20
-48.879014756944443
 30
0.0
 10
32.484149848090276
 20
-48.876603190104163
 30
0.0
 10
32.477259657118054
 20
-48.874191623263883
 30
0.0
 10
32.470024956597221
 20
-48.871435546874999
 30
0.0
 10
32.464168294270827
 20
-48.86936848958333
 30
0.0
 10
32.45831163194444
 20
-48.867301432291661
 30
0.0
 10
32.452110460069441
 20
-48.865234374999993
 30
0.0
 10
32.446253797743054
 20
-48.863511827256943
 30
0.0
 10
32.440397135416667
 20
-48.861444769965274
 30
0.0
 10
32.434540473090273
 20
-48.859377712673606
 30
0.0
 10
32.428683810763886
 20
-48.857310655381937
 30
0.0
 10
32.422827148437499
 20
-48.855243598090276
 30
0.0
 10
32.4166259765625
 20
-48.853176540798607
 30
0.0
 10
32.410769314236106
 20
-48.851109483506939
 30
0.0
 10
32.404912651909719
 20
-48.849386935763881
 30
0.0
 10
32.399055989583331
 20
-48.84731987847222
 30
0.0
 10
32.393199327256944
 20
-48.845252821180551
 30
0.0
 10
32.38734266493055
 20
-48.843185763888883
 30
0.0
 10
32.381486002604163
 20
-48.841118706597214
 30
0.0
 10
32.375284830729164
 20
-48.839051649305553
 30
0.0
 10
32.369428168402777
 20
-48.837329101562496
 30
0.0
 10
32.363571506076383
 20
-48.835262044270827
 30
0.0
 10
32.357714843749996
 20
-48.833194986979166
 30
0.0
 10
32.351858181423609
 20
-48.831472439236109
 30
0.0
 10
32.34565700954861
 20
-48.82940538194444
 30
0.0
 10
32.339800347222216
 20
-48.827338324652771
 30
0.0
 10
32.333943684895829
 20
-48.825615776909714
 30
0.0
 10
32.328087022569441
 20
-48.823548719618053
 30
0.0
 10
32.322919379340277
 20
-48.821826171874996
 30
0.0
 10
32.317751736111106
 20
-48.820103624131939
 30
0.0
 10
32.312584092881941
 20
-48.818381076388881
 30
0.0
 10
32.307760959201389
 20
-48.817003038194443
 30
0.0
 10
32.302593315972217
 20
-48.815280490451386
 30
0.0
 10
32.297425672743053
 20
-48.813557942708329
 30
0.0
 10
32.29019097222222
 20
-48.811146375868049
 30
0.0
 10
32.282956271701387
 20
-48.809079318576387
 30
0.0
 10
32.275721571180554
 20
-48.806667751736107
 30
0.0
 10
32.268486870659721
 20
-48.804256184895827
 30
0.0
 10
32.261252170138889
 20
-48.802189127604166
 30
0.0
 10
32.254017469618056
 20
-48.799777560763886
 30
0.0
 10
32.246782769097216
 20
-48.797365993923606
 30
0.0
 10
32.239548068576383
 20
-48.795298936631937
 30
0.0
 10
32.23231336805555
 20
-48.792887369791664
 30
0.0
 10
32.225078667534717
 20
-48.790475802951384
 30
0.0
 10
32.217843967013884
 20
-48.788408745659716
 30
0.0
 10
32.210609266493051
 20
-48.785997178819443
 30
0.0
 10
32.203374565972219
 20
-48.783930121527774
 30
0.0
 10
32.196139865451386
 20
-48.781863064236106
 30
0.0
 10
32.188905164930553
 20
-48.779451497395826
 30
0.0
 10
32.18167046440972
 20
-48.777384440104164
 30
0.0
 10
32.174435763888887
 20
-48.774972873263884
 30
0.0
 10
32.167201063368054
 20
-48.772905815972216
 30
0.0
 10
32.159966362847221
 20
-48.770494249131943
 30
0.0
 10
32.152731662326389
 20
-48.768427191840274
 30
0.0
 10
32.145152452256944
 20
-48.766360134548606
 30
0.0
 10
32.137917751736111
 20
-48.763948567708326
 30
0.0
 10
32.130683051215271
 20
-48.761881510416664
 30
0.0
 10
32.123448350694439
 20
-48.759814453124996
 30
0.0
 10
32.116213650173606
 20
-48.757747395833327
 30
0.0
 10
32.108978949652773
 20
-48.755680338541666
 30
0.0
 10
32.10174424913194
 20
-48.753268771701386
 30
0.0
 10
32.094509548611107
 20
-48.751201714409717
 30
0.0
 10
32.086930338541663
 20
-48.749134657118049
 30
0.0
 10
32.07969563802083
 20
-48.747067599826387
 30
0.0
 10
32.072460937499997
 20
-48.745000542534719
 30
0.0
 10
32.065226236979164
 20
-48.74293348524305
 30
0.0
 10
32.057991536458331
 20
-48.740866427951381
 30
0.0
 10
32.050756835937499
 20
-48.73879937065972
 30
0.0
 10
32.043177625868054
 20
-48.736732313368051
 30
0.0
 10
32.035942925347221
 20
-48.734665256076383
 30
0.0
 10
32.028708224826389
 20
-48.732598198784714
 30
0.0
 10
32.021473524305556
 20
-48.730531141493053
 30
0.0
 10
32.014238823784723
 20
-48.728464084201384
 30
0.0
 10
32.007004123263883
 20
-48.726397026909716
 30
0.0
 10
31.999424913194442
 20
-48.724329969618054
 30
0.0
 10
31.992190212673609
 20
-48.722262912326386
 30
0.0
 10
31.984955512152776
 20
-48.720195855034717
 30
0.0
 10
31.97772081163194
 20
-48.718128797743049
 30
0.0
 10
31.970141601562496
 20
-48.716406249999999
 30
0.0
 10
31.962906901041663
 20
-48.71433919270833
 30
0.0
 10
31.95567220052083
 20
-48.712272135416661
 30
0.0
 10
31.948437499999997
 20
-48.710205078124993
 30
0.0
 10
31.941547309027776
 20
-48.708482530381943
 30
0.0
 10
31.934657118055554
 20
-48.706759982638886
 30
0.0
 10
31.927766927083329
 20
-48.704692925347217
 30
0.0
 10
31.920876736111108
 20
-48.70297037760416
 30
0.0
 10
31.914331054687498
 20
-48.70124782986111
 30
0.0
 10
31.907440863715276
 20
-48.699180772569441
 30
0.0
 10
31.900550672743051
 20
-48.697458224826384
 30
0.0
 10
31.89366048177083
 20
-48.695735677083327
 30
0.0
 10
31.886770290798609
 20
-48.693668619791666
 30
0.0
 10
31.880224609374999
 20
-48.691946072048609
 30
0.0
 10
31.873334418402774
 20
-48.690223524305551
 30
0.0
 10
31.866444227430552
 20
-48.688500976562494
 30
0.0
 10
31.859554036458331
 20
-48.686778428819437
 30
0.0
 10
31.852663845486109
 20
-48.684711371527776
 30
0.0
 10
31.845773654513884
 20
-48.682988823784719
 30
0.0
 10
31.838883463541663
 20
-48.681266276041661
 30
0.0
 10
31.832337782118053
 20
-48.679543728298604
 30
0.0
 10
31.825447591145831
 20
-48.677821180555554
 30
0.0
 10
31.818557400173606
 20
-48.676098632812497
 30
0.0
 10
31.811667209201385
 20
-48.67437608506944
 30
0.0
 10
31.804777018229164
 20
-48.672653537326383
 30
0.0
 10
31.797886827256942
 20
-48.670930989583326
 30
0.0
 10
31.790996636284721
 20
-48.668863932291664
 30
0.0
 10
31.784106445312496
 20
-48.667141384548607
 30
0.0
 10
31.777216254340274
 20
-48.66541883680555
 30
0.0
 10
31.770670572916664
 20
-48.663696289062493
 30
0.0
 10
31.763780381944443
 20
-48.661973741319443
 30
0.0
 10
31.756890190972218
 20
-48.660251193576386
 30
0.0
 10
31.749999999999996
 20
-48.658528645833329
 30
0.0
 10
31.743109809027775
 20
-48.656806098090271
 30
0.0
 10
31.735875108506942
 20
-48.655083550347214
 30
0.0
 10
31.728295898437498
 20
-48.653361002604164
 30
0.0
 10
31.720716688368054
 20
-48.651293945312496
 30
0.0
 10
31.713137478298609
 20
-48.649571397569439
 30
0.0
 10
31.705902777777776
 20
-48.64750434027777
 30
0.0
 10
31.698323567708332
 20
-48.64578179253472
 30
0.0
 10
31.691088867187496
 20
-48.644059244791663
 30
0.0
 10
31.683509657118051
 20
-48.641992187499994
 30
0.0
 10
31.675930447048607
 20
-48.640269639756937
 30
0.0
 10
31.668695746527774
 20
-48.638547092013887
 30
0.0
 10
31.66111653645833
 20
-48.63682454427083
 30
0.0
 10
31.653537326388886
 20
-48.634757486979161
 30
0.0
 10
31.646302625868053
 20
-48.633034939236104
 30
0.0
 10
31.638723415798609
 20
-48.631312391493054
 30
0.0
 10
31.631144205729164
 20
-48.629589843749997
 30
0.0
 10
31.623909505208331
 20
-48.62786729600694
 30
0.0
 10
31.616330295138887
 20
-48.625800238715271
 30
0.0
 10
31.608751085069443
 20
-48.624077690972214
 30
0.0
 10
31.60151638454861
 20
-48.622355143229164
 30
0.0
 10
31.593937174479162
 20
-48.620632595486107
 30
0.0
 10
31.586357964409718
 20
-48.61891004774305
 30
0.0
 10
31.579123263888885
 20
-48.617187499999993
 30
0.0
 10
31.571544053819441
 20
-48.615464952256943
 30
0.0
 10
31.563964843749996
 20
-48.613742404513886
 30
0.0
 10
31.559486219618051
 20
-48.612708875868051
 30
0.0
 10
31.55500759548611
 20
-48.611675347222217
 30
0.0
 10
31.550528971354165
 20
-48.610297309027771
 30
0.0
 10
31.54605034722222
 20
-48.609263780381937
 30
0.0
 10
31.541571723090275
 20
-48.60823025173611
 30
0.0
 10
31.53709309895833
 20
-48.607196723090276
 30
0.0
 10
31.530202907986109
 20
-48.60581868489583
 30
0.0
 10
31.523312717013887
 20
-48.604096137152773
 30
0.0
 10
31.516422526041662
 20
-48.602718098958327
 30
0.0
 10
31.509532335069441
 20
-48.60099555121527
 30
0.0
 10
31.502642144097219
 20
-48.59927300347222
 30
0.0
 10
31.495751953124998
 20
-48.597894965277774
 30
0.0
 10
31.488861762152776
 20
-48.596172417534717
 30
0.0
 10
31.481971571180551
 20
-48.594794379340271
 30
0.0
 10
31.47508138020833
 20
-48.593071831597214
 30
0.0
 10
31.468191189236109
 20
-48.591693793402776
 30
0.0
 10
31.461300998263887
 20
-48.589971245659719
 30
0.0
 10
31.454410807291662
 20
-48.588593207465273
 30
0.0
 10
31.447520616319441
 20
-48.586870659722216
 30
0.0
 10
31.440630425347219
 20
-48.58549262152777
 30
0.0
 10
31.433740234374998
 20
-48.58377007378472
 30
0.0
 10
31.426850043402776
 20
-48.582392035590274
 30
0.0
 10
31.419959852430551
 20
-48.581013997395829
 30
0.0
 10
31.41306966145833
 20
-48.579291449652771
 30
0.0
 10
31.406179470486109
 20
-48.577913411458326
 30
0.0
 10
31.399289279513887
 20
-48.576190863715276
 30
0.0
 10
31.392399088541662
 20
-48.57481282552083
 30
0.0
 10
31.385508897569441
 20
-48.573434787326384
 30
0.0
 10
31.378618706597219
 20
-48.571712239583327
 30
0.0
 10
31.371728515624998
 20
-48.570334201388881
 30
0.0
 10
31.364838324652776
 20
-48.568956163194443
 30
0.0
 10
31.357948133680551
 20
-48.567578124999997
 30
0.0
 10
31.35105794270833
 20
-48.56585557725694
 30
0.0
 10
31.344167751736109
 20
-48.564477539062494
 30
0.0
 10
31.337277560763887
 20
-48.562754991319437
 30
0.0
 10
31.330387369791662
 20
-48.561376953124999
 30
0.0
 10
31.323497178819441
 20
-48.559998914930553
 30
0.0
 10
31.316606987847219
 20
-48.558620876736107
 30
0.0
 10
31.309372287326386
 20
-48.557242838541661
 30
0.0
 10
31.302826605902776
 20
-48.555520290798604
 30
0.0
 10
31.29559190538194
 20
-48.554142252604166
 30
0.0
 10
31.288701714409719
 20
-48.55276421440972
 30
0.0
 10
31.281811523437497
 20
-48.551386176215274
 30
0.0
 10
31.274921332465276
 20
-48.550008138020829
 30
0.0
 10
31.268031141493054
 20
-48.548630099826383
 30
0.0
 10
31.261140950520829
 20
-48.546907552083326
 30
0.0
 10
31.254250759548608
 20
-48.545529513888887
 30
0.0
 10
31.247360568576386
 20
-48.544151475694441
 30
0.0
 10
31.240470377604165
 20
-48.542773437499996
 30
0.0
 10
31.233235677083332
 20
-48.54139539930555
 30
0.0
 10
31.226345486111107
 20
-48.540017361111104
 30
0.0
 10
31.219455295138886
 20
-48.538639322916666
 30
0.0
 10
31.212565104166664
 20
-48.53726128472222
 30
0.0
 10
31.205674913194443
 20
-48.535883246527774
 30
0.0
 10
31.198784722222218
 20
-48.534505208333329
 30
0.0
 10
31.191894531249996
 20
-48.533127170138883
 30
0.0
 10
31.185004340277775
 20
-48.531749131944437
 30
0.0
 10
31.178114149305554
 20
-48.530371093749999
 30
0.0
 10
31.171223958333332
 20
-48.528993055555553
 30
0.0
 10
31.163989257812496
 20
-48.527615017361107
 30
0.0
 10
31.157099066840274
 20
-48.526236979166661
 30
0.0
 10
31.150208875868053
 20
-48.524858940972216
 30
0.0
 10
31.143318684895831
 20
-48.52348090277777
 30
0.0
 10
31.13642849392361
 20
-48.522102864583331
 30
0.0
 10
31.129538302951385
 20
-48.520724826388886
 30
0.0
 10
31.122648111979164
 20
-48.51934678819444
 30
0.0
 10
31.115068901909719
 20
-48.517968749999994
 30
0.0
 10
31.107834201388886
 20
-48.516590711805549
 30
0.0
 10
31.100254991319442
 20
-48.51521267361111
 30
0.0
 10
31.093020290798609
 20
-48.513490125868053
 30
0.0
 10
31.085785590277776
 20
-48.512112087673607
 30
0.0
 10
31.078206380208332
 20
-48.510734049479161
 30
0.0
 10
31.070971679687496
 20
-48.509356011284716
 30
0.0
 10
31.063392469618051
 20
-48.50797797309027
 30
0.0
 10
31.056157769097219
 20
-48.506599934895831
 30
0.0
 10
31.048578559027774
 20
-48.505221896701386
 30
0.0
 10
31.041343858506941
 20
-48.50384385850694
 30
0.0
 10
31.034109157986109
 20
-48.502465820312494
 30
0.0
 10
31.026529947916664
 20
-48.501087782118049
 30
0.0
 10
31.019295247395831
 20
-48.49970974392361
 30
0.0
 10
31.012060546874999
 20
-48.498331705729164
 30
0.0
 10
31.004481336805554
 20
-48.496953667534719
 30
0.0
 10
30.997246636284718
 20
-48.495575629340273
 30
0.0
 10
30.989667426215274
 20
-48.494197591145827
 30
0.0
 10
30.982432725694441
 20
-48.492819552951381
 30
0.0
 10
30.974853515624996
 20
-48.491441514756943
 30
0.0
 10
30.967618815104164
 20
-48.490063476562497
 30
0.0
 10
30.960039605034719
 20
-48.488685438368051
 30
0.0
 10
30.952804904513886
 20
-48.487651909722217
 30
0.0
 10
30.945225694444442
 20
-48.486273871527771
 30
0.0
 10
30.937990993923609
 20
-48.484895833333326
 30
0.0
 10
30.930411783854165
 20
-48.483517795138887
 30
0.0
 10
30.923177083333332
 20
-48.482139756944441
 30
0.0
 10
30.915942382812496
 20
-48.480761718749996
 30
0.0
 10
30.908363172743051
 20
-48.47938368055555
 30
0.0
 10
30.901128472222219
 20
-48.478005642361104
 30
0.0
 10
30.893549262152774
 20
-48.47697211371527
 30
0.0
 10
30.886314561631941
 20
-48.475594075520831
 30
0.0
 10
30.878735351562497
 20
-48.474216037326386
 30
0.0
 10
30.871500651041664
 20
-48.47283799913194
 30
0.0
 10
30.86392144097222
 20
-48.471459960937494
 30
0.0
 10
30.856686740451387
 20
-48.470081922743049
 30
0.0
 10
30.849107530381943
 20
-48.469048394097214
 30
0.0
 10
30.84187282986111
 20
-48.467670355902776
 30
0.0
 10
30.834293619791662
 20
-48.46629231770833
 30
0.0
 10
30.827058919270829
 20
-48.464914279513884
 30
0.0
 10
30.819479709201385
 20
-48.46388075086805
 30
0.0
 10
30.812245008680552
 20
-48.462502712673604
 30
0.0
 10
30.804665798611108
 20
-48.461124674479166
 30
0.0
 10
30.797431098090275
 20
-48.460091145833331
 30
0.0
 10
30.789851888020831
 20
-48.458713107638886
 30
0.0
 10
30.782617187499998
 20
-48.45733506944444
 30
0.0
 10
30.775037977430554
 20
-48.455957031249994
 30
0.0
 10
30.767458767361109
 20
-48.45492350260416
 30
0.0
 10
30.760224066840276
 20
-48.453545464409714
 30
0.0
 10
30.752644856770832
 20
-48.452167426215276
 30
0.0
 10
30.745065646701388
 20
-48.451133897569441
 30
0.0
 10
30.737830946180551
 20
-48.449755859374996
 30
0.0
 10
30.730251736111107
 20
-48.44837782118055
 30
0.0
 10
30.722672526041663
 20
-48.447344292534716
 30
0.0
 10
30.71543782552083
 20
-48.44596625434027
 30
0.0
 10
30.707858615451386
 20
-48.444932725694443
 30
0.0
 10
30.700623914930553
 20
-48.443554687499997
 30
0.0
 10
30.693044704861109
 20
-48.442521158854163
 30
0.0
 10
30.685810004340276
 20
-48.441143120659717
 30
0.0
 10
30.678230794270831
 20
-48.439765082465271
 30
0.0
 10
30.670996093749999
 20
-48.438731553819437
 30
0.0
 10
30.663416883680554
 20
-48.437353515624999
 30
0.0
 10
30.65583767361111
 20
-48.436319986979164
 30
0.0
 10
30.648602973090274
 20
-48.434941948784719
 30
0.0
 10
30.641368272569441
 20
-48.433908420138884
 30
0.0
 10
30.633789062499996
 20
-48.432530381944439
 30
0.0
 10
30.626554361979164
 20
-48.431496853298604
 30
0.0
 10
30.618975151909719
 20
-48.43046332465277
 30
0.0
 10
30.611740451388886
 20
-48.429085286458331
 30
0.0
 10
30.604505750868054
 20
-48.428051757812497
 30
0.0
 10
30.596926540798609
 20
-48.426673719618051
 30
0.0
 10
30.589691840277776
 20
-48.425640190972217
 30
0.0
 10
30.582112630208332
 20
-48.424262152777771
 30
0.0
 10
30.574877929687496
 20
-48.423228624131937
 30
0.0
 10
30.567298719618051
 20
-48.42219509548611
 30
0.0
 10
30.560064019097219
 20
-48.420817057291664
 30
0.0
 10
30.552484809027774
 20
-48.41978352864583
 30
0.0
 10
30.545250108506941
 20
-48.418749999999996
 30
0.0
 10
30.538015407986109
 20
-48.41737196180555
 30
0.0
 10
30.530436197916664
 20
-48.416338433159716
 30
0.0
 10
30.523201497395831
 20
-48.415304904513881
 30
0.0
 10
30.515622287326387
 20
-48.413926866319443
 30
0.0
 10
30.508387586805554
 20
-48.412893337673609
 30
0.0
 10
30.50080837673611
 20
-48.411859809027774
 30
0.0
 10
30.493573676215274
 20
-48.410481770833329
 30
0.0
 10
30.485994466145829
 20
-48.409448242187494
 30
0.0
 10
30.478759765624996
 20
-48.40841471354166
 30
0.0
 10
30.471180555555552
 20
-48.407036675347214
 30
0.0
 10
30.463945855034719
 20
-48.406003146701387
 30
0.0
 10
30.456366644965275
 20
-48.404969618055553
 30
0.0
 10
30.448787434895831
 20
-48.403936089409719
 30
0.0
 10
30.441552734374998
 20
-48.402902560763884
 30
0.0
 10
30.433973524305554
 20
-48.401524522569439
 30
0.0
 10
30.426738823784721
 20
-48.400490993923604
 30
0.0
 10
30.419159613715276
 20
-48.39945746527777
 30
0.0
 10
30.41192491319444
 20
-48.398423936631943
 30
0.0
 10
30.404345703124996
 20
-48.397390407986109
 30
0.0
 10
30.396766493055551
 20
-48.396356879340274
 30
0.0
 10
30.389531792534719
 20
-48.394978841145829
 30
0.0
 10
30.381952582465274
 20
-48.393945312499994
 30
0.0
 10
30.374717881944441
 20
-48.39291178385416
 30
0.0
 10
30.367138671874997
 20
-48.391878255208326
 30
0.0
 10
30.359559461805553
 20
-48.390844726562499
 30
0.0
 10
30.35232476128472
 20
-48.389811197916664
 30
0.0
 10
30.344745551215276
 20
-48.38877766927083
 30
0.0
 10
30.337510850694443
 20
-48.387744140624996
 30
0.0
 10
30.329931640624999
 20
-48.386710611979161
 30
0.0
 10
30.322696940104162
 20
-48.385677083333327
 30
0.0
 10
30.315117730034718
 20
-48.384299045138881
 30
0.0
 10
30.307883029513885
 20
-48.383265516493054
 30
0.0
 10
30.300303819444441
 20
-48.38223198784722
 30
0.0
 10
30.292724609374996
 20
-48.381198459201386
 30
0.0
 10
30.285489908854164
 20
-48.380164930555551
 30
0.0
 10
30.277910698784719
 20
-48.379131401909717
 30
0.0
 10
30.270331488715275
 20
-48.378097873263883
 30
0.0
 10
30.263096788194442
 20
-48.377064344618049
 30
0.0
 10
30.255517578124998
 20
-48.376030815972214
 30
0.0
 10
30.247938368055554
 20
-48.374997287326387
 30
0.0
 10
30.240703667534721
 20
-48.373963758680553
 30
0.0
 10
30.233124457465276
 20
-48.372930230034719
 30
0.0
 10
30.22588975694444
 20
-48.372241210937496
 30
0.0
 10
30.218310546874996
 20
-48.371207682291661
 30
0.0
 10
30.211075846354163
 20
-48.370174153645827
 30
0.0
 10
30.203496636284719
 20
-48.369140624999993
 30
0.0
 10
30.196261935763886
 20
-48.368107096354166
 30
0.0
 10
30.188682725694441
 20
-48.367073567708331
 30
0.0
 10
30.18179253472222
 20
-48.366040039062497
 30
0.0
 10
30.174557834201387
 20
-48.365006510416663
 30
0.0
 10
30.167667643229162
 20
-48.36431749131944
 30
0.0
 10
30.160432942708329
 20
-48.363283962673606
 30
0.0
 10
30.153542751736108
 20
-48.362250434027771
 30
0.0
 10
30.146652560763886
 20
-48.361561414930549
 30
0.0
 10
30.139417860243054
 20
-48.360527886284714
 30
0.0
 10
30.132527669270832
 20
-48.359494357638887
 30
0.0
 10
30.125292968749996
 20
-48.358805338541664
 30
0.0
 10
30.118402777777774
 20
-48.35777180989583
 30
0.0
 10
30.111512586805553
 20
-48.356738281249996
 30
0.0
 10
30.10427788628472
 20
-48.356049262152773
 30
0.0
 10
30.097387695312499
 20
-48.355015733506939
 30
0.0
 10
30.090152994791662
 20
-48.353982204861104
 30
0.0
 10
30.083262803819441
 20
-48.353293185763881
 30
0.0
 10
30.076372612847219
 20
-48.352259657118054
 30
0.0
 10
30.069137912326386
 20
-48.351570638020831
 30
0.0
 10
30.062247721354165
 20
-48.350537109374997
 30
0.0
 10
30.05535753038194
 20
-48.349848090277774
 30
0.0
 10
30.048122829861107
 20
-48.34881456163194
 30
0.0
 10
30.041232638888886
 20
-48.347781032986106
 30
0.0
 10
30.033997938368053
 20
-48.347092013888883
 30
0.0
 10
30.027107747395831
 20
-48.346058485243049
 30
0.0
 10
30.019873046874999
 20
-48.345369466145826
 30
0.0
 10
30.012982855902774
 20
-48.344335937499999
 30
0.0
 10
30.006092664930552
 20
-48.343646918402776
 30
0.0
 10
29.998857964409719
 20
-48.342613389756941
 30
0.0
 10
29.991967773437498
 20
-48.341924370659719
 30
0.0
 10
29.984733072916665
 20
-48.340890842013884
 30
0.0
 10
29.97784288194444
 20
-48.340201822916661
 30
0.0
 10
29.970952690972219
 20
-48.339168294270827
 30
0.0
 10
29.963717990451386
 20
-48.338479275173604
 30
0.0
 10
29.956827799479164
 20
-48.33744574652777
 30
0.0
 10
29.949593098958331
 20
-48.336756727430554
 30
0.0
 10
29.94270290798611
 20
-48.33572319878472
 30
0.0
 10
29.935812717013885
 20
-48.335034179687497
 30
0.0
 10
29.928578016493052
 20
-48.334000651041663
 30
0.0
 10
29.921687825520831
 20
-48.33331163194444
 30
0.0
 10
29.914453124999998
 20
-48.332622612847217
 30
0.0
 10
29.907562934027776
 20
-48.331589084201383
 30
0.0
 10
29.900672743055551
 20
-48.33090006510416
 30
0.0
 10
29.893438042534719
 20
-48.329866536458326
 30
0.0
 10
29.886547851562497
 20
-48.32917751736111
 30
0.0
 10
29.879313151041664
 20
-48.328143988715276
 30
0.0
 10
29.872422960069443
 20
-48.327454969618053
 30
0.0
 10
29.865532769097218
 20
-48.32676595052083
 30
0.0
 10
29.858298068576385
 20
-48.325732421874996
 30
0.0
 10
29.851407877604164
 20
-48.325043402777773
 30
0.0
 10
29.844862196180554
 20
-48.32435438368055
 30
0.0
 10
29.83831651475694
 20
-48.323665364583327
 30
0.0
 10
29.832115342881941
 20
-48.322631835937493
 30
0.0
 10
29.825569661458331
 20
-48.32194281684027
 30
0.0
 10
29.819023980034718
 20
-48.321253797743054
 30
0.0
 10
29.812822808159719
 20
-48.320564778645831
 30
0.0
 10
29.806277126736109
 20
-48.319875759548609
 30
0.0
 10
29.800075954861107
 20
-48.319186740451386
 30
0.0
 10
29.793530273437497
 20
-48.318497721354163
 30
0.0
 10
29.786984592013887
 20
-48.31780870225694
 30
0.0
 10
29.780783420138885
 20
-48.316775173611106
 30
0.0
 10
29.774237738715275
 20
-48.316086154513883
 30
0.0
 10
29.767692057291665
 20
-48.31539713541666
 30
0.0
 10
29.761490885416663
 20
-48.314708116319437
 30
0.0
 10
29.754945203993053
 20
-48.314019097222214
 30
0.0
 10
29.748399522569443
 20
-48.313330078124999
 30
0.0
 10
29.742198350694441
 20
-48.312641059027776
 30
0.0
 10
29.735652669270831
 20
-48.311952039930553
 30
0.0
 10
29.729451497395832
 20
-48.31126302083333
 30
0.0
 10
29.722905815972219
 20
-48.310574001736107
 30
0.0
 10
29.716360134548609
 20
-48.309884982638884
 30
0.0
 10
29.71015896267361
 20
-48.309195963541661
 30
0.0
 10
29.703613281249996
 20
-48.308506944444439
 30
0.0
 10
29.697412109374998
 20
-48.307817925347216
 30
0.0
 10
29.689488389756942
 20
-48.306784396701381
 30
0.0
 10
29.681909179687498
 20
-48.306095377604166
 30
0.0
 10
29.674329969618054
 20
-48.305061848958331
 30
0.0
 10
29.666750759548609
 20
-48.304372829861109
 30
0.0
 10
29.658827039930554
 20
-48.303683810763886
 30
0.0
 10
29.651247829861109
 20
-48.302994791666663
 30
0.0
 10
29.643668619791665
 20
-48.301961263020829
 30
0.0
 10
29.636089409722221
 20
-48.301272243923606
 30
0.0
 10
29.628165690104165
 20
-48.300238715277771
 30
0.0
 10
29.620586480034721
 20
-48.299549696180549
 30
0.0
 10
29.613007269965276
 20
-48.298860677083326
 30
0.0
 10
29.605428059895832
 20
-48.29817165798611
 30
0.0
 10
29.597504340277776
 20
-48.297138129340276
 30
0.0
 10
29.589925130208332
 20
-48.296449110243053
 30
0.0
 10
29.582345920138888
 20
-48.295415581597219
 30
0.0
 10
29.57476671006944
 20
-48.294726562499996
 30
0.0
 10
29.566842990451388
 20
-48.294037543402773
 30
0.0
 10
29.55926378038194
 20
-48.29334852430555
 30
0.0
 10
29.551684570312496
 20
-48.292314995659716
 30
0.0
 10
29.54376085069444
 20
-48.291625976562493
 30
0.0
 10
29.536181640624996
 20
-48.29093695746527
 30
0.0
 10
29.528602430555551
 20
-48.290247938368054
 30
0.0
 10
29.521023220486107
 20
-48.289558919270831
 30
0.0
 10
29.513444010416663
 20
-48.288525390624997
 30
0.0
 10
29.50620930989583
 20
-48.287836371527774
 30
0.0
 10
29.499319118923609
 20
-48.287147352430551
 30
0.0
 10
29.492084418402776
 20
-48.286458333333329
 30
0.0
 10
29.485194227430554
 20
-48.285769314236106
 30
0.0
 10
29.477959526909718
 20
-48.285080295138883
 30
0.0
 10
29.471069335937496
 20
-48.28439127604166
 30
0.0
 10
29.463834635416664
 20
-48.283702256944437
 30
0.0
 10
29.456944444444442
 20
-48.283013237847214
 30
0.0
 10
29.449709743923609
 20
-48.282324218749999
 30
0.0
 10
29.442819552951388
 20
-48.281979709201387
 30
0.0
 10
29.435584852430551
 20
-48.280946180555553
 30
0.0
 10
29.42869466145833
 20
-48.280601671006941
 30
0.0
 10
29.421804470486109
 20
-48.279912651909719
 30
0.0
 10
29.414569769965276
 20
-48.279223632812496
 30
0.0
 10
29.407679578993054
 20
-48.278534613715273
 30
0.0
 10
29.400444878472218
 20
-48.27784559461805
 30
0.0
 10
29.393554687499996
 20
-48.277156575520827
 30
0.0
 10
29.386319986979164
 20
-48.276467556423604
 30
0.0
 10
29.379429796006942
 20
-48.275778537326381
 30
0.0
 10
29.372195095486109
 20
-48.275089518229166
 30
0.0
 10
29.365304904513888
 20
-48.274745008680554
 30
0.0
 10
29.358070203993051
 20
-48.274055989583331
 30
0.0
 10
29.35118001302083
 20
-48.273366970486109
 30
0.0
 10
29.343945312499997
 20
-48.272677951388886
 30
0.0
 10
29.337055121527776
 20
-48.271988932291663
 30
0.0
 10
29.329820421006943
 20
-48.27129991319444
 30
0.0
 10
29.322930230034718
 20
-48.270610894097217
 30
0.0
 10
29.315695529513885
 20
-48.270266384548606
 30
0.0
 10
29.308805338541664
 20
-48.269577365451383
 30
0.0
 10
29.301915147569442
 20
-48.26888834635416
 30
0.0
 10
29.294680447048609
 20
-48.268199327256937
 30
0.0
 10
29.287790256076388
 20
-48.267510308159714
 30
0.0
 10
29.280555555555551
 20
-48.26716579861111
 30
0.0
 10
29.27366536458333
 20
-48.266476779513887
 30
0.0
 10
29.266430664062497
 20
-48.265787760416664
 30
0.0
 10
29.259540473090276
 20
-48.265098741319441
 30
0.0
 10
29.252305772569443
 20
-48.264409722222219
 30
0.0
 10
29.245415581597218
 20
-48.264065212673607
 30
0.0
 10
29.238180881076385
 20
-48.263376193576384
 30
0.0
 10
29.231290690104164
 20
-48.262687174479161
 30
0.0
 10
29.224055989583331
 20
-48.261998155381939
 30
0.0
 10
29.217165798611109
 20
-48.261653645833327
 30
0.0
 10
29.209931098090276
 20
-48.260964626736104
 30
0.0
 10
29.203040907118051
 20
-48.260275607638881
 30
0.0
 10
29.195806206597219
 20
-48.25993109809027
 30
0.0
 10
29.188916015624997
 20
-48.259242078993054
 30
0.0
 10
29.181681315104164
 20
-48.258553059895831
 30
0.0
 10
29.174791124131943
 20
-48.257864040798609
 30
0.0
 10
29.16755642361111
 20
-48.257519531249997
 30
0.0
 10
29.159977213541666
 20
-48.256830512152774
 30
0.0
 10
29.152742513020829
 20
-48.256141493055551
 30
0.0
 10
29.145163302951385
 20
-48.255452473958329
 30
0.0
 10
29.137928602430552
 20
-48.255107964409717
 30
0.0
 10
29.130349392361108
 20
-48.254418945312494
 30
0.0
 10
29.123114691840275
 20
-48.253729926215271
 30
0.0
 10
29.115879991319442
 20
-48.25338541666666
 30
0.0
 10
29.108300781249998
 20
-48.252696397569437
 30
0.0
 10
29.101066080729165
 20
-48.252007378472214
 30
0.0
 10
29.093831380208332
 20
-48.251318359374999
 30
0.0
 10
29.086252170138888
 20
-48.250973849826387
 30
0.0
 10
29.079017469618051
 20
-48.250284830729164
 30
0.0
 10
29.071438259548607
 20
-48.249940321180553
 30
0.0
 10
29.064203559027774
 20
-48.24925130208333
 30
0.0
 10
29.05662434895833
 20
-48.248562282986107
 30
0.0
 10
29.049389648437497
 20
-48.248217773437496
 30
0.0
 10
29.042154947916664
 20
-48.247528754340273
 30
0.0
 10
29.03457573784722
 20
-48.24683973524305
 30
0.0
 10
29.027341037326387
 20
-48.246495225694439
 30
0.0
 10
29.019761827256943
 20
-48.245806206597216
 30
0.0
 10
29.01252712673611
 20
-48.245117187499993
 30
0.0
 10
29.004947916666666
 20
-48.244772677951381
 30
0.0
 10
28.997713216145829
 20
-48.244083658854166
 30
0.0
 10
28.990478515624996
 20
-48.243739149305554
 30
0.0
 10
28.982899305555552
 20
-48.243050130208331
 30
0.0
 10
28.975664605034719
 20
-48.242361111111109
 30
0.0
 10
28.968429904513886
 20
-48.242016601562497
 30
0.0
 10
28.960850694444442
 20
-48.241327582465274
 30
0.0
 10
28.953615993923609
 20
-48.240983072916663
 30
0.0
 10
28.946036783854165
 20
-48.24029405381944
 30
0.0
 10
28.938802083333332
 20
-48.239949544270829
 30
0.0
 10
28.931222873263888
 20
-48.239260525173606
 30
0.0
 10
28.923988172743051
 20
-48.238916015624994
 30
0.0
 10
28.916753472222219
 20
-48.238226996527771
 30
0.0
 10
28.909174262152774
 20
-48.23788248697916
 30
0.0
 10
28.901939561631941
 20
-48.237193467881937
 30
0.0
 10
28.894360351562497
 20
-48.236848958333326
 30
0.0
 10
28.887125651041664
 20
-48.23615993923611
 30
0.0
 10
28.879890950520831
 20
-48.235815429687499
 30
0.0
 10
28.872311740451387
 20
-48.235126410590276
 30
0.0
 10
28.865077039930554
 20
-48.234781901041664
 30
0.0
 10
28.85749782986111
 20
-48.234092881944441
 30
0.0
 10
28.850263129340274
 20
-48.23374837239583
 30
0.0
 10
28.842683919270829
 20
-48.233059353298607
 30
0.0
 10
28.835449218749996
 20
-48.232714843749996
 30
0.0
 10
28.828214518229164
 20
-48.232370334201384
 30
0.0
 10
28.820635308159719
 20
-48.231681315104161
 30
0.0
 10
28.813745117187498
 20
-48.23133680555555
 30
0.0
 10
28.806510416666665
 20
-48.230647786458327
 30
0.0
 10
28.799620225694444
 20
-48.230303276909716
 30
0.0
 10
28.792385525173607
 20
-48.229958767361104
 30
0.0
 10
28.785495334201386
 20
-48.229269748263881
 30
0.0
 10
28.778260633680553
 20
-48.22892523871527
 30
0.0
 10
28.771370442708331
 20
-48.228580729166666
 30
0.0
 10
28.764135742187499
 20
-48.228236219618054
 30
0.0
 10
28.757245551215274
 20
-48.227547200520831
 30
0.0
 10
28.750010850694441
 20
-48.22720269097222
 30
0.0
 10
28.742776150173608
 20
-48.226858181423609
 30
0.0
 10
28.735885959201386
 20
-48.226169162326386
 30
0.0
 10
28.728651258680554
 20
-48.225824652777774
 30
0.0
 10
28.721761067708332
 20
-48.225480143229163
 30
0.0
 10
28.714870876736107
 20
-48.22479112413194
 30
0.0
 10
28.707636176215274
 20
-48.224446614583329
 30
0.0
 10
28.700745985243053
 20
-48.224102105034717
 30
0.0
 10
28.69351128472222
 20
-48.223757595486106
 30
0.0
 10
28.686621093749999
 20
-48.223068576388883
 30
0.0
 10
28.679386393229166
 20
-48.222724066840271
 30
0.0
 10
28.672496202256941
 20
-48.22237955729166
 30
0.0
 10
28.665261501736108
 20
-48.222035047743049
 30
0.0
 10
28.658371310763886
 20
-48.221346028645826
 30
0.0
 10
28.651136610243054
 20
-48.221001519097214
 30
0.0
 10
28.643557400173609
 20
-48.22065700954861
 30
0.0
 10
28.635633680555554
 20
-48.220312499999999
 30
0.0
 10
28.628054470486109
 20
-48.219623480902776
 30
0.0
 10
28.620475260416665
 20
-48.219278971354164
 30
0.0
 10
28.612551540798609
 20
-48.218934461805553
 30
0.0
 10
28.604972330729165
 20
-48.218589952256941
 30
0.0
 10
28.597048611111109
 20
-48.217900933159719
 30
0.0
 10
28.589469401041665
 20
-48.217556423611107
 30
0.0
 10
28.581890190972221
 20
-48.217211914062496
 30
0.0
 10
28.574310980902776
 20
-48.216522894965273
 30
0.0
 10
28.566387261284721
 20
-48.216178385416661
 30
0.0
 10
28.558808051215276
 20
-48.21583387586805
 30
0.0
 10
28.550884331597221
 20
-48.215489366319439
 30
0.0
 10
28.543305121527776
 20
-48.215144856770827
 30
0.0
 10
28.535725911458332
 20
-48.214455837673604
 30
0.0
 10
28.527802191840276
 20
-48.214111328124993
 30
0.0
 10
28.520222981770832
 20
-48.213766818576381
 30
0.0
 10
28.512643771701388
 20
-48.21342230902777
 30
0.0
 10
28.504720052083332
 20
-48.212733289930554
 30
0.0
 10
28.497140842013888
 20
-48.212388780381943
 30
0.0
 10
28.489217122395832
 20
-48.212044270833331
 30
0.0
 10
28.481637912326388
 20
-48.21169976128472
 30
0.0
 10
28.474058702256944
 20
-48.211355251736109
 30
0.0
 10
28.466134982638888
 20
-48.211010742187497
 30
0.0
 10
28.458900282118051
 20
-48.210666232638886
 30
0.0
 10
28.451321072048607
 20
-48.210321723090274
 30
0.0
 10
28.444086371527774
 20
-48.209977213541663
 30
0.0
 10
28.436851671006941
 20
-48.20928819444444
 30
0.0
 10
28.429272460937497
 20
-48.208943684895829
 30
0.0
 10
28.422037760416664
 20
-48.208599175347217
 30
0.0
 10
28.41445855034722
 20
-48.208254665798606
 30
0.0
 10
28.407223849826387
 20
-48.207910156249994
 30
0.0
 10
28.399989149305554
 20
-48.207565646701383
 30
0.0
 10
28.39240993923611
 20
-48.207221137152771
 30
0.0
 10
28.385175238715274
 20
-48.20687662760416
 30
0.0
 10
28.377596028645829
 20
-48.206532118055549
 30
0.0
 10
28.370361328124996
 20
-48.206187608506937
 30
0.0
 10
28.362782118055552
 20
-48.205843098958326
 30
0.0
 10
28.355547417534719
 20
-48.205498589409714
 30
0.0
 10
28.347968207465275
 20
-48.20515407986111
 30
0.0
 10
28.340733506944442
 20
-48.204809570312499
 30
0.0
 10
28.333154296874998
 20
-48.204465060763887
 30
0.0
 10
28.325919596354165
 20
-48.204120551215276
 30
0.0
 10
28.318684895833332
 20
-48.203776041666664
 30
0.0
 10
28.311105685763888
 20
-48.203431532118053
 30
0.0
 10
28.303870985243051
 20
-48.203087022569441
 30
0.0
 10
28.296291775173607
 20
-48.20274251302083
 30
0.0
 10
28.289057074652774
 20
-48.20274251302083
 30
0.0
 10
28.28147786458333
 20
-48.202398003472219
 30
0.0
 10
28.274243164062497
 20
-48.202053493923607
 30
0.0
 10
28.266663953993053
 20
-48.201708984374996
 30
0.0
 10
28.25942925347222
 20
-48.201364474826384
 30
0.0
 10
28.251850043402776
 20
-48.201019965277773
 30
0.0
 10
28.244615342881943
 20
-48.200675455729161
 30
0.0
 10
28.23738064236111
 20
-48.20033094618055
 30
0.0
 10
28.229801432291666
 20
-48.199986436631939
 30
0.0
 10
28.222566731770829
 20
-48.199986436631939
 30
0.0
 10
28.214987521701385
 20
-48.199641927083327
 30
0.0
 10
28.207752821180552
 20
-48.199297417534716
 30
0.0
 10
28.200173611111108
 20
-48.198952907986104
 30
0.0
 10
28.192938910590275
 20
-48.198608398437493
 30
0.0
 10
28.185704210069442
 20
-48.198263888888881
 30
0.0
 10
28.178124999999998
 20
-48.19791937934027
 30
0.0
 10
28.170545789930554
 20
-48.19791937934027
 30
0.0
 10
28.163311089409721
 20
-48.197574869791666
 30
0.0
 10
28.156076388888888
 20
-48.197230360243054
 30
0.0
 10
28.148497178819444
 20
-48.196885850694443
 30
0.0
 10
28.141262478298607
 20
-48.196885850694443
 30
0.0
 10
28.133683268229163
 20
-48.196541341145831
 30
0.0
 10
28.12644856770833
 20
-48.19619683159722
 30
0.0
 10
28.118869357638886
 20
-48.195852322048609
 30
0.0
 10
28.111634657118053
 20
-48.195507812499997
 30
0.0
 10
28.104055447048609
 20
-48.195507812499997
 30
0.0
 10
28.096476236979164
 20
-48.195163302951386
 30
0.0
 10
28.089241536458331
 20
-48.194818793402774
 30
0.0
 10
28.081662326388887
 20
-48.194474283854163
 30
0.0
 10
28.074083116319443
 20
-48.194474283854163
 30
0.0
 10
28.066503906249999
 20
-48.194129774305551
 30
0.0
 10
28.058924696180554
 20
-48.19378526475694
 30
0.0
 10
28.051689995659721
 20
-48.193440755208329
 30
0.0
 10
28.044110785590274
 20
-48.193440755208329
 30
0.0
 10
28.036531575520829
 20
-48.193096245659717
 30
0.0
 10
28.028952365451385
 20
-48.192751736111106
 30
0.0
 10
28.021717664930552
 20
-48.192751736111106
 30
0.0
 10
28.014138454861108
 20
-48.192407226562494
 30
0.0
 10
28.006559244791664
 20
-48.192062717013883
 30
0.0
 10
27.998980034722219
 20
-48.192062717013883
 30
0.0
 10
27.991745334201386
 20
-48.191718207465271
 30
0.0
 10
27.984166124131942
 20
-48.19137369791666
 30
0.0
 10
27.976586914062498
 20
-48.19137369791666
 30
0.0
 10
27.969007703993054
 20
-48.191029188368049
 30
0.0
 10
27.961428493923609
 20
-48.190684678819437
 30
0.0
 10
27.954193793402776
 20
-48.190684678819437
 30
0.0
 10
27.946614583333332
 20
-48.190340169270826
 30
0.0
 10
27.939035373263888
 20
-48.189995659722214
 30
0.0
 10
27.931456163194444
 20
-48.189995659722214
 30
0.0
 10
27.924221462673607
 20
-48.18965115017361
 30
0.0
 10
27.916642252604163
 20
-48.18965115017361
 30
0.0
 10
27.909063042534719
 20
-48.189306640624999
 30
0.0
 10
27.901483832465274
 20
-48.189306640624999
 30
0.0
 10
27.894249131944441
 20
-48.188962131076387
 30
0.0
 10
27.886669921874997
 20
-48.188617621527776
 30
0.0
 10
27.879090711805553
 20
-48.188617621527776
 30
0.0
 10
27.871511501736109
 20
-48.188273111979164
 30
0.0
 10
27.863932291666664
 20
-48.188273111979164
 30
0.0
 10
27.856697591145831
 20
-48.187928602430553
 30
0.0
 10
27.849118381076387
 20
-48.187928602430553
 30
0.0
 10
27.841539171006943
 20
-48.187584092881941
 30
0.0
 10
27.833959960937499
 20
-48.187584092881941
 30
0.0
 10
27.826725260416666
 20
-48.18723958333333
 30
0.0
 10
27.819146050347221
 20
-48.18723958333333
 30
0.0
 10
27.811566840277774
 20
-48.186895073784719
 30
0.0
 10
27.803987630208329
 20
-48.186550564236107
 30
0.0
 10
27.796408420138885
 20
-48.186550564236107
 30
0.0
 10
27.789173719618052
 20
-48.186550564236107
 30
0.0
 10
27.781594509548608
 20
-48.186206054687496
 30
0.0
 10
27.774015299479164
 20
-48.186206054687496
 30
0.0
 10
27.766436089409719
 20
-48.185861545138884
 30
0.0
 10
27.759201388888886
 20
-48.185861545138884
 30
0.0
 10
27.751622178819442
 20
-48.185517035590273
 30
0.0
 10
27.744042968749998
 20
-48.185517035590273
 30
0.0
 10
27.736463758680554
 20
-48.185172526041661
 30
0.0
 10
27.729229058159721
 20
-48.185172526041661
 30
0.0
 10
27.721649848090276
 20
-48.185172526041661
 30
0.0
 10
27.714070638020832
 20
-48.18482801649305
 30
0.0
 10
27.706491427951388
 20
-48.18482801649305
 30
0.0
 10
27.698912217881944
 20
-48.184483506944439
 30
0.0
 10
27.691677517361107
 20
-48.184483506944439
 30
0.0
 10
27.684098307291663
 20
-48.184483506944439
 30
0.0
 10
27.676519097222219
 20
-48.184138997395827
 30
0.0
 10
27.668939887152774
 20
-48.184138997395827
 30
0.0
 10
27.661705186631941
 20
-48.183794487847216
 30
0.0
 10
27.646546766493053
 20
-48.183794487847216
 30
0.0
 10
27.631732855902776
 20
-48.183449978298604
 30
0.0
 10
27.616574435763887
 20
-48.183105468749993
 30
0.0
 10
27.601416015624999
 20
-48.183105468749993
 30
0.0
 10
27.586602105034721
 20
-48.182760959201381
 30
0.0
 10
27.571443684895829
 20
-48.182760959201381
 30
0.0
  0
SPLINE
  5
C4
100
AcDbEntity
  8
0
 62
     7
100
AcDbSpline
210
0.0
220
0.0
230
1.0
 70
     8
 71
     3
 72
  1001
 73
   997
 74
     0
 42
0.00000001
 43
0.00000001
 40
0.0
 40
0.0
 40
0.0
 40
0.0
 40
1.0
 40
1.0
 40
1.0
 40
2.0
 40
2.0
 40
2.0
 40
3.0
 40
3.0
 40
3.0
 40
4.0
 40
4.0
 40
4.0
 40
5.0
 40
5.0
 40
5.0
 40
6.0
 40
6.0
 40
6.0
 40
7.0
 40
7.0
 40
7.0
 40
8.0
 40
8.0
 40
8.0
 40
9.0
 40
9.0
 40
9.0
 40
10.0
 40
10.0
 40
10.0
 40
11.0
 40
11.0
 40
11.0
 40
12.0
 40
12.0
 40
12.0
 40
13.0
 40
13.0
 40
13.0
 40
14.0
 40
14.0
 40
14.0
 40
15.0
 40
15.0
 40
15.0
 40
16.0
 40
16.0
 40
16.0
 40
17.0
 40
17.0
 40
17.0
 40
18.0
 40
18.0
 40
18.0
 40
19.0
 40
19.0
 40
19.0
 40
20.0
 40
20.0
 40
20.0
 40
21.0
 40
21.0
 40
21.0
 40
22.0
 40
22.0
 40
22.0
 40
23.0
 40
23.0
 40
23.0
 40
24.0
 40
24.0
 40
24.0
 40
25.0
 40
25.0
 40
25.0
 40
26.0
 40
26.0
 40
26.0
 40
27.0
 40
27.0
 40
27.0
 40
28.0
 40
28.0
 40
28.0
 40
29.0
 40
29.0
 40
29.0
 40
30.0
 40
30.0
 40
30.0
 40
31.0
 40
31.0
 40
31.0
 40
32.0
 40
32.0
 40
32.0
 40
33.0
 40
33.0
 40
33.0
 40
34.0
 40
34.0
 40
34.0
 40
35.0
 40
35.0
 40
35.0
 40
36.0
 40
36.0
 40
36.0
 40
37.0
 40
37.0
 40
37.0
 40
38.0
 40
38.0
 40
38.0
 40
39.0
 40
39.0
 40
39.0
 40
40.0
 40
40.0
 40
40.0
 40
41.0
 40
41.0
 40
41.0
 40
42.0
 40
42.0
 40
42.0
 40
43.0
 40
43.0
 40
43.0
 40
44.0
 40
44.0
 40
44.0
 40
45.0
 40
45.0
 40
45.0
 40
46.0
 40
46.0
 40
46.0
 40
47.0
 40
47.0
 40
47.0
 40
48.0
 40
48.0
 40
48.0
 40
49.0
 40
49.0
 40
49.0
 40
50.0
 40
50.0
 40
50.0
 40
51.0
 40
51.0
 40
51.0
 40
52.0
 40
52.0
 40
52.0
 40
53.0
 40
53.0
 40
53.0
 40
54.0
 40
54.0
 40
54.0
 40
55.0
 40
55.0
 40
55.0
 40
56.0
 40
56.0
 40
56.0
 40
57.0
 40
57.0
 40
57.0
 40
58.0
 40
58.0
 40
58.0
 40
59.0
 40
59.0
 40
59.0
 40
60.0
 40
60.0
 40
60.0
 40
61.0
 40
61.0
 40
61.0
 40
62.0
 40
62.0
 40
62.0
 40
63.0
 40
63.0
 40
63.0
 40
64.0
 40
64.0
 40
64.0
 40
65.0
 40
65.0
 40
65.0
 40
66.0
 40
66.0
 40
66.0
 40
67.0
 40
67.0
 40
67.0
 40
68.0
 40
68.0
 40
68.0
 40
69.0
 40
69.0
 40
69.0
 40
70.0
 40
70.0
 40
70.0
 40
71.0
 40
71.0
 40
71.0
 40
72.0
 40
72.0
 40
72.0
 40
73.0
 40
73.0
 40
73.0
 40
74.0
 40
74.0
 40
74.0
 40
75.0
 40
75.0
 40
75.0
 40
76.0
 40
76.0
 40
76.0
 40
77.0
 40
77.0
 40
77.0
 40
78.0
 40
78.0
 40
78.0
 40
79.0
 40
79.0
 40
79.0
 40
80.0
 40
80.0
 40
80.0
 40
81.0
 40
81.0
 40
81.0
 40
82.0
 40
82.0
 40
82.0
 40
83.0
 40
83.0
 40
83.0
 40
84.0
 40
84.0
 40
84.0
 40
85.0
 40
85.0
 40
85.0
 40
86.0
 40
86.0
 40
86.0
 40
87.0
 40
87.0
 40
87.0
 40
88.0
 40
88.0
 40
88.0
 40
89.0
 40
89.0
 40
89.0
 40
90.0
 40
90.0
 40
90.0
 40
91.0
 40
91.0
 40
91.0
 40
92.0
 40
92.0
 40
92.0
 40
93.0
 40
93.0
 40
93.0
 40
94.0
 40
94.0
 40
94.0
 40
95.0
 40
95.0
 40
95.0
 40
96.0
 40
96.0
 40
96.0
 40
97.0
 40
97.0
 40
97.0
 40
98.0
 40
98.0
 40
98.0
 40
99.0
 40
99.0
 40
99.0
 40
100.0
 40
100.0
 40
100.0
 40
101.0
 40
101.0
 40
101.0
 40
102.0
 40
102.0
 40
102.0
 40
103.0
 40
103.0
 40
103.0
 40
104.0
 40
104.0
 40
104.0
 40
105.0
 40
105.0
 40
105.0
 40
106.0
 40
106.0
 40
106.0
 40
107.0
 40
107.0
 40
107.0
 40
108.0
 40
108.0
 40
108.0
 40
109.0
 40
109.0
 40
109.0
 40
110.0
 40
110.0
 40
110.0
 40
111.0
 40
111.0
 40
111.0
 40
112.0
 40
112.0
 40
112.0
 40
113.0
 40
113.0
 40
113.0
 40
114.0
 40
114.0
 40
114.0
 40
115.0
 40
115.0
 40
115.0
 40
116.0
 40
116.0
 40
116.0
 40
117.0
 40
117.0
 40
117.0
 40
118.0
 40
118.0
 40
118.0
 40
119.0
 40
119.0
 40
119.0
 40
120.0
 40
120.0
 40
120.0
 40
121.0
 40
121.0
 40
121.0
 40
122.0
 40
122.0
 40
122.0
 40
123.0
 40
123.0
 40
123.0
 40
124.0
 40
124.0
 40
124.0
 40
125.0
 40
125.0
 40
125.0
 40
126.0
 40
126.0
 40
126.0
 40
127.0
 40
127.0
 40
127.0
 40
128.0
 40
128.0
 40
128.0
 40
129.0
 40
129.0
 40
129.0
 40
130.0
 40
130.0
 40
130.0
 40
131.0
 40
131.0
 40
131.0
 40
132.0
 40
132.0
 40
132.0
 40
133.0
 40
133.0
 40
133.0
 40
134.0
 40
134.0
 40
134.0
 40
135.0
 40
135.0
 40
135.0
 40
136.0
 40
136.0
 40
136.0
 40
137.0
 40
137.0
 40
137.0
 40
138.0
 40
138.0
 40
138.0
 40
139.0
 40
139.0
 40
139.0
 40
140.0
 40
140.0
 40
140.0
 40
141.0
 40
141.0
 40
141.0
 40
142.0
 40
142.0
 40
142.0
 40
143.0
 40
143.0
 40
143.0
 40
144.0
 40
144.0
 40
144.0
 40
145.0
 40
145.0
 40
145.0
 40
146.0
 40
146.0
 40
146.0
 40
147.0
 40
147.0
 40
147.0
 40
148.0
 40
148.0
 40
148.0
 40
149.0
 40
149.0
 40
149.0
 40
150.0
 40
150.0
 40
150.0
 40
151.0
 40
151.0
 40
151.0
 40
152.0
 40
152.0
 40
152.0
 40
153.0
 40
153.0
 40
153.0
 40
154.0
 40
154.0
 40
154.0
 40
155.0
 40
155.0
 40
155.0
 40
156.0
 40
156.0
 40
156.0
 40
157.0
 40
157.0
 40
157.0
 40
158.0
 40
158.0
 40
158.0
 40
159.0
 40
159.0
 40
159.0
 40
160.0
 40
160.0
 40
160.0
 40
161.0
 40
161.0
 40
161.0
 40
162.0
 40
162.0
 40
162.0
 40
163.0
 40
163.0
 40
163.0
 40
164.0
 40
164.0
 40
164.0
 40
165.0
 40
165.0
 40
165.0
 40
166.0
 40
166.0
 40
166.0
 40
167.0
 40
167.0
 40
167.0
 40
168.0
 40
168.0
 40
168.0
 40
169.0
 40
169.0
 40
169.0
 40
170.0
 40
170.0
 40
170.0
 40
171.0
 40
171.0
 40
171.0
 40
172.0
 40
172.0
 40
172.0
 40
173.0
 40
173.0
 40
173.0
 40
174.0
 40
174.0
 40
174.0
 40
175.0
 40
175.0
 40
175.0
 40
176.0
 40
176.0
 40
176.0
 40
177.0
 40
177.0
 40
177.0
 40
178.0
 40
178.0
 40
178.0
 40
179.0
 40
179.0
 40
179.0
 40
180.0
 40
180.0
 40
180.0
 40
181.0
 40
181.0
 40
181.0
 40
182.0
 40
182.0
 40
182.0
 40
183.0
 40
183.0
 40
183.0
 40
184.0
 40
184.0
 40
184.0
 40
185.0
 40
185.0
 40
185.0
 40
186.0
 40
186.0
 40
186.0
 40
187.0
 40
187.0
 40
187.0
 40
188.0
 40
188.0
 40
188.0
 40
189.0
 40
189.0
 40
189.0
 40
190.0
 40
190.0
 40
190.0
 40
191.0
 40
191.0
 40
191.0
 40
192.0
 40
192.0
 40
192.0
 40
193.0
 40
193.0
 40
193.0
 40
194.0
 40
194.0
 40
194.0
 40
195.0
 40
195.0
 40
195.0
 40
196.0
 40
196.0
 40
196.0
 40
197.0
 40
197.0
 40
197.0
 40
198.0
 40
198.0
 40
198.0
 40
199.0
 40
199.0
 40
199.0
 40
200.0
 40
200.0
 40
200.0
 40
201.0
 40
201.0
 40
201.0
 40
202.0
 40
202.0
 40
202.0
 40
203.0
 40
203.0
 40
203.0
 40
204.0
 40
204.0
 40
204.0
 40
205.0
 40
205.0
 40
205.0
 40
206.0
 40
206.0
 40
206.0
 40
207.0
 40
207.0
 40
207.0
 40
208.0
 40
208.0
 40
208.0
 40
209.0
 40
209.0
 40
209.0
 40
210.0
 40
210.0
 40
210.0
 40
211.0
 40
211.0
 40
211.0
 40
212.0
 40
212.0
 40
212.0
 40
213.0
 40
213.0
 40
213.0
 40
214.0
 40
214.0
 40
214.0
 40
215.0
 40
215.0
 40
215.0
 40
216.0
 40
216.0
 40
216.0
 40
217.0
 40
217.0
 40
217.0
 40
218.0
 40
218.0
 40
218.0
 40
219.0
 40
219.0
 40
219.0
 40
220.0
 40
220.0
 40
220.0
 40
221.0
 40
221.0
 40
221.0
 40
222.0
 40
222.0
 40
222.0
 40
223.0
 40
223.0
 40
223.0
 40
224.0
 40
224.0
 40
224.0
 40
225.0
 40
225.0
 40
225.0
 40
226.0
 40
226.0
 40
226.0
 40
227.0
 40
227.0
 40
227.0
 40
228.0
 40
228.0
 40
228.0
 40
229.0
 40
229.0
 40
229.0
 40
230.0
 40
230.0
 40
230.0
 40
231.0
 40
231.0
 40
231.0
 40
232.0
 40
232.0
 40
232.0
 40
233.0
 40
233.0
 40
233.0
 40
234.0
 40
234.0
 40
234.0
 40
235.0
 40
235.0
 40
235.0
 40
236.0
 40
236.0
 40
236.0
 40
237.0
 40
237.0
 40
237.0
 40
238.0
 40
238.0
 40
238.0
 40
239.0
 40
239.0
 40
239.0
 40
240.0
 40
240.0
 40
240.0
 40
241.0
 40
241.0
 40
241.0
 40
242.0
 40
242.0
 40
242.0
 40
243.0
 40
243.0
 40
243.0
 40
244.0
 40
244.0
 40
244.0
 40
245.0
 40
245.0
 40
245.0
 40
246.0
 40
246.0
 40
246.0
 40
247.0
 40
247.0
 40
247.0
 40
248.0
 40
248.0
 40
248.0
 40
249.0
 40
249.0
 40
249.0
 40
250.0
 40
250.0
 40
250.0
 40
251.0
 40
251.0
 40
251.0
 40
252.0
 40
252.0
 40
252.0
 40
253.0
 40
253.0
 40
253.0
 40
254.0
 40
254.0
 40
254.0
 40
255.0
 40
255.0
 40
255.0
 40
256.0
 40
256.0
 40
256.0
 40
257.0
 40
257.0
 40
257.0
 40
258.0
 40
258.0
 40
258.0
 40
259.0
 40
259.0
 40
259.0
 40
260.0
 40
260.0
 40
260.0
 40
261.0
 40
261.0
 40
261.0
 40
262.0
 40
262.0
 40
262.0
 40
263.0
 40
263.0
 40
263.0
 40
264.0
 40
264.0
 40
264.0
 40
265.0
 40
265.0
 40
265.0
 40
266.0
 40
266.0
 40
266.0
 40
267.0
 40
267.0
 40
267.0
 40
268.0
 40
268.0
 40
268.0
 40
269.0
 40
269.0
 40
269.0
 40
270.0
 40
270.0
 40
270.0
 40
271.0
 40
271.0
 40
271.0
 40
272.0
 40
272.0
 40
272.0
 40
273.0
 40
273.0
 40
273.0
 40
274.0
 40
274.0
 40
274.0
 40
275.0
 40
275.0
 40
275.0
 40
276.0
 40
276.0
 40
276.0
 40
277.0
 40
277.0
 40
277.0
 40
278.0
 40
278.0
 40
278.0
 40
279.0
 40
279.0
 40
279.0
 40
280.0
 40
280.0
 40
280.0
 40
281.0
 40
281.0
 40
281.0
 40
282.0
 40
282.0
 40
282.0
 40
283.0
 40
283.0
 40
283.0
 40
284.0
 40
284.0
 40
284.0
 40
285.0
 40
285.0
 40
285.0
 40
286.0
 40
286.0
 40
286.0
 40
287.0
 40
287.0
 40
287.0
 40
288.0
 40
288.0
 40
288.0
 40
289.0
 40
289.0
 40
289.0
 40
290.0
 40
290.0
 40
290.0
 40
291.0
 40
291.0
 40
291.0
 40
292.0
 40
292.0
 40
292.0
 40
293.0
 40
293.0
 40
293.0
 40
294.0
 40
294.0
 40
294.0
 40
295.0
 40
295.0
 40
295.0
 40
296.0
 40
296.0
 40
296.0
 40
297.0
 40
297.0
 40
297.0
 40
298.0
 40
298.0
 40
298.0
 40
299.0
 40
299.0
 40
299.0
 40
300.0
 40
300.0
 40
300.0
 40
301.0
 40
301.0
 40
301.0
 40
302.0
 40
302.0
 40
302.0
 40
303.0
 40
303.0
 40
303.0
 40
304.0
 40
304.0
 40
304.0
 40
305.0
 40
305.0
 40
305.0
 40
306.0
 40
306.0
 40
306.0
 40
307.0
 40
307.0
 40
307.0
 40
308.0
 40
308.0
 40
308.0
 40
309.0
 40
309.0
 40
309.0
 40
310.0
 40
310.0
 40
310.0
 40
311.0
 40
311.0
 40
311.0
 40
312.0
 40
312.0
 40
312.0
 40
313.0
 40
313.0
 40
313.0
 40
314.0
 40
314.0
 40
314.0
 40
315.0
 40
315.0
 40
315.0
 40
316.0
 40
316.0
 40
316.0
 40
317.0
 40
317.0
 40
317.0
 40
318.0
 40
318.0
 40
318.0
 40
319.0
 40
319.0
 40
319.0
 40
320.0
 40
320.0
 40
320.0
 40
321.0
 40
321.0
 40
321.0
 40
322.0
 40
322.0
 40
322.0
 40
323.0
 40
323.0
 40
323.0
 40
324.0
 40
324.0
 40
324.0
 40
325.0
 40
325.0
 40
325.0
 40
326.0
 40
326.0
 40
326.0
 40
327.0
 40
327.0
 40
327.0
 40
328.0
 40
328.0
 40
328.0
 40
329.0
 40
329.0
 40
329.0
 40
330.0
 40
330.0
 40
330.0
 40
331.0
 40
331.0
 40
331.0
 40
332.0
 40
332.0
 40
332.0
 40
332.0
 10
27.530102539062497
 20
-51.430107964409714
 30
0.0
 10
27.545260959201386
 20
-51.430452473958326
 30
0.0
 10
27.560074869791663
 20
-51.430452473958326
 30
0.0
 10
27.575233289930551
 20
-51.430796983506937
 30
0.0
 10
27.590047200520832
 20
-51.430796983506937
 30
0.0
 10
27.605205620659721
 20
-51.430796983506937
 30
0.0
 10
27.620019531249998
 20
-51.431141493055549
 30
0.0
 10
27.627598741319442
 20
-51.431141493055549
 30
0.0
 10
27.635177951388886
 20
-51.431141493055549
 30
0.0
 10
27.642757161458331
 20
-51.431141493055549
 30
0.0
 10
27.649991861979164
 20
-51.431141493055549
 30
0.0
 10
27.657571072048608
 20
-51.43148600260416
 30
0.0
 10
27.665150282118052
 20
-51.43148600260416
 30
0.0
 10
27.672729492187496
 20
-51.43148600260416
 30
0.0
 10
27.679964192708329
 20
-51.43148600260416
 30
0.0
 10
27.687543402777774
 20
-51.43148600260416
 30
0.0
 10
27.695122612847221
 20
-51.43148600260416
 30
0.0
 10
27.702701822916666
 20
-51.43148600260416
 30
0.0
 10
27.71028103298611
 20
-51.431830512152771
 30
0.0
 10
27.717515733506943
 20
-51.431830512152771
 30
0.0
 10
27.725094943576387
 20
-51.431830512152771
 30
0.0
 10
27.732674153645831
 20
-51.431830512152771
 30
0.0
 10
27.740253363715276
 20
-51.431830512152771
 30
0.0
 10
27.747488064236109
 20
-51.431830512152771
 30
0.0
 10
27.755067274305553
 20
-51.431830512152771
 30
0.0
 10
27.762646484374997
 20
-51.431830512152771
 30
0.0
 10
27.770225694444441
 20
-51.431830512152771
 30
0.0
 10
27.777804904513886
 20
-51.431830512152771
 30
0.0
 10
27.785039605034719
 20
-51.431830512152771
 30
0.0
 10
27.792618815104163
 20
-51.431830512152771
 30
0.0
 10
27.800198025173607
 20
-51.431830512152771
 30
0.0
 10
27.807777235243051
 20
-51.431830512152771
 30
0.0
 10
27.815011935763888
 20
-51.432175021701383
 30
0.0
 10
27.822591145833332
 20
-51.432175021701383
 30
0.0
 10
27.830170355902776
 20
-51.432175021701383
 30
0.0
 10
27.837749565972221
 20
-51.432175021701383
 30
0.0
 10
27.845328776041665
 20
-51.432175021701383
 30
0.0
 10
27.852563476562498
 20
-51.432175021701383
 30
0.0
 10
27.860142686631942
 20
-51.431830512152771
 30
0.0
 10
27.867721896701386
 20
-51.431830512152771
 30
0.0
 10
27.875301106770831
 20
-51.431830512152771
 30
0.0
 10
27.882535807291664
 20
-51.431830512152771
 30
0.0
 10
27.890115017361108
 20
-51.431830512152771
 30
0.0
 10
27.897694227430552
 20
-51.431830512152771
 30
0.0
 10
27.905273437499996
 20
-51.431830512152771
 30
0.0
 10
27.912508138020829
 20
-51.431830512152771
 30
0.0
 10
27.920087348090274
 20
-51.431830512152771
 30
0.0
 10
27.927666558159721
 20
-51.431830512152771
 30
0.0
 10
27.935245768229166
 20
-51.431830512152771
 30
0.0
 10
27.94282497829861
 20
-51.431830512152771
 30
0.0
 10
27.950059678819443
 20
-51.431830512152771
 30
0.0
 10
27.957638888888887
 20
-51.431830512152771
 30
0.0
 10
27.965218098958331
 20
-51.431830512152771
 30
0.0
 10
27.972797309027776
 20
-51.43148600260416
 30
0.0
 10
27.980032009548609
 20
-51.43148600260416
 30
0.0
 10
27.987611219618053
 20
-51.43148600260416
 30
0.0
 10
27.995190429687497
 20
-51.43148600260416
 30
0.0
 10
28.002769639756941
 20
-51.43148600260416
 30
0.0
 10
28.010348849826386
 20
-51.43148600260416
 30
0.0
 10
28.017583550347219
 20
-51.43148600260416
 30
0.0
 10
28.025162760416663
 20
-51.431141493055549
 30
0.0
 10
28.032741970486107
 20
-51.431141493055549
 30
0.0
 10
28.040321180555551
 20
-51.431141493055549
 30
0.0
 10
28.047555881076388
 20
-51.431141493055549
 30
0.0
 10
28.055135091145832
 20
-51.431141493055549
 30
0.0
 10
28.062714301215276
 20
-51.430796983506937
 30
0.0
 10
28.070293511284721
 20
-51.430796983506937
 30
0.0
 10
28.077528211805554
 20
-51.430796983506937
 30
0.0
 10
28.085107421874998
 20
-51.430796983506937
 30
0.0
 10
28.092342122395831
 20
-51.430796983506937
 30
0.0
 10
28.099921332465275
 20
-51.430452473958326
 30
0.0
 10
28.107156032986108
 20
-51.430452473958326
 30
0.0
 10
28.114735243055552
 20
-51.430452473958326
 30
0.0
 10
28.121969943576385
 20
-51.430452473958326
 30
0.0
 10
28.129549153645829
 20
-51.430107964409714
 30
0.0
 10
28.136783854166666
 20
-51.430107964409714
 30
0.0
 10
28.14436306423611
 20
-51.430107964409714
 30
0.0
 10
28.151597764756943
 20
-51.430107964409714
 30
0.0
 10
28.158832465277776
 20
-51.429763454861103
 30
0.0
 10
28.16641167534722
 20
-51.429763454861103
 30
0.0
 10
28.173646375868053
 20
-51.429763454861103
 30
0.0
 10
28.181225585937497
 20
-51.429418945312499
 30
0.0
 10
28.18846028645833
 20
-51.429418945312499
 30
0.0
 10
28.196039496527774
 20
-51.429418945312499
 30
0.0
 10
28.203274197048607
 20
-51.429074435763887
 30
0.0
 10
28.210853407118051
 20
-51.429074435763887
 30
0.0
 10
28.218088107638888
 20
-51.429074435763887
 30
0.0
 10
28.225667317708332
 20
-51.428729926215276
 30
0.0
 10
28.232902018229165
 20
-51.428729926215276
 30
0.0
 10
28.240481228298609
 20
-51.428729926215276
 30
0.0
 10
28.247715928819442
 20
-51.428385416666664
 30
0.0
 10
28.255295138888886
 20
-51.428385416666664
 30
0.0
 10
28.262529839409719
 20
-51.428040907118053
 30
0.0
 10
28.270109049479164
 20
-51.428040907118053
 30
0.0
 10
28.277343749999996
 20
-51.428040907118053
 30
0.0
 10
28.284578450520829
 20
-51.427696397569441
 30
0.0
 10
28.292157660590274
 20
-51.427696397569441
 30
0.0
 10
28.29939236111111
 20
-51.42735188802083
 30
0.0
 10
28.306971571180554
 20
-51.42735188802083
 30
0.0
 10
28.314206271701387
 20
-51.427007378472219
 30
0.0
 10
28.321785481770831
 20
-51.427007378472219
 30
0.0
 10
28.329020182291664
 20
-51.427007378472219
 30
0.0
 10
28.336599392361109
 20
-51.426662868923607
 30
0.0
 10
28.343834092881941
 20
-51.426662868923607
 30
0.0
 10
28.351413302951386
 20
-51.426318359374996
 30
0.0
 10
28.358648003472219
 20
-51.426318359374996
 30
0.0
 10
28.366227213541663
 20
-51.425973849826384
 30
0.0
 10
28.373461914062496
 20
-51.425973849826384
 30
0.0
 10
28.381041124131944
 20
-51.425629340277773
 30
0.0
 10
28.388275824652776
 20
-51.425629340277773
 30
0.0
 10
28.395510525173609
 20
-51.425284830729161
 30
0.0
 10
28.403089735243054
 20
-51.425284830729161
 30
0.0
 10
28.410324435763886
 20
-51.42494032118055
 30
0.0
 10
28.417903645833331
 20
-51.42494032118055
 30
0.0
 10
28.425138346354164
 20
-51.424595811631939
 30
0.0
 10
28.433062065972219
 20
-51.424595811631939
 30
0.0
 10
28.440641276041664
 20
-51.424251302083327
 30
0.0
 10
28.448220486111108
 20
-51.423906792534716
 30
0.0
 10
28.456144205729164
 20
-51.423906792534716
 30
0.0
 10
28.463723415798608
 20
-51.423562282986104
 30
0.0
 10
28.471647135416664
 20
-51.423562282986104
 30
0.0
 10
28.479226345486108
 20
-51.423217773437493
 30
0.0
 10
28.486805555555552
 20
-51.422873263888881
 30
0.0
 10
28.494729275173608
 20
-51.422873263888881
 30
0.0
 10
28.502308485243052
 20
-51.42252875434027
 30
0.0
 10
28.509887695312496
 20
-51.422184244791659
 30
0.0
 10
28.517811414930552
 20
-51.422184244791659
 30
0.0
 10
28.525390624999996
 20
-51.421839735243054
 30
0.0
 10
28.533314344618052
 20
-51.421495225694443
 30
0.0
 10
28.540893554687496
 20
-51.421495225694443
 30
0.0
 10
28.548472764756941
 20
-51.421150716145831
 30
0.0
 10
28.556396484374996
 20
-51.42080620659722
 30
0.0
 10
28.563975694444441
 20
-51.42080620659722
 30
0.0
 10
28.571554904513885
 20
-51.420461697048609
 30
0.0
 10
28.579478624131941
 20
-51.420117187499997
 30
0.0
 10
28.587057834201385
 20
-51.420117187499997
 30
0.0
 10
28.594981553819441
 20
-51.419772677951386
 30
0.0
 10
28.602560763888885
 20
-51.419428168402774
 30
0.0
 10
28.610139973958329
 20
-51.419083658854163
 30
0.0
 10
28.617374674479166
 20
-51.419083658854163
 30
0.0
 10
28.624264865451387
 20
-51.418739149305551
 30
0.0
 10
28.63149956597222
 20
-51.41839463975694
 30
0.0
 10
28.638734266493053
 20
-51.41839463975694
 30
0.0
 10
28.645624457465274
 20
-51.418050130208329
 30
0.0
 10
28.652859157986107
 20
-51.417705620659717
 30
0.0
 10
28.659749348958332
 20
-51.417361111111106
 30
0.0
 10
28.666984049479165
 20
-51.417361111111106
 30
0.0
 10
28.673874240451386
 20
-51.417016601562494
 30
0.0
 10
28.681108940972219
 20
-51.416672092013883
 30
0.0
 10
28.687999131944441
 20
-51.416327582465271
 30
0.0
 10
28.695233832465274
 20
-51.416327582465271
 30
0.0
 10
28.702124023437499
 20
-51.41598307291666
 30
0.0
 10
28.709358723958331
 20
-51.415638563368049
 30
0.0
 10
28.716248914930553
 20
-51.415294053819437
 30
0.0
 10
28.723483615451386
 20
-51.415294053819437
 30
0.0
 10
28.730718315972219
 20
-51.414949544270826
 30
0.0
 10
28.737608506944444
 20
-51.414605034722214
 30
0.0
 10
28.744843207465276
 20
-51.414260525173603
 30
0.0
 10
28.751733398437498
 20
-51.413916015624999
 30
0.0
 10
28.758968098958331
 20
-51.413916015624999
 30
0.0
 10
28.765858289930552
 20
-51.413571506076387
 30
0.0
 10
28.773092990451385
 20
-51.413226996527776
 30
0.0
 10
28.77998318142361
 20
-51.412882486979164
 30
0.0
 10
28.787562391493054
 20
-51.412537977430553
 30
0.0
 10
28.794797092013887
 20
-51.412193467881941
 30
0.0
 10
28.802376302083331
 20
-51.41184895833333
 30
0.0
 10
28.809611002604164
 20
-51.41184895833333
 30
0.0
 10
28.816845703124997
 20
-51.411504448784719
 30
0.0
 10
28.824424913194441
 20
-51.411159939236107
 30
0.0
 10
28.831659613715274
 20
-51.410815429687496
 30
0.0
 10
28.839238823784719
 20
-51.410470920138884
 30
0.0
 10
28.846473524305551
 20
-51.410126410590273
 30
0.0
 10
28.854052734374996
 20
-51.409781901041661
 30
0.0
 10
28.861287434895832
 20
-51.40943739149305
 30
0.0
 10
28.868522135416665
 20
-51.409092881944439
 30
0.0
 10
28.876101345486109
 20
-51.408748372395827
 30
0.0
 10
28.883336046006942
 20
-51.408403862847216
 30
0.0
 10
28.890915256076386
 20
-51.408059353298604
 30
0.0
 10
28.898149956597219
 20
-51.407714843749993
 30
0.0
 10
28.905729166666664
 20
-51.407370334201381
 30
0.0
 10
28.912963867187496
 20
-51.40702582465277
 30
0.0
 10
28.920543077256941
 20
-51.406681315104159
 30
0.0
 10
28.927777777777774
 20
-51.406336805555554
 30
0.0
 10
28.935356987847218
 20
-51.405992296006943
 30
0.0
 10
28.942591688368054
 20
-51.405647786458331
 30
0.0
 10
28.949826388888887
 20
-51.40530327690972
 30
0.0
 10
28.957405598958331
 20
-51.404958767361109
 30
0.0
 10
28.964640299479164
 20
-51.404614257812497
 30
0.0
 10
28.972219509548609
 20
-51.404269748263886
 30
0.0
 10
28.979454210069441
 20
-51.403925238715274
 30
0.0
 10
28.987033420138886
 20
-51.403580729166663
 30
0.0
 10
28.994268120659719
 20
-51.403236219618051
 30
0.0
 10
29.001847330729163
 20
-51.40289171006944
 30
0.0
 10
29.009082031249996
 20
-51.402547200520829
 30
0.0
 10
29.016661241319444
 20
-51.402202690972217
 30
0.0
 10
29.023895941840276
 20
-51.401513671874994
 30
0.0
 10
29.031130642361109
 20
-51.401169162326383
 30
0.0
 10
29.038709852430554
 20
-51.400824652777771
 30
0.0
 10
29.045944552951386
 20
-51.40048014322916
 30
0.0
 10
29.053523763020831
 20
-51.400135633680549
 30
0.0
 10
29.060758463541664
 20
-51.399791124131937
 30
0.0
 10
29.067993164062496
 20
-51.399446614583326
 30
0.0
 10
29.075572374131941
 20
-51.399102105034714
 30
0.0
 10
29.082807074652774
 20
-51.398413085937499
 30
0.0
 10
29.090386284722218
 20
-51.398068576388887
 30
0.0
 10
29.097620985243054
 20
-51.397724066840276
 30
0.0
 10
29.105200195312499
 20
-51.397379557291664
 30
0.0
 10
29.112434895833331
 20
-51.397035047743053
 30
0.0
 10
29.120014105902776
 20
-51.396690538194441
 30
0.0
 10
29.127248806423609
 20
-51.396001519097219
 30
0.0
 10
29.134483506944441
 20
-51.395657009548607
 30
0.0
 10
29.141718207465274
 20
-51.395312499999996
 30
0.0
 10
29.148952907986107
 20
-51.394967990451384
 30
0.0
 10
29.155843098958332
 20
-51.394623480902773
 30
0.0
 10
29.163077799479165
 20
-51.39393446180555
 30
0.0
 10
29.169967990451386
 20
-51.393589952256939
 30
0.0
 10
29.177202690972219
 20
-51.393245442708327
 30
0.0
 10
29.184092881944441
 20
-51.392900933159716
 30
0.0
 10
29.191327582465274
 20
-51.392556423611104
 30
0.0
 10
29.198217773437499
 20
-51.391867404513881
 30
0.0
 10
29.205452473958331
 20
-51.39152289496527
 30
0.0
 10
29.212342664930553
 20
-51.391178385416659
 30
0.0
 10
29.219577365451386
 20
-51.390833875868054
 30
0.0
 10
29.226467556423607
 20
-51.390144856770831
 30
0.0
 10
29.23370225694444
 20
-51.38980034722222
 30
0.0
 10
29.240592447916665
 20
-51.389455837673609
 30
0.0
 10
29.247827148437498
 20
-51.389111328124997
 30
0.0
 10
29.254717339409719
 20
-51.388422309027774
 30
0.0
 10
29.261952039930552
 20
-51.388077799479163
 30
0.0
 10
29.268842230902774
 20
-51.387733289930551
 30
0.0
 10
29.27607693142361
 20
-51.387044270833329
 30
0.0
 10
29.283311631944443
 20
-51.386699761284717
 30
0.0
 10
29.290201822916664
 20
-51.386355251736106
 30
0.0
 10
29.297436523437497
 20
-51.385666232638883
 30
0.0
 10
29.304326714409719
 20
-51.385321723090271
 30
0.0
 10
29.311561414930551
 20
-51.38497721354166
 30
0.0
 10
29.318451605902776
 20
-51.384632703993049
 30
0.0
 10
29.325341796874998
 20
-51.383943684895826
 30
0.0
 10
29.332576497395831
 20
-51.383599175347214
 30
0.0
 10
29.339466688368052
 20
-51.382910156249999
 30
0.0
 10
29.346701388888885
 20
-51.382565646701387
 30
0.0
 10
29.35359157986111
 20
-51.382221137152776
 30
0.0
 10
29.360826280381943
 20
-51.381532118055553
 30
0.0
 10
29.368060980902776
 20
-51.381187608506941
 30
0.0
 10
29.374951171874997
 20
-51.38084309895833
 30
0.0
 10
29.38218587239583
 20
-51.380154079861107
 30
0.0
 10
29.389076063368051
 20
-51.379809570312496
 30
0.0
 10
29.396310763888888
 20
-51.379120551215273
 30
0.0
 10
29.403200954861109
 20
-51.378776041666661
 30
0.0
 10
29.410435655381942
 20
-51.378087022569439
 30
0.0
 10
29.417325846354164
 20
-51.377742513020827
 30
0.0
 10
29.424560546874996
 20
-51.377398003472216
 30
0.0
 10
29.431450737847218
 20
-51.376708984374993
 30
0.0
 10
29.438685438368054
 20
-51.376364474826381
 30
0.0
 10
29.445575629340276
 20
-51.375675455729159
 30
0.0
 10
29.452810329861109
 20
-51.375330946180554
 30
0.0
 10
29.45970052083333
 20
-51.374641927083331
 30
0.0
 10
29.466935221354163
 20
-51.37429741753472
 30
0.0
 10
29.473825412326388
 20
-51.373608398437497
 30
0.0
 10
29.48174913194444
 20
-51.373263888888886
 30
0.0
 10
29.489328342013888
 20
-51.372574869791663
 30
0.0
 10
29.496907552083332
 20
-51.37188585069444
 30
0.0
 10
29.504486762152776
 20
-51.371541341145829
 30
0.0
 10
29.512410481770832
 20
-51.370852322048606
 30
0.0
 10
29.519989691840276
 20
-51.370163302951383
 30
0.0
 10
29.527568901909721
 20
-51.369818793402771
 30
0.0
 10
29.535492621527776
 20
-51.369129774305549
 30
0.0
 10
29.543071831597221
 20
-51.368440755208326
 30
0.0
 10
29.550651041666665
 20
-51.367751736111103
 30
0.0
 10
29.558230251736109
 20
-51.367407226562499
 30
0.0
 10
29.566153971354165
 20
-51.366718207465276
 30
0.0
 10
29.573733181423609
 20
-51.366029188368053
 30
0.0
 10
29.581312391493054
 20
-51.365684678819441
 30
0.0
 10
29.589236111111109
 20
-51.364995659722219
 30
0.0
 10
29.596815321180554
 20
-51.364306640624996
 30
0.0
 10
29.604394531249998
 20
-51.363617621527773
 30
0.0
 10
29.611973741319442
 20
-51.36292860243055
 30
0.0
 10
29.619897460937498
 20
-51.362584092881939
 30
0.0
 10
29.627476671006942
 20
-51.361895073784716
 30
0.0
 10
29.635055881076386
 20
-51.361206054687493
 30
0.0
 10
29.642979600694442
 20
-51.36051703559027
 30
0.0
 10
29.650558810763886
 20
-51.359828016493054
 30
0.0
 10
29.658138020833331
 20
-51.359483506944443
 30
0.0
 10
29.664683702256941
 20
-51.35879448784722
 30
0.0
 10
29.671229383680554
 20
-51.358105468749997
 30
0.0
 10
29.677430555555553
 20
-51.357760959201386
 30
0.0
 10
29.683976236979163
 20
-51.357071940104163
 30
0.0
 10
29.690521918402776
 20
-51.356727430555551
 30
0.0
 10
29.697067599826386
 20
-51.356038411458329
 30
0.0
 10
29.703268771701385
 20
-51.355693901909717
 30
0.0
 10
29.709814453124999
 20
-51.355004882812494
 30
0.0
 10
29.716360134548609
 20
-51.354660373263883
 30
0.0
 10
29.722561306423607
 20
-51.35397135416666
 30
0.0
 10
29.729106987847221
 20
-51.353282335069437
 30
0.0
 10
29.735652669270831
 20
-51.352937825520826
 30
0.0
 10
29.741853841145829
 20
-51.352248806423603
 30
0.0
 10
29.748399522569443
 20
-51.351904296874999
 30
0.0
 10
29.754945203993053
 20
-51.351215277777776
 30
0.0
 10
29.761146375868051
 20
-51.350526258680553
 30
0.0
 10
29.767692057291665
 20
-51.350181749131941
 30
0.0
 10
29.774237738715275
 20
-51.349492730034719
 30
0.0
 10
29.780438910590274
 20
-51.348803710937496
 30
0.0
 10
29.786984592013887
 20
-51.348459201388884
 30
0.0
 10
29.793530273437497
 20
-51.347770182291661
 30
0.0
 10
29.799731445312496
 20
-51.347081163194439
 30
0.0
 10
29.806277126736109
 20
-51.346736653645827
 30
0.0
 10
29.812822808159719
 20
-51.346047634548604
 30
0.0
 10
29.819712999131941
 20
-51.345358615451381
 30
0.0
 10
29.826947699652774
 20
-51.344669596354159
 30
0.0
 10
29.833837890624999
 20
-51.343980577256943
 30
0.0
 10
29.841072591145831
 20
-51.34329155815972
 30
0.0
 10
29.847962782118053
 20
-51.342947048611109
 30
0.0
 10
29.855197482638886
 20
-51.342258029513886
 30
0.0
 10
29.862087673611107
 20
-51.341569010416663
 30
0.0
 10
29.868977864583332
 20
-51.34087999131944
 30
0.0
 10
29.876212565104165
 20
-51.340190972222217
 30
0.0
 10
29.883102756076386
 20
-51.339501953124994
 30
0.0
 10
29.890337456597219
 20
-51.338812934027771
 30
0.0
 10
29.897227647569441
 20
-51.338123914930549
 30
0.0
 10
29.904462348090274
 20
-51.337434895833326
 30
0.0
 10
29.911352539062499
 20
-51.336745876736103
 30
0.0
 10
29.918587239583331
 20
-51.336056857638887
 30
0.0
 10
29.925477430555553
 20
-51.335712348090276
 30
0.0
 10
29.932367621527774
 20
-51.334678819444441
 30
0.0
 10
29.939602322048607
 20
-51.333989800347219
 30
0.0
 10
29.946492513020832
 20
-51.333645290798607
 30
0.0
 10
29.953727213541665
 20
-51.332956271701384
 30
0.0
 10
29.960617404513886
 20
-51.332267252604161
 30
0.0
 10
29.967852105034719
 20
-51.331578233506939
 30
0.0
 10
29.974742296006941
 20
-51.330889214409716
 30
0.0
 10
29.981976996527774
 20
-51.329855685763881
 30
0.0
 10
29.988867187499999
 20
-51.329166666666659
 30
0.0
 10
29.996101888020831
 20
-51.328477647569443
 30
0.0
 10
30.002992078993053
 20
-51.32778862847222
 30
0.0
 10
30.009882269965274
 20
-51.327099609374997
 30
0.0
 10
30.017116970486107
 20
-51.326410590277774
 30
0.0
 10
30.024007161458332
 20
-51.325721571180551
 30
0.0
 10
30.031241861979165
 20
-51.325032552083329
 30
0.0
 10
30.038132052951386
 20
-51.324343532986106
 30
0.0
 10
30.045366753472219
 20
-51.323654513888883
 30
0.0
 10
30.052256944444441
 20
-51.32296549479166
 30
0.0
 10
30.059491644965274
 20
-51.322276475694437
 30
0.0
 10
30.066381835937499
 20
-51.321587456597214
 30
0.0
 10
30.073616536458331
 20
-51.320898437499999
 30
0.0
 10
30.080506727430553
 20
-51.319864908854164
 30
0.0
 10
30.087396918402774
 20
-51.319175889756941
 30
0.0
 10
30.094631618923607
 20
-51.318486870659719
 30
0.0
 10
30.101521809895832
 20
-51.317797851562496
 30
0.0
 10
30.108756510416665
 20
-51.317108832465273
 30
0.0
 10
30.115646701388886
 20
-51.31641981336805
 30
0.0
 10
30.122881401909719
 20
-51.315730794270827
 30
0.0
 10
30.129771592881941
 20
-51.314697265624993
 30
0.0
 10
30.137006293402774
 20
-51.31400824652777
 30
0.0
 10
30.143896484374999
 20
-51.313319227430554
 30
0.0
 10
30.15078667534722
 20
-51.312630208333331
 30
0.0
 10
30.158365885416664
 20
-51.311941189236109
 30
0.0
 10
30.165945095486109
 20
-51.310907660590274
 30
0.0
 10
30.173524305555553
 20
-51.310218641493051
 30
0.0
 10
30.180759006076386
 20
-51.309185112847217
 30
0.0
 10
30.18833821614583
 20
-51.308496093749994
 30
0.0
 10
30.195917426215274
 20
-51.307807074652771
 30
0.0
 10
30.203152126736107
 20
-51.306773546006937
 30
0.0
 10
30.210731336805551
 20
-51.306084526909714
 30
0.0
 10
30.218310546874996
 20
-51.305050998263887
 30
0.0
 10
30.225545247395832
 20
-51.304361979166664
 30
0.0
 10
30.233124457465276
 20
-51.303672960069441
 30
0.0
 10
30.240703667534721
 20
-51.302639431423607
 30
0.0
 10
30.247938368055554
 20
-51.301950412326384
 30
0.0
 10
30.255517578124998
 20
-51.30091688368055
 30
0.0
 10
30.263096788194442
 20
-51.300227864583327
 30
0.0
 10
30.270331488715275
 20
-51.299194335937493
 30
0.0
 10
30.277910698784719
 20
-51.29850531684027
 30
0.0
 10
30.285489908854164
 20
-51.297471788194443
 30
0.0
 10
30.292724609374996
 20
-51.29678276909722
 30
0.0
 10
30.300303819444441
 20
-51.295749240451386
 30
0.0
 10
30.307883029513885
 20
-51.295060221354163
 30
0.0
 10
30.315117730034718
 20
-51.294026692708329
 30
0.0
 10
30.322696940104162
 20
-51.293337673611106
 30
0.0
 10
30.329931640624999
 20
-51.292304144965271
 30
0.0
 10
30.337510850694443
 20
-51.291615125868049
 30
0.0
 10
30.345090060763887
 20
-51.290581597222214
 30
0.0
 10
30.352669270833331
 20
-51.289548068576387
 30
0.0
 10
30.359903971354164
 20
-51.288859049479164
 30
0.0
 10
30.367483181423609
 20
-51.28782552083333
 30
0.0
 10
30.374717881944441
 20
-51.287136501736107
 30
0.0
 10
30.382297092013886
 20
-51.286102973090273
 30
0.0
 10
30.38987630208333
 20
-51.285069444444439
 30
0.0
 10
30.397111002604163
 20
-51.284380425347216
 30
0.0
 10
30.404690212673607
 20
-51.283346896701381
 30
0.0
 10
30.412269422743051
 20
-51.282313368055554
 30
0.0
 10
30.419504123263888
 20
-51.281624348958331
 30
0.0
 10
30.427083333333332
 20
-51.280590820312497
 30
0.0
 10
30.434662543402776
 20
-51.279557291666663
 30
0.0
 10
30.441897243923609
 20
-51.278523763020829
 30
0.0
 10
30.449476453993054
 20
-51.277834743923606
 30
0.0
 10
30.456711154513886
 20
-51.276801215277771
 30
0.0
 10
30.464290364583331
 20
-51.275767686631937
 30
0.0
 10
30.471869574652775
 20
-51.275078667534714
 30
0.0
 10
30.479104275173608
 20
-51.274045138888887
 30
0.0
 10
30.486338975694441
 20
-51.273011610243053
 30
0.0
 10
30.493918185763885
 20
-51.271978081597219
 30
0.0
 10
30.501497395833329
 20
-51.271289062499996
 30
0.0
 10
30.508732096354162
 20
-51.270255533854161
 30
0.0
 10
30.51631130642361
 20
-51.269222005208327
 30
0.0
 10
30.523546006944443
 20
-51.268188476562493
 30
0.0
 10
30.531125217013887
 20
-51.267154947916659
 30
0.0
 10
30.53835991753472
 20
-51.266121419270831
 30
0.0
 10
30.545939127604164
 20
-51.265432400173609
 30
0.0
 10
30.553173828124997
 20
-51.264398871527774
 30
0.0
 10
30.560753038194441
 20
-51.26336534288194
 30
0.0
 10
30.567987738715274
 20
-51.262331814236106
 30
0.0
 10
30.575566948784719
 20
-51.261298285590271
 30
0.0
 10
30.582801649305551
 20
-51.260264756944437
 30
0.0
 10
30.590380859374996
 20
-51.259231228298603
 30
0.0
 10
30.597615559895832
 20
-51.258542209201387
 30
0.0
 10
30.605194769965276
 20
-51.257508680555553
 30
0.0
 10
30.612429470486109
 20
-51.256475151909719
 30
0.0
 10
30.620008680555554
 20
-51.255441623263884
 30
0.0
 10
30.627587890624998
 20
-51.25440809461805
 30
0.0
 10
30.634822591145831
 20
-51.253374565972216
 30
0.0
 10
30.642401801215275
 20
-51.252341037326381
 30
0.0
 10
30.649636501736108
 20
-51.251307508680554
 30
0.0
 10
30.657215711805552
 20
-51.25027398003472
 30
0.0
 10
30.664794921874996
 20
-51.249240451388886
 30
0.0
 10
30.672029622395829
 20
-51.248206922743051
 30
0.0
 10
30.679608832465274
 20
-51.247173394097217
 30
0.0
 10
30.687188042534718
 20
-51.246139865451383
 30
0.0
 10
30.694422743055554
 20
-51.245106336805549
 30
0.0
 10
30.702001953124999
 20
-51.243728298611103
 30
0.0
 10
30.709581163194443
 20
-51.242694769965276
 30
0.0
 10
30.717160373263887
 20
-51.241661241319441
 30
0.0
 10
30.72439507378472
 20
-51.240627712673607
 30
0.0
 10
30.731974283854164
 20
-51.239594184027773
 30
0.0
 10
30.739553493923609
 20
-51.238560655381939
 30
0.0
 10
30.746788194444441
 20
-51.237527126736104
 30
0.0
 10
30.754367404513886
 20
-51.23649359809027
 30
0.0
 10
30.76194661458333
 20
-51.235460069444443
 30
0.0
 10
30.769525824652774
 20
-51.234082031249997
 30
0.0
 10
30.776760525173607
 20
-51.233048502604163
 30
0.0
 10
30.784339735243051
 20
-51.232014973958329
 30
0.0
 10
30.791574435763888
 20
-51.230981445312494
 30
0.0
 10
30.799153645833332
 20
-51.22994791666666
 30
0.0
 10
30.806732855902776
 20
-51.228569878472214
 30
0.0
 10
30.813967556423609
 20
-51.227536349826387
 30
0.0
 10
30.821202256944442
 20
-51.226502821180553
 30
0.0
 10
30.828781467013886
 20
-51.225469292534719
 30
0.0
 10
30.836360677083331
 20
-51.224091254340273
 30
0.0
 10
30.843595377604164
 20
-51.223057725694439
 30
0.0
 10
30.851174587673608
 20
-51.222024197048604
 30
0.0
 10
30.858409288194441
 20
-51.22099066840277
 30
0.0
 10
30.865988498263885
 20
-51.219612630208331
 30
0.0
 10
30.873223198784718
 20
-51.218579101562497
 30
0.0
 10
30.880802408854162
 20
-51.217545572916663
 30
0.0
 10
30.888037109374999
 20
-51.216512044270829
 30
0.0
 10
30.895616319444443
 20
-51.215134006076383
 30
0.0
 10
30.903195529513887
 20
-51.214100477430549
 30
0.0
 10
30.91043023003472
 20
-51.21272243923611
 30
0.0
 10
30.918009440104164
 20
-51.211688910590276
 30
0.0
 10
30.925244140624997
 20
-51.210655381944441
 30
0.0
 10
30.932823350694441
 20
-51.209277343749996
 30
0.0
 10
30.940058051215274
 20
-51.208243815104161
 30
0.0
 10
30.947637261284719
 20
-51.207210286458327
 30
0.0
 10
30.954871961805551
 20
-51.205832248263881
 30
0.0
 10
30.962451171874996
 20
-51.204798719618054
 30
0.0
 10
30.97003038194444
 20
-51.20376519097222
 30
0.0
 10
30.977265082465276
 20
-51.202387152777774
 30
0.0
 10
30.984844292534721
 20
-51.20135362413194
 30
0.0
 10
30.992078993055554
 20
-51.199975585937494
 30
0.0
 10
30.999658203124998
 20
-51.19894205729166
 30
0.0
 10
31.006892903645831
 20
-51.197564019097214
 30
0.0
 10
31.014472113715275
 20
-51.196530490451387
 30
0.0
 10
31.021706814236108
 20
-51.195152452256941
 30
0.0
 10
31.029286024305552
 20
-51.194118923611107
 30
0.0
 10
31.036520724826385
 20
-51.192740885416661
 30
0.0
 10
31.044099934895829
 20
-51.191707356770827
 30
0.0
 10
31.051334635416662
 20
-51.190329318576381
 30
0.0
 10
31.05891384548611
 20
-51.189295789930554
 30
0.0
 10
31.066148546006943
 20
-51.187917751736109
 30
0.0
 10
31.073727756076387
 20
-51.186539713541663
 30
0.0
 10
31.08096245659722
 20
-51.185506184895829
 30
0.0
 10
31.088541666666664
 20
-51.184128146701383
 30
0.0
 10
31.096120876736109
 20
-51.182750108506937
 30
0.0
 10
31.104044596354164
 20
-51.18171657986111
 30
0.0
 10
31.111623806423609
 20
-51.180338541666664
 30
0.0
 10
31.119547526041664
 20
-51.178960503472219
 30
0.0
 10
31.127126736111109
 20
-51.177582465277773
 30
0.0
 10
31.135050455729164
 20
-51.176204427083327
 30
0.0
 10
31.142629665798609
 20
-51.174826388888881
 30
0.0
 10
31.150553385416664
 20
-51.173792860243054
 30
0.0
 10
31.158132595486109
 20
-51.172414822048609
 30
0.0
 10
31.165711805555553
 20
-51.171036783854163
 30
0.0
 10
31.173635525173609
 20
-51.169658745659717
 30
0.0
 10
31.181214735243053
 20
-51.168280707465271
 30
0.0
 10
31.189138454861109
 20
-51.166902669270826
 30
0.0
 10
31.196717664930553
 20
-51.165524631076387
 30
0.0
 10
31.204641384548609
 20
-51.164146592881941
 30
0.0
 10
31.212220594618053
 20
-51.162768554687496
 30
0.0
 10
31.220144314236109
 20
-51.16139051649305
 30
0.0
 10
31.227723524305553
 20
-51.160012478298604
 30
0.0
 10
31.235302734374997
 20
-51.158634440104159
 30
0.0
 10
31.243226453993053
 20
-51.15725640190972
 30
0.0
 10
31.250805664062497
 20
-51.155878363715274
 30
0.0
 10
31.258729383680553
 20
-51.154500325520829
 30
0.0
 10
31.266308593749997
 20
-51.153122287326383
 30
0.0
 10
31.274232313368053
 20
-51.151744249131937
 30
0.0
 10
31.281811523437497
 20
-51.150366210937499
 30
0.0
 10
31.289390733506941
 20
-51.148643663194441
 30
0.0
 10
31.297314453124997
 20
-51.147265624999996
 30
0.0
 10
31.304893663194441
 20
-51.14588758680555
 30
0.0
 10
31.312817382812497
 20
-51.144509548611104
 30
0.0
 10
31.320396592881941
 20
-51.143131510416659
 30
0.0
 10
31.327975802951386
 20
-51.14175347222222
 30
0.0
 10
31.335899522569441
 20
-51.140030924479163
 30
0.0
 10
31.343478732638886
 20
-51.138652886284717
 30
0.0
 10
31.351402452256941
 20
-51.137274848090271
 30
0.0
 10
31.358981662326386
 20
-51.135896809895826
 30
0.0
 10
31.36656087239583
 20
-51.134174262152776
 30
0.0
 10
31.373451063368051
 20
-51.13279622395833
 30
0.0
 10
31.380341254340276
 20
-51.131762695312496
 30
0.0
 10
31.387231445312498
 20
-51.13038465711805
 30
0.0
 10
31.394466145833331
 20
-51.129006618923604
 30
0.0
 10
31.401356336805552
 20
-51.127628580729159
 30
0.0
 10
31.407902018229162
 20
-51.12625054253472
 30
0.0
 10
31.415136718749999
 20
-51.124872504340274
 30
0.0
 10
31.42202690972222
 20
-51.123494466145829
 30
0.0
 10
31.428917100694441
 20
-51.122116427951383
 30
0.0
 10
31.435807291666663
 20
-51.120738389756937
 30
0.0
 10
31.442697482638884
 20
-51.119360351562499
 30
0.0
 10
31.449587673611109
 20
-51.117982313368053
 30
0.0
 10
31.456477864583331
 20
-51.116604275173607
 30
0.0
 10
31.463368055555552
 20
-51.115226236979161
 30
0.0
 10
31.470258246527774
 20
-51.113848198784716
 30
0.0
 10
31.477148437499999
 20
-51.11247016059027
 30
0.0
 10
31.48403862847222
 20
-51.111092122395831
 30
0.0
 10
31.490928819444441
 20
-51.109714084201386
 30
0.0
 10
31.497819010416663
 20
-51.10833604600694
 30
0.0
 10
31.504709201388884
 20
-51.106958007812494
 30
0.0
 10
31.511599392361109
 20
-51.105579969618049
 30
0.0
 10
31.518489583333331
 20
-51.10420193142361
 30
0.0
 10
31.525379774305552
 20
-51.102823893229164
 30
0.0
 10
31.532269965277774
 20
-51.101101345486107
 30
0.0
 10
31.538471137152776
 20
-51.100067816840273
 30
0.0
 10
31.544672309027774
 20
-51.098689778645827
 30
0.0
 10
31.550873480902776
 20
-51.097311740451381
 30
0.0
 10
31.557074652777775
 20
-51.096278211805554
 30
0.0
 10
31.563275824652774
 20
-51.094900173611109
 30
0.0
 10
31.569476996527776
 20
-51.093522135416663
 30
0.0
 10
31.575678168402774
 20
-51.092144097222217
 30
0.0
 10
31.581534830729165
 20
-51.090766059027771
 30
0.0
 10
31.587736002604164
 20
-51.089732530381937
 30
0.0
 10
31.593937174479162
 20
-51.088354492187499
 30
0.0
 10
31.600138346354164
 20
-51.086976453993053
 30
0.0
 10
31.606339518229163
 20
-51.085598415798607
 30
0.0
 10
31.612540690104165
 20
-51.084220377604161
 30
0.0
 10
31.618741861979164
 20
-51.083186848958327
 30
0.0
 10
31.624943033854162
 20
-51.081808810763881
 30
0.0
 10
31.631144205729164
 20
-51.080430772569443
 30
0.0
 10
31.637345377604163
 20
-51.079052734374997
 30
0.0
 10
31.643546549479165
 20
-51.077674696180551
 30
0.0
 10
31.651125759548609
 20
-51.075952148437494
 30
0.0
 10
31.658704969618054
 20
-51.074229600694437
 30
0.0
 10
31.666628689236109
 20
-51.072851562499999
 30
0.0
 10
31.674207899305554
 20
-51.071129014756941
 30
0.0
 10
31.681787109374998
 20
-51.069406467013884
 30
0.0
 10
31.689366319444442
 20
-51.067683919270827
 30
0.0
 10
31.696945529513886
 20
-51.06596137152777
 30
0.0
 10
31.704869249131942
 20
-51.06423882378472
 30
0.0
 10
31.712448459201386
 20
-51.062516276041663
 30
0.0
 10
31.720027669270831
 20
-51.060793728298606
 30
0.0
 10
31.727606879340275
 20
-51.059071180555549
 30
0.0
 10
31.735530598958331
 20
-51.057348632812499
 30
0.0
 10
31.743109809027775
 20
-51.055626085069441
 30
0.0
 10
31.750689019097219
 20
-51.053903537326384
 30
0.0
 10
31.758268229166664
 20
-51.052180989583327
 30
0.0
 10
31.766191948784719
 20
-51.05045844184027
 30
0.0
 10
31.773771158854164
 20
-51.04873589409722
 30
0.0
 10
31.781350368923608
 20
-51.047013346354163
 30
0.0
 10
31.788929578993052
 20
-51.045290798611106
 30
0.0
 10
31.796508789062496
 20
-51.043568250868049
 30
0.0
 10
31.804432508680552
 20
-51.041845703124999
 30
0.0
 10
31.812011718749996
 20
-51.03977864583333
 30
0.0
 10
31.819590928819441
 20
-51.038056098090273
 30
0.0
 10
31.827170138888885
 20
-51.036333550347216
 30
0.0
 10
31.834749348958329
 20
-51.034611002604159
 30
0.0
 10
31.842673068576385
 20
-51.032888454861109
 30
0.0
 10
31.850252278645829
 20
-51.03082139756944
 30
0.0
 10
31.857831488715274
 20
-51.029098849826383
 30
0.0
 10
31.865410698784718
 20
-51.027376302083326
 30
0.0
 10
31.872989908854162
 20
-51.025653754340276
 30
0.0
 10
31.880569118923606
 20
-51.023586697048607
 30
0.0
 10
31.888148328993054
 20
-51.02186414930555
 30
0.0
 10
31.896072048611106
 20
-51.020141601562493
 30
0.0
 10
31.903651258680554
 20
-51.018074544270831
 30
0.0
 10
31.911230468749999
 20
-51.016351996527774
 30
0.0
 10
31.918809678819443
 20
-51.014284939236106
 30
0.0
 10
31.926388888888887
 20
-51.012562391493049
 30
0.0
 10
31.93362358940972
 20
-51.010839843749999
 30
0.0
 10
31.940858289930553
 20
-51.009117296006941
 30
0.0
 10
31.948437499999997
 20
-51.007394748263884
 30
0.0
 10
31.95567220052083
 20
-51.005327690972216
 30
0.0
 10
31.963251410590274
 20
-51.003605143229159
 30
0.0
 10
31.970486111111107
 20
-51.001538085937497
 30
0.0
 10
31.97772081163194
 20
-50.99981553819444
 30
0.0
 10
31.984955512152776
 20
-50.998092990451383
 30
0.0
 10
31.992534722222221
 20
-50.996025933159714
 30
0.0
 10
31.999769422743054
 20
-50.994303385416664
 30
0.0
 10
32.007348632812494
 20
-50.992236328124996
 30
0.0
 10
32.014583333333327
 20
-50.990513780381939
 30
0.0
 10
32.021818033854167
 20
-50.988791232638881
 30
0.0
 10
32.029052734375
 20
-50.98672417534722
 30
0.0
 10
32.036631944444444
 20
-50.985001627604163
 30
0.0
 10
32.043866644965277
 20
-50.982934570312494
 30
0.0
 10
32.05110134548611
 20
-50.981212022569437
 30
0.0
 10
32.058680555555554
 20
-50.979144965277776
 30
0.0
 10
32.065915256076387
 20
-50.977077907986107
 30
0.0
 10
32.07314995659722
 20
-50.97535536024305
 30
0.0
 10
32.080729166666664
 20
-50.973288302951381
 30
0.0
 10
32.087963867187497
 20
-50.97122124565972
 30
0.0
 10
32.09519856770833
 20
-50.969498697916663
 30
0.0
 10
32.102433268229163
 20
-50.967431640624994
 30
0.0
 10
32.110012478298607
 20
-50.965364583333326
 30
0.0
 10
32.11724717881944
 20
-50.963297526041664
 30
0.0
 10
32.124481879340273
 20
-50.961574978298607
 30
0.0
 10
32.131716579861106
 20
-50.959507921006939
 30
0.0
 10
32.13929578993055
 20
-50.95744086371527
 30
0.0
 10
32.146530490451383
 20
-50.955373806423609
 30
0.0
 10
32.153765190972216
 20
-50.95330674913194
 30
0.0
 10
32.160999891493056
 20
-50.951584201388883
 30
0.0
 10
32.1685791015625
 20
-50.949517144097214
 30
0.0
 10
32.175813802083333
 20
-50.947450086805553
 30
0.0
 10
32.183048502604166
 20
-50.945383029513884
 30
0.0
 10
32.190283203124999
 20
-50.943315972222216
 30
0.0
 10
32.197517903645831
 20
-50.941248914930554
 30
0.0
 10
32.204752604166664
 20
-50.939181857638886
 30
0.0
 10
32.212331814236109
 20
-50.937114800347217
 30
0.0
 10
32.219566514756941
 20
-50.935047743055549
 30
0.0
 10
32.226801215277774
 20
-50.932980685763887
 30
0.0
 10
32.234035915798607
 20
-50.930569118923607
 30
0.0
 10
32.24127061631944
 20
-50.928502061631939
 30
0.0
 10
32.248849826388884
 20
-50.92643500434027
 30
0.0
 10
32.255740017361106
 20
-50.924367947048609
 30
0.0
 10
32.26331922743055
 20
-50.92230088975694
 30
0.0
 10
32.270553927951383
 20
-50.920233832465271
 30
0.0
 10
32.275721571180554
 20
-50.918511284722214
 30
0.0
 10
32.280889214409719
 20
-50.917133246527776
 30
0.0
 10
32.285712348090271
 20
-50.915410698784719
 30
0.0
 10
32.290879991319443
 20
-50.914032660590273
 30
0.0
 10
32.296047634548607
 20
-50.912310112847216
 30
0.0
 10
32.301215277777771
 20
-50.91093207465277
 30
0.0
 10
32.307416449652777
 20
-50.90920952690972
 30
0.0
 10
32.313273111979164
 20
-50.907486979166663
 30
0.0
 10
32.319129774305551
 20
-50.905419921874994
 30
0.0
 10
32.32533094618055
 20
-50.903697374131937
 30
0.0
 10
32.331187608506944
 20
-50.901974826388887
 30
0.0
 10
32.337044270833331
 20
-50.90025227864583
 30
0.0
 10
32.34324544270833
 20
-50.898185221354161
 30
0.0
 10
32.349102105034717
 20
-50.896462673611104
 30
0.0
 10
32.354958767361111
 20
-50.894740125868054
 30
0.0
 10
32.36115993923611
 20
-50.892673068576386
 30
0.0
 10
32.367016601562497
 20
-50.890950520833329
 30
0.0
 10
32.372873263888884
 20
-50.889227973090271
 30
0.0
 10
32.379074435763883
 20
-50.88716091579861
 30
0.0
 10
32.384931098090277
 20
-50.885438368055553
 30
0.0
 10
32.390787760416664
 20
-50.883371310763884
 30
0.0
 10
32.396988932291663
 20
-50.881648763020827
 30
0.0
 10
32.40284559461805
 20
-50.87992621527777
 30
0.0
 10
32.408702256944444
 20
-50.877859157986109
 30
0.0
 10
32.414558919270831
 20
-50.876136610243051
 30
0.0
 10
32.42076009114583
 20
-50.874069552951383
 30
0.0
 10
32.426616753472217
 20
-50.872347005208326
 30
0.0
 10
32.432473415798611
 20
-50.870279947916664
 30
0.0
 10
32.43867458767361
 20
-50.868557400173607
 30
0.0
 10
32.444531249999997
 20
-50.866490342881939
 30
0.0
 10
32.45176595052083
 20
-50.864078776041659
 30
0.0
 10
32.459000651041663
 20
-50.862011718749997
 30
0.0
 10
32.466235351562496
 20
-50.859600151909717
 30
0.0
 10
32.473470052083329
 20
-50.857188585069437
 30
0.0
 10
32.480704752604161
 20
-50.854777018229164
 30
0.0
 10
32.487939453124994
 20
-50.852365451388884
 30
0.0
 10
32.494829644097216
 20
-50.850298394097216
 30
0.0
 10
32.502408854166667
 20
-50.847886827256943
 30
0.0
 10
32.509299045138889
 20
-50.845475260416663
 30
0.0
 10
32.516533745659721
 20
-50.843063693576383
 30
0.0
 10
32.523768446180554
 20
-50.84065212673611
 30
0.0
 10
32.531003146701387
 20
-50.83824055989583
 30
0.0
 10
32.53823784722222
 20
-50.83582899305555
 30
0.0
 10
32.545472547743053
 20
-50.83341742621527
 30
0.0
 10
32.552707248263886
 20
-50.831005859374997
 30
0.0
 10
32.559941948784719
 20
-50.828594292534717
 30
0.0
 10
32.567176649305551
 20
-50.826182725694437
 30
0.0
 10
32.574411349826384
 20
-50.823771158854164
 30
0.0
 10
32.581301540798606
 20
-50.821015082465273
 30
0.0
 10
32.588536241319439
 20
-50.818603515624993
 30
0.0
 10
32.595770941840271
 20
-50.81619194878472
 30
0.0
 10
32.603005642361111
 20
-50.81378038194444
 30
0.0
 10
32.610240342881944
 20
-50.81136881510416
 30
0.0
 10
32.617130533854166
 20
-50.808612738715276
 30
0.0
 10
32.622987196180553
 20
-50.806545681423607
 30
0.0
 10
32.62884385850694
 20
-50.804478624131939
 30
0.0
 10
32.634700520833327
 20
-50.80241156684027
 30
0.0
 10
32.640557183159721
 20
-50.800344509548609
 30
0.0
 10
32.646413845486109
 20
-50.79827745225694
 30
0.0
 10
32.652270507812496
 20
-50.796210394965271
 30
0.0
 10
32.658127170138883
 20
-50.79414333767361
 30
0.0
 10
32.663983832465277
 20
-50.792076280381941
 30
0.0
 10
32.669840494791664
 20
-50.790009223090273
 30
0.0
 10
32.675697157118051
 20
-50.787942165798604
 30
0.0
 10
32.681553819444439
 20
-50.785530598958331
 30
0.0
 10
32.687410481770833
 20
-50.783463541666663
 30
0.0
 10
32.692922634548609
 20
-50.781396484374994
 30
0.0
 10
32.698779296874996
 20
-50.779329427083326
 30
0.0
 10
32.704635959201383
 20
-50.777262369791664
 30
0.0
 10
32.710492621527777
 20
-50.774850802951384
 30
0.0
 10
32.716349283854164
 20
-50.772783745659716
 30
0.0
 10
32.722205946180551
 20
-50.770716688368054
 30
0.0
 10
32.727718098958327
 20
-50.768305121527774
 30
0.0
 10
32.733574761284721
 20
-50.766238064236106
 30
0.0
 10
32.739431423611109
 20
-50.763826497395826
 30
0.0
 10
32.745288085937496
 20
-50.761759440104164
 30
0.0
 10
32.751144748263883
 20
-50.759347873263884
 30
0.0
 10
32.756656901041666
 20
-50.757280815972216
 30
0.0
 10
32.762513563368053
 20
-50.755213758680554
 30
0.0
 10
32.76837022569444
 20
-50.752802191840274
 30
0.0
 10
32.774226888020827
 20
-50.750390624999994
 30
0.0
 10
32.77973904079861
 20
-50.748323567708326
 30
0.0
 10
32.785595703124997
 20
-50.745912000868053
 30
0.0
 10
32.791452365451384
 20
-50.743500434027773
 30
0.0
 10
32.797309027777771
 20
-50.741433376736104
 30
0.0
 10
32.802821180555554
 20
-50.739021809895831
 30
0.0
 10
32.808677842881941
 20
-50.736610243055551
 30
0.0
 10
32.814189995659717
 20
-50.734543185763883
 30
0.0
 10
32.820046657986111
 20
-50.73213161892361
 30
0.0
 10
32.825903320312499
 20
-50.72972005208333
 30
0.0
 10
32.831415473090274
 20
-50.72730848524305
 30
0.0
 10
32.837272135416661
 20
-50.72489691840277
 30
0.0
 10
32.843128797743056
 20
-50.722485351562497
 30
0.0
 10
32.848640950520831
 20
-50.720073784722217
 30
0.0
 10
32.854497612847219
 20
-50.718006727430549
 30
0.0
 10
32.860009765624994
 20
-50.715595160590276
 30
0.0
 10
32.865866427951389
 20
-50.713183593749996
 30
0.0
 10
32.871378580729164
 20
-50.710772026909716
 30
0.0
 10
32.877235243055551
 20
-50.708360460069443
 30
0.0
 10
32.882747395833327
 20
-50.705604383680551
 30
0.0
 10
32.888604058159721
 20
-50.703192816840271
 30
0.0
 10
32.894460720486109
 20
-50.700781249999999
 30
0.0
 10
32.899628363715273
 20
-50.69871419270833
 30
0.0
 10
32.904796006944444
 20
-50.69630262586805
 30
0.0
 10
32.91030815972222
 20
-50.69389105902777
 30
0.0
 10
32.915475802951384
 20
-50.691824001736109
 30
0.0
 10
32.920643446180556
 20
-50.689412434895829
 30
0.0
 10
32.926155598958331
 20
-50.687000868055549
 30
0.0
 10
32.931667751736107
 20
-50.684589301215276
 30
0.0
 10
32.937524414062494
 20
-50.681833224826384
 30
0.0
 10
32.943381076388889
 20
-50.679421657986104
 30
0.0
 10
32.949237738715276
 20
-50.67666558159722
 30
0.0
 10
32.955094401041663
 20
-50.67425401475694
 30
0.0
 10
32.960606553819439
 20
-50.671497938368049
 30
0.0
 10
32.966463216145833
 20
-50.668741861979164
 30
0.0
 10
32.97231987847222
 20
-50.666330295138884
 30
0.0
 10
32.978176540798607
 20
-50.663574218749993
 30
0.0
 10
32.983688693576383
 20
-50.66116265190972
 30
0.0
 10
32.989545355902777
 20
-50.658406575520829
 30
0.0
 10
32.995057508680553
 20
-50.655650499131937
 30
0.0
 10
33.00091417100694
 20
-50.652894422743053
 30
0.0
 10
33.006770833333327
 20
-50.650482855902773
 30
0.0
 10
33.012627495659721
 20
-50.647726779513881
 30
0.0
 10
33.018139648437497
 20
-50.644970703124997
 30
0.0
 10
33.023996310763884
 20
-50.642214626736106
 30
0.0
 10
33.029508463541667
 20
-50.639458550347214
 30
0.0
 10
33.035020616319443
 20
-50.637046983506941
 30
0.0
 10
33.04087727864583
 20
-50.63429090711805
 30
0.0
 10
33.046389431423606
 20
-50.631534830729159
 30
0.0
 10
33.051901584201389
 20
-50.628778754340274
 30
0.0
 10
33.057758246527776
 20
-50.626367187499994
 30
0.0
 10
33.063270399305551
 20
-50.62361111111111
 30
0.0
 10
33.068782552083327
 20
-50.620855034722219
 30
0.0
 10
33.07429470486111
 20
-50.618098958333327
 30
0.0
 10
33.080151367187497
 20
-50.615342881944443
 30
0.0
 10
33.085663519965273
 20
-50.612586805555551
 30
0.0
 10
33.091175672743056
 20
-50.60983072916666
 30
0.0
 10
33.096687825520831
 20
-50.607074652777776
 30
0.0
 10
33.102199978298607
 20
-50.604318576388884
 30
0.0
 10
33.107712131076383
 20
-50.601562499999993
 30
0.0
 10
33.113224283854166
 20
-50.598806423611109
 30
0.0
 10
33.118736436631941
 20
-50.596050347222217
 30
0.0
 10
33.124248589409717
 20
-50.593294270833326
 30
0.0
 10
33.1297607421875
 20
-50.59019368489583
 30
0.0
 10
33.135272894965276
 20
-50.587437608506939
 30
0.0
 10
33.140785047743051
 20
-50.584681532118054
 30
0.0
 10
33.146297200520827
 20
-50.581925455729163
 30
0.0
 10
33.152153862847221
 20
-50.57882486979166
 30
0.0
 10
33.157666015624997
 20
-50.576068793402776
 30
0.0
 10
33.162833658854161
 20
-50.573312717013884
 30
0.0
 10
33.168690321180556
 20
-50.570212131076381
 30
0.0
 10
33.174202473958331
 20
-50.567111545138886
 30
0.0
 10
33.179714626736107
 20
-50.564355468749994
 30
0.0
 10
33.185571289062494
 20
-50.561254882812499
 30
0.0
 10
33.191083441840277
 20
-50.558154296874996
 30
0.0
 10
33.196595594618053
 20
-50.555053710937493
 30
0.0
 10
33.20245225694444
 20
-50.551953124999997
 30
0.0
 10
33.207964409722216
 20
-50.548852539062494
 30
0.0
 10
33.213476562499999
 20
-50.545751953124999
 30
0.0
 10
33.218988715277774
 20
-50.542651367187496
 30
0.0
 10
33.22450086805555
 20
-50.539550781249993
 30
0.0
 10
33.230013020833333
 20
-50.536450195312497
 30
0.0
 10
33.235525173611109
 20
-50.533349609374994
 30
0.0
 10
33.241381835937496
 20
-50.530249023437499
 30
0.0
 10
33.246549479166667
 20
-50.526803927951384
 30
0.0
 10
33.252061631944443
 20
-50.523703342013881
 30
0.0
 10
33.257573784722219
 20
-50.520602756076386
 30
0.0
 10
33.263085937499994
 20
-50.517157660590271
 30
0.0
 10
33.268598090277777
 20
-50.514057074652776
 30
0.0
 10
33.274110243055553
 20
-50.510611979166661
 30
0.0
 10
33.279622395833329
 20
-50.507166883680554
 30
0.0
 10
33.285134548611111
 20
-50.504066297743051
 30
0.0
 10
33.290302191840276
 20
-50.500621202256937
 30
0.0
 10
33.295814344618051
 20
-50.49717610677083
 30
0.0
 10
33.301326497395827
 20
-50.494075520833327
 30
0.0
 10
33.306494140624999
 20
-50.49063042534722
 30
0.0
 10
33.312006293402774
 20
-50.487185329861106
 30
0.0
 10
33.31751844618055
 20
-50.483740234374999
 30
0.0
 10
33.322686089409721
 20
-50.480295138888884
 30
0.0
 10
33.328198242187497
 20
-50.47685004340277
 30
0.0
 10
33.333365885416661
 20
-50.473060438368051
 30
0.0
 10
33.338878038194444
 20
-50.469615342881937
 30
0.0
 10
33.344045681423609
 20
-50.46617024739583
 30
0.0
 10
33.349213324652773
 20
-50.462725151909716
 30
0.0
 10
33.354725477430556
 20
-50.458935546874997
 30
0.0
 10
33.35989312065972
 20
-50.455490451388883
 30
0.0
 10
33.364371744791661
 20
-50.452389865451387
 30
0.0
 10
33.369194878472221
 20
-50.449289279513884
 30
0.0
 10
33.373673502604163
 20
-50.44584418402777
 30
0.0
 10
33.378152126736111
 20
-50.442743598090274
 30
0.0
 10
33.382975260416664
 20
-50.439643012152771
 30
0.0
 10
33.387453884548606
 20
-50.436197916666664
 30
0.0
 10
33.392966037326389
 20
-50.432408311631939
 30
0.0
 10
33.398478190104164
 20
-50.42861870659722
 30
0.0
 10
33.40399034288194
 20
-50.424484592013883
 30
0.0
 10
33.409502495659716
 20
-50.420350477430553
 30
0.0
 10
33.415014648437499
 20
-50.416560872395827
 30
0.0
 10
33.420526801215274
 20
-50.412426757812497
 30
0.0
 10
33.42603895399305
 20
-50.40829264322916
 30
0.0
 10
33.431551106770833
 20
-50.40415852864583
 30
0.0
 10
33.436718749999997
 20
-50.400368923611104
 30
0.0
 10
33.442230902777773
 20
-50.396234809027774
 30
0.0
 10
33.447743055555556
 20
-50.392100694444437
 30
0.0
 10
33.453255208333331
 20
-50.387622070312496
 30
0.0
 10
33.458422851562496
 20
-50.38383246527777
 30
0.0
 10
33.463245985243056
 20
-50.380042860243051
 30
0.0
 10
33.46841362847222
 20
-50.375908745659714
 30
0.0
 10
33.473581271701384
 20
-50.372119140624996
 30
0.0
 10
33.478404405381944
 20
-50.367985026041659
 30
0.0
 10
33.483572048611109
 20
-50.363850911458329
 30
0.0
 10
33.488739691840273
 20
-50.36006130642361
 30
0.0
 10
33.493562825520833
 20
-50.355927191840273
 30
0.0
 10
33.498730468749997
 20
-50.351793077256943
 30
0.0
 10
33.50355360243055
 20
-50.347658962673606
 30
0.0
 10
33.508721245659721
 20
-50.343524848090276
 30
0.0
 10
33.513544379340274
 20
-50.33973524305555
 30
0.0
 10
33.518367513020827
 20
-50.33560112847222
 30
0.0
 10
33.523190646701387
 20
-50.331122504340271
 30
0.0
 10
33.528358289930551
 20
-50.326988389756941
 30
0.0
 10
33.533181423611111
 20
-50.322854275173604
 30
0.0
 10
33.538004557291664
 20
-50.318720160590274
 30
0.0
 10
33.542827690972217
 20
-50.314241536458326
 30
0.0
 10
33.546961805555554
 20
-50.310451931423607
 30
0.0
 10
33.551440429687496
 20
-50.306662326388881
 30
0.0
 10
33.555574544270833
 20
-50.302528211805551
 30
0.0
 10
33.560053168402774
 20
-50.298738606770826
 30
0.0
 10
33.564187282986111
 20
-50.294949001736107
 30
0.0
 10
33.568321397569441
 20
-50.29081488715277
 30
0.0
 10
33.572455512152771
 20
-50.287025282118051
 30
0.0
 10
33.576589626736109
 20
-50.282891167534714
 30
0.0
 10
33.580723741319439
 20
-50.278757052951384
 30
0.0
 10
33.584857855902776
 20
-50.274622938368054
 30
0.0
 10
33.588991970486106
 20
-50.270488823784717
 30
0.0
 10
33.592781575520831
 20
-50.266354709201387
 30
0.0
 10
33.596915690104161
 20
-50.26222059461805
 30
0.0
 10
33.600705295138887
 20
-50.25808648003472
 30
0.0
 10
33.604839409722217
 20
-50.253607855902771
 30
0.0
 10
33.608629014756943
 20
-50.249473741319441
 30
0.0
 10
33.61207411024305
 20
-50.244995117187493
 30
0.0
 10
33.615863715277776
 20
-50.240861002604163
 30
0.0
 10
33.619653320312494
 20
-50.236382378472214
 30
0.0
 10
33.62344292534722
 20
-50.231903754340273
 30
0.0
 10
33.626888020833327
 20
-50.227425130208331
 30
0.0
 10
33.630677625868053
 20
-50.222946506076383
 30
0.0
 10
33.634467230902771
 20
-50.218467881944441
 30
0.0
 10
33.637912326388886
 20
-50.213989257812493
 30
0.0
 10
33.640668402777777
 20
-50.210199652777774
 30
0.0
 10
33.643768988715273
 20
-50.206410047743049
 30
0.0
 10
33.646525065104164
 20
-50.202275933159719
 30
0.0
 10
33.649625651041667
 20
-50.198486328124993
 30
0.0
 10
33.652381727430551
 20
-50.194696723090274
 30
0.0
 10
33.655137803819443
 20
-50.190562608506937
 30
0.0
 10
33.657893880208327
 20
-50.186773003472219
 30
0.0
 10
33.660649956597219
 20
-50.182638888888881
 30
0.0
 10
33.66340603298611
 20
-50.178504774305551
 30
0.0
 10
33.666162109374994
 20
-50.174715169270826
 30
0.0
 10
33.668918185763886
 20
-50.170581054687496
 30
0.0
 10
33.671674262152777
 20
-50.166446940104159
 30
0.0
 10
33.67236328125
 20
-50.16506890190972
 30
0.0
 10
33.673396809895827
 20
-50.163346354166663
 30
0.0
 10
33.674430338541661
 20
-50.161968315972217
 30
0.0
 10
33.675463867187496
 20
-50.160590277777771
 30
0.0
 10
33.67649739583333
 20
-50.158867730034714
 30
0.0
 10
33.677186414930553
 20
-50.157489691840276
 30
0.0
 10
33.680287000868056
 20
-50.152322048611104
 30
0.0
 10
33.683387586805551
 20
-50.147498914930551
 30
0.0
 10
33.686143663194443
 20
-50.142331271701387
 30
0.0
 10
33.688899739583327
 20
-50.137163628472216
 30
0.0
 10
33.691655815972219
 20
-50.131995985243051
 30
0.0
 10
33.69441189236111
 20
-50.126828342013887
 30
0.0
 10
33.697167968749994
 20
-50.122005208333327
 30
0.0
 10
33.699924045138886
 20
-50.116837565104163
 30
0.0
 10
33.703024631076389
 20
-50.111669921874999
 30
0.0
 10
33.705780707465273
 20
-50.106846788194439
 30
0.0
 10
33.708536783854164
 20
-50.101679144965274
 30
0.0
 10
33.711637369791667
 20
-50.09651150173611
 30
0.0
 10
33.714393446180551
 20
-50.091343858506939
 30
0.0
 10
33.717149522569443
 20
-50.085831705729163
 30
0.0
 10
33.719905598958327
 20
-50.080664062499999
 30
0.0
 10
33.722317165798607
 20
-50.075496419270827
 30
0.0
 10
33.724728732638887
 20
-50.069984266493051
 30
0.0
 10
33.727140299479167
 20
-50.064472113715276
 30
0.0
 10
33.72955186631944
 20
-50.058959960937493
 30
0.0
 10
33.73196343315972
 20
-50.053447808159717
 30
0.0
 10
33.734030490451389
 20
-50.047935655381941
 30
0.0
 10
33.73609754774305
 20
-50.042423502604159
 30
0.0
 10
33.738164605034719
 20
-50.036911349826383
 30
0.0
 10
33.740231662326387
 20
-50.031399197048607
 30
0.0
 10
33.741954210069444
 20
-50.02726508246527
 30
0.0
 10
33.743332248263883
 20
-50.023475477430551
 30
0.0
 10
33.744710286458329
 20
-50.019341362847214
 30
0.0
 10
33.746088324652774
 20
-50.015207248263884
 30
0.0
 10
33.74746636284722
 20
-50.011417643229159
 30
0.0
 10
33.748844401041666
 20
-50.007283528645829
 30
0.0
 10
33.750222439236111
 20
-50.003149414062499
 30
0.0
 10
33.751255967881939
 20
-49.999359809027773
 30
0.0
 10
33.752634006076384
 20
-49.995225694444443
 30
0.0
 10
33.753667534722219
 20
-49.991091579861106
 30
0.0
 10
33.755045572916664
 20
-49.986957465277776
 30
0.0
 10
33.756079101562499
 20
-49.982823350694439
 30
0.0
 10
33.757112630208333
 20
-49.97903374565972
 30
0.0
 10
33.758146158854167
 20
-49.974899631076383
 30
0.0
 10
33.759179687499994
 20
-49.970765516493053
 30
0.0
 10
33.760213216145829
 20
-49.966975911458327
 30
0.0
 10
33.760902235243051
 20
-49.962841796874997
 30
0.0
 10
33.761591254340274
 20
-49.95870768229166
 30
0.0
 10
33.762624782986109
 20
-49.954918077256941
 30
0.0
 10
33.763313802083331
 20
-49.950783962673604
 30
0.0
 10
33.764002821180554
 20
-49.946649848090274
 30
0.0
 10
33.764691840277777
 20
-49.942515733506937
 30
0.0
 10
33.765380859375
 20
-49.938381618923607
 30
0.0
 10
33.765725368923611
 20
-49.93424750434027
 30
0.0
 10
33.766414388020827
 20
-49.930457899305551
 30
0.0
 10
33.766758897569439
 20
-49.926323784722214
 30
0.0
 10
33.767447916666661
 20
-49.922189670138884
 30
0.0
 10
33.767792426215273
 20
-49.918400065104159
 30
0.0
 10
33.768136935763884
 20
-49.914265950520829
 30
0.0
 10
33.768481445312496
 20
-49.910131835937499
 30
0.0
 10
33.768825954861107
 20
-49.905997721354161
 30
0.0
 10
33.769170464409719
 20
-49.901863606770831
 30
0.0
 10
33.769170464409719
 20
-49.898074001736106
 30
0.0
 10
33.76951497395833
 20
-49.893939887152776
 30
0.0
 10
33.76951497395833
 20
-49.889805772569439
 30
0.0
 10
33.76951497395833
 20
-49.885671657986109
 30
0.0
 10
33.76951497395833
 20
-49.881882052951383
 30
0.0
 10
33.76951497395833
 20
-49.877747938368053
 30
0.0
 10
33.76951497395833
 20
-49.873613823784716
 30
0.0
 10
33.76951497395833
 20
-49.869479709201386
 30
0.0
 10
33.769170464409719
 20
-49.865345594618049
 30
0.0
 10
33.769170464409719
 20
-49.86155598958333
 30
0.0
 10
33.768825954861107
 20
-49.857421874999993
 30
0.0
 10
33.768825954861107
 20
-49.853287760416663
 30
0.0
 10
33.768136935763884
 20
-49.849153645833326
 30
0.0
 10
33.767792426215273
 20
-49.845364040798607
 30
0.0
 10
33.767447916666661
 20
-49.84122992621527
 30
0.0
 10
33.76710340711805
 20
-49.83709581163194
 30
0.0
 10
33.766758897569439
 20
-49.83296169704861
 30
0.0
 10
33.766069878472216
 20
-49.828827582465273
 30
0.0
 10
33.765725368923611
 20
-49.825037977430554
 30
0.0
 10
33.765036349826389
 20
-49.820903862847217
 30
0.0
 10
33.764347330729166
 20
-49.816769748263887
 30
0.0
 10
33.763658311631943
 20
-49.81263563368055
 30
0.0
 10
33.76296929253472
 20
-49.80850151909722
 30
0.0
 10
33.761935763888886
 20
-49.804367404513883
 30
0.0
 10
33.761246744791663
 20
-49.800577799479164
 30
0.0
 10
33.76055772569444
 20
-49.796443684895827
 30
0.0
 10
33.759524197048606
 20
-49.792309570312497
 30
0.0
 10
33.758490668402771
 20
-49.788519965277771
 30
0.0
 10
33.756768120659721
 20
-49.780251736111104
 30
0.0
 10
33.754701063368053
 20
-49.771983506944437
 30
0.0
 10
33.751944986979161
 20
-49.76371527777777
 30
0.0
 10
33.749533420138889
 20
-49.755791558159714
 30
0.0
 10
33.746777343749997
 20
-49.747523328993054
 30
0.0
 10
33.744021267361106
 20
-49.739599609374999
 30
0.0
  0
CIRCLE
  5
C3
100
AcDbEntity
  8
0
  6
AI9-LType4
 62
     7
100
AcDbCircle
 10
-45.023436
 20
53.867685
 30
0.0
 40
3.752053
  0
SPLINE
  5
C1
100
AcDbEntity
  8
0
 62
     7
100
AcDbSpline
210
0.0
220
0.0
230
1.0
 70
     8
 71
     3
 72
     8
 73
     4
 74
     0
 42
0.00000001
 43
0.00000001
 40
0.0
 40
0.0
 40
0.0
 40
0.0
 40
1.0
 40
1.0
 40
1.0
 40
1.0
 10
-38.269843207465271
 20
-60.998171657986106
 30
0.0
 10
-38.06262071397569
 20
-60.998171657986106
 30
0.0
 10
-37.894672309027776
 20
-60.830050998263886
 30
0.0
 10
-37.894672309027776
 20
-60.623000759548603
 30
0.0
  0
SPLINE
  5
C0
100
AcDbEntity
  8
0
 62
     7
100
AcDbSpline
210
0.0
220
0.0
230
1.0
 70
     8
 71
     3
 72
     8
 73
     4
 74
     0
 42
0.00000001
 43
0.00000001
 40
0.0
 40
0.0
 40
0.0
 40
0.0
 40
1.0
 40
1.0
 40
1.0
 40
1.0
 10
-37.894672309027776
 20
-46.044045681423604
 30
0.0
 10
-37.894672309027776
 20
-45.78187391493055
 30
0.0
 10
-38.076056586371521
 20
-45.55415310329861
 30
0.0
 10
-38.331854926215271
 20
-45.495586480034717
 30
0.0
  0
SPLINE
  5
BF
100
AcDbEntity
  8
0
 62
     7
100
AcDbSpline
210
0.0
220
0.0
230
1.0
 70
     8
 71
     3
 72
     8
 73
     4
 74
     0
 42
0.00000001
 43
0.00000001
 40
0.0
 40
0.0
 40
0.0
 40
0.0
 40
1.0
 40
1.0
 40
1.0
 40
1.0
 10
-52.15237223307291
 20
-60.623000759548603
 30
0.0
 10
-52.15237223307291
 20
-60.830050998263886
 30
0.0
 10
-51.984423828124996
 20
-60.998171657986106
 30
0.0
 10
-51.777201334635414
 20
-60.998171657986106
 30
0.0
  0
SPLINE
  5
BE
100
AcDbEntity
  8
0
 62
     7
100
AcDbSpline
210
0.0
220
0.0
230
1.0
 70
     8
 71
     3
 72
     8
 73
     4
 74
     0
 42
0.00000001
 43
0.00000001
 40
0.0
 40
0.0
 40
0.0
 40
0.0
 40
1.0
 40
1.0
 40
1.0
 40
1.0
 10
-51.715017361111109
 20
-45.495586480034717
 30
0.0
 10
-51.970987955729164
 20
-45.55415310329861
 30
0.0
 10
-52.15237223307291
 20
-45.78187391493055
 30
0.0
 10
-52.15237223307291
 20
-46.044045681423604
 30
0.0
  0
SPLINE
  5
BD
100
AcDbEntity
  8
0
 62
     7
100
AcDbSpline
210
0.0
220
0.0
230
1.0
 70
     8
 71
     3
 72
     8
 73
     4
 74
     0
 42
0.00000001
 43
0.00000001
 40
0.0
 40
0.0
 40
0.0
 40
0.0
 40
1.0
 40
1.0
 40
1.0
 40
1.0
 10
51.779440646701381
 20
-60.998171657986106
 30
0.0
 10
51.986490885416664
 20
-60.998171657986106
 30
0.0
 10
52.154611545138884
 20
-60.830050998263886
 30
0.0
 10
52.154611545138884
 20
-60.623000759548603
 30
0.0
  0
SPLINE
  5
BC
100
AcDbEntity
  8
0
 62
     7
100
AcDbSpline
210
0.0
220
0.0
230
1.0
 70
     8
 71
     3
 72
     8
 73
     4
 74
     0
 42
0.00000001
 43
0.00000001
 40
0.0
 40
0.0
 40
0.0
 40
0.0
 40
1.0
 40
1.0
 40
1.0
 40
1.0
 10
52.154611545138884
 20
-46.044045681423604
 30
0.0
 10
52.154611545138884
 20
-45.78187391493055
 30
0.0
 10
51.973055013020826
 20
-45.55415310329861
 30
0.0
 10
51.717428927951381
 20
-45.495586480034717
 30
0.0
  0
SPLINE
  5
BB
100
AcDbEntity
  8
0
 62
     7
100
AcDbSpline
210
0.0
220
0.0
230
1.0
 70
     8
 71
     3
 72
     8
 73
     4
 74
     0
 42
0.00000001
 43
0.00000001
 40
0.0
 40
0.0
 40
0.0
 40
0.0
 40
1.0
 40
1.0
 40
1.0
 40
1.0
 10
-46.08176947699652
 20
-50.83582899305555
 30
0.0
 10
-46.064027235243053
 20
-51.066305881076381
 30
0.0
 10
-45.90710313585069
 20
-51.262676323784717
 30
0.0
 10
-45.686272515190971
 20
-51.330544704861104
 30
0.0
  0
SPLINE
  5
BA
100
AcDbEntity
  8
0
 62
     7
100
AcDbSpline
210
0.0
220
0.0
230
1.0
 70
     8
 71
     3
 72
     8
 73
     4
 74
     0
 42
0.00000001
 43
0.00000001
 40
0.0
 40
0.0
 40
0.0
 40
0.0
 40
1.0
 40
1.0
 40
1.0
 40
1.0
 10
-44.360772026909721
 20
-51.330544704861104
 30
0.0
 10
-44.13976915147569
 20
-51.262676323784717
 30
0.0
 10
-43.982845052083327
 20
-51.066305881076381
 30
0.0
 10
-43.965275065104166
 20
-50.83582899305555
 30
0.0
  0
SPLINE
  5
B9
100
AcDbEntity
  8
0
 62
     7
100
AcDbSpline
210
0.0
220
0.0
230
1.0
 70
     8
 71
     3
 72
     8
 73
     4
 74
     0
 42
0.00000001
 43
0.00000001
 40
0.0
 40
0.0
 40
0.0
 40
0.0
 40
1.0
 40
1.0
 40
1.0
 40
1.0
 10
-45.671975368923604
 20
-30.889415147569441
 30
0.0
 10
-45.904347059461799
 20
-30.959350585937496
 30
0.0
 10
-46.06574978298611
 20
-31.170190429687498
 30
0.0
 10
-46.072467719184026
 20
-31.41306966145833
 30
0.0
  0
SPLINE
  5
B8
100
AcDbEntity
  8
0
 62
     7
100
AcDbSpline
210
0.0
220
0.0
230
1.0
 70
     8
 71
     3
 72
     8
 73
     4
 74
     0
 42
0.00000001
 43
0.00000001
 40
0.0
 40
0.0
 40
0.0
 40
0.0
 40
1.0
 40
1.0
 40
1.0
 40
1.0
 10
-43.97457682291666
 20
-31.41306966145833
 30
0.0
 10
-43.981294759114583
 20
-31.170190429687498
 30
0.0
 10
-44.142697482638887
 20
-30.959350585937496
 30
0.0
 10
-44.375069173177081
 20
-30.889415147569441
 30
0.0
  0
SPLINE
  5
B7
100
AcDbEntity
  8
0
 62
     7
100
AcDbSpline
210
0.0
220
0.0
230
1.0
 70
     8
 71
     3
 72
     8
 73
     4
 74
     0
 42
0.00000001
 43
0.00000001
 40
0.0
 40
0.0
 40
0.0
 40
0.0
 40
1.0
 40
1.0
 40
1.0
 40
1.0
 10
-45.961535644531246
 20
15.862597656249999
 30
0.0
 10
-45.961535644531246
 20
15.638838704427082
 30
0.0
 10
-45.828899468315967
 20
15.436267089843749
 30
0.0
 10
-45.623744032118054
 20
15.346866861979166
 30
0.0
  0
SPLINE
  5
B6
100
AcDbEntity
  8
0
 62
     7
100
AcDbSpline
210
0.0
220
0.0
230
1.0
 70
     8
 71
     3
 72
     8
 73
     4
 74
     0
 42
0.00000001
 43
0.00000001
 40
0.0
 40
0.0
 40
0.0
 40
0.0
 40
1.0
 40
1.0
 40
1.0
 40
1.0
 10
-44.423128255208326
 20
15.346866861979166
 30
0.0
 10
-44.217972819010413
 20
15.436267089843749
 30
0.0
 10
-44.08550889756944
 20
15.638838704427082
 30
0.0
 10
-44.08550889756944
 20
15.862597656249999
 30
0.0
  0
SPLINE
  5
B5
100
AcDbEntity
  8
0
 62
     7
100
AcDbSpline
210
0.0
220
0.0
230
1.0
 70
     8
 71
     3
 72
     8
 73
     4
 74
     0
 42
0.00000001
 43
0.00000001
 40
0.0
 40
0.0
 40
0.0
 40
0.0
 40
1.0
 40
1.0
 40
1.0
 40
1.0
 10
-42.986695692274303
 20
47.035888671874993
 30
0.0
 10
-43.304678005642359
 20
46.941148546006943
 30
0.0
 10
-43.522752549913193
 20
46.648659939236104
 30
0.0
 10
-43.522752549913193
 20
46.3167249891493
 30
0.0
  0
SPLINE
  5
B4
100
AcDbEntity
  8
0
 62
     7
100
AcDbSpline
210
0.0
220
0.0
230
1.0
 70
     8
 71
     3
 72
     8
 73
     4
 74
     0
 42
0.00000001
 43
0.00000001
 40
0.0
 40
0.0
 40
0.0
 40
0.0
 40
1.0
 40
1.0
 40
1.0
 40
1.0
 10
-46.524291992187493
 20
46.3167249891493
 30
0.0
 10
-46.524291992187493
 20
46.648659939236104
 30
0.0
 10
-46.742194281684021
 20
46.941148546006943
 30
0.0
 10
-47.060348849826383
 20
47.035888671874993
 30
0.0
  0
SPLINE
  5
B3
100
AcDbEntity
  8
0
 62
     7
100
AcDbSpline
210
0.0
220
0.0
230
1.0
 70
     8
 71
     3
 72
     8
 73
     4
 74
     0
 42
0.00000001
 43
0.00000001
 40
0.0
 40
0.0
 40
0.0
 40
0.0
 40
1.0
 40
1.0
 40
1.0
 40
1.0
 10
37.896739366319444
 20
-52.180794270833331
 30
0.0
 10
37.896739366319444
 20
-51.766349283854161
 30
0.0
 10
37.560842556423609
 20
-51.430452473958326
 30
0.0
 10
37.146397569444439
 20
-51.430452473958326
 30
0.0
  0
SPLINE
  5
B2
100
AcDbEntity
  8
0
 62
     7
100
AcDbSpline
210
0.0
220
0.0
230
1.0
 70
     8
 71
     3
 72
     8
 73
     4
 74
     0
 42
0.00000001
 43
0.00000001
 40
0.0
 40
0.0
 40
0.0
 40
0.0
 40
1.0
 40
1.0
 40
1.0
 40
1.0
 10
37.896739366319444
 20
-60.623000759548603
 30
0.0
 10
37.896739366319444
 20
-60.830050998263886
 30
0.0
 10
38.064860026041664
 20
-60.998171657986106
 30
0.0
 10
38.27191026475694
 20
-60.998171657986106
 30
0.0
  0
SPLINE
  5
B1
100
AcDbEntity
  8
0
 62
     7
100
AcDbSpline
210
0.0
220
0.0
230
1.0
 70
     8
 71
     3
 72
     8
 73
     4
 74
     0
 42
0.00000001
 43
0.00000001
 40
0.0
 40
0.0
 40
0.0
 40
0.0
 40
1.0
 40
1.0
 40
1.0
 40
1.0
 10
38.334266493055551
 20
-45.495586480034717
 30
0.0
 10
38.078295898437496
 20
-45.55415310329861
 30
0.0
 10
37.896739366319444
 20
-45.78187391493055
 30
0.0
 10
37.896739366319444
 20
-46.044045681423604
 30
0.0
  0
SPLINE
  5
B0
100
AcDbEntity
  8
0
  6
AI9-LType3
 62
     7
100
AcDbSpline
210
0.0
220
0.0
230
1.0
 70
     8
 71
     3
 72
     8
 73
     4
 74
     0
 42
0.00000001
 43
0.00000001
 40
0.0
 40
0.0
 40
0.0
 40
0.0
 40
1.0
 40
1.0
 40
1.0
 40
1.0
 10
-6.5026177300347214
 20
54.467993164062499
 30
0.0
 10
-6.5921902126736107
 20
54.673148600260411
 30
0.0
 10
-6.7947618272569441
 20
54.805612521701384
 30
0.0
 10
-7.0185207790798607
 20
54.805612521701384
 30
0.0
  0
SPLINE
  5
AE
100
AcDbEntity
  8
0
  6
AI9-LType2
 62
     7
100
AcDbSpline
210
0.0
220
0.0
230
1.0
 70
     8
 71
     3
 72
     8
 73
     4
 74
     0
 42
0.00000001
 43
0.00000001
 40
0.0
 40
0.0
 40
0.0
 40
0.0
 40
1.0
 40
1.0
 40
1.0
 40
1.0
 10
-7.0185207790798607
 20
52.929585774739579
 30
0.0
 10
-6.7947618272569441
 20
52.929585774739579
 30
0.0
 10
-6.5921902126736107
 20
53.062221950954857
 30
0.0
 10
-6.5026177300347214
 20
53.26737738715277
 30
0.0
  0
ENDBLK
  5
107
100
AcDbEntity
  8
0
100
AcDbBlockEnd
  0
BLOCK
  5
10A
100
AcDbEntity
  8
0
 62
     7
100
AcDbBlockBegin
  2
AI9-BLK3
 70
     0
 10
0.0
 20
0.0
 30
0.0
  3
AI9-BLK3
  1

  0
LINE
  5
120
100
AcDbEntity
  8
0
 62
     7
100
AcDbLine
 10
4.876188
 20
-1.219564
 30
0.0
 11
14.256322
 21
-1.219564
 31
0.0
  0
LINE
  5
11F
100
AcDbEntity
  8
0
 62
     7
100
AcDbLine
 10
14.181391
 20
2.53249
 30
0.0
 11
4.951291
 21
2.53249
 31
0.0
  0
LINE
  5
11E
100
AcDbEntity
  8
0
 62
     7
100
AcDbLine
 10
5.534546
 20
-2.53249
 30
0.0
 11
13.598136
 21
-2.53249
 31
0.0
  0
LINE
  5
11D
100
AcDbEntity
  8
0
 62
     7
100
AcDbLine
 10
4.876188
 20
2.457731
 30
0.0
 11
4.876188
 21
-1.219564
 31
0.0
  0
LINE
  5
11C
100
AcDbEntity
  8
0
 62
     7
100
AcDbLine
 10
4.876188
 20
-1.219564
 30
0.0
 11
5.173672
 21
-2.260672
 31
0.0
  0
LINE
  5
11B
100
AcDbEntity
  8
0
 62
     7
100
AcDbLine
 10
14.256322
 20
-1.219564
 30
0.0
 11
13.95901
 21
-2.260672
 31
0.0
  0
LINE
  5
11A
100
AcDbEntity
  8
0
 62
     7
100
AcDbLine
 10
14.256322
 20
2.457731
 30
0.0
 11
14.256322
 21
-1.219564
 31
0.0
  0
LINE
  5
119
100
AcDbEntity
  8
0
 62
     7
100
AcDbLine
 10
-4.876016
 20
2.457731
 30
0.0
 11
-4.876016
 21
-1.219564
 31
0.0
  0
LINE
  5
118
100
AcDbEntity
  8
0
 62
     7
100
AcDbLine
 10
-4.876016
 20
-1.219564
 30
0.0
 11
-5.1735
 21
-2.260672
 31
0.0
  0
LINE
  5
117
100
AcDbEntity
  8
0
 62
     7
100
AcDbLine
 10
-14.256322
 20
-1.219564
 30
0.0
 11
-13.958838
 21
-2.260672
 31
0.0
  0
LINE
  5
116
100
AcDbEntity
  8
0
 62
     7
100
AcDbLine
 10
-14.256322
 20
2.457731
 30
0.0
 11
-14.256322
 21
-1.219564
 31
0.0
  0
LINE
  5
115
100
AcDbEntity
  8
0
 62
     7
100
AcDbLine
 10
-13.598136
 20
-2.53249
 30
0.0
 11
-5.534374
 21
-2.53249
 31
0.0
  0
LINE
  5
114
100
AcDbEntity
  8
0
 62
     7
100
AcDbLine
 10
-4.951119
 20
2.53249
 30
0.0
 11
-14.181219
 21
2.53249
 31
0.0
  0
LINE
  5
113
100
AcDbEntity
  8
0
 62
     7
100
AcDbLine
 10
-14.256322
 20
-1.219564
 30
0.0
 11
-4.876016
 21
-1.219564
 31
0.0
  0
SPLINE
  5
112
100
AcDbEntity
  8
0
 62
     7
100
AcDbSpline
210
0.0
220
0.0
230
1.0
 70
     8
 71
     3
 72
     8
 73
     4
 74
     0
 42
0.00000001
 43
0.00000001
 40
0.0
 40
0.0
 40
0.0
 40
0.0
 40
1.0
 40
1.0
 40
1.0
 40
1.0
 10
13.598136393229165
 20
-2.5324896918402775
 30
0.0
 10
13.765740288628471
 20
-2.5324896918402775
 30
0.0
 10
13.912845865885416
 20
-2.4215576171874997
 30
0.0
 10
13.959010145399304
 20
-2.2606716579861108
 30
0.0
  0
SPLINE
  5
111
100
AcDbEntity
  8
0
 62
     7
100
AcDbSpline
210
0.0
220
0.0
230
1.0
 70
     8
 71
     3
 72
     8
 73
     4
 74
     0
 42
0.00000001
 43
0.00000001
 40
0.0
 40
0.0
 40
0.0
 40
0.0
 40
1.0
 40
1.0
 40
1.0
 40
1.0
 10
5.1736721462673607
 20
-2.2606716579861108
 30
0.0
 10
5.2196641710069436
 20
-2.4215576171874997
 30
0.0
 10
5.3669420030381936
 20
-2.5324896918402775
 30
0.0
 10
5.5345458984374991
 20
-2.5324896918402775
 30
0.0
  0
SPLINE
  5
110
100
AcDbEntity
  8
0
 62
     7
100
AcDbSpline
210
0.0
220
0.0
230
1.0
 70
     8
 71
     3
 72
     8
 73
     4
 74
     0
 42
0.00000001
 43
0.00000001
 40
0.0
 40
0.0
 40
0.0
 40
0.0
 40
1.0
 40
1.0
 40
1.0
 40
1.0
 10
14.256321885850694
 20
2.4577311197916663
 30
0.0
 10
14.256321885850694
 20
2.4990722656249997
 30
0.0
 10
14.22273220486111
 20
2.5324896918402775
 30
0.0
 10
14.181391059027776
 20
2.5324896918402775
 30
0.0
  0
SPLINE
  5
10F
100
AcDbEntity
  8
0
 62
     7
100
AcDbSpline
210
0.0
220
0.0
230
1.0
 70
     8
 71
     3
 72
     8
 73
     4
 74
     0
 42
0.00000001
 43
0.00000001
 40
0.0
 40
0.0
 40
0.0
 40
0.0
 40
1.0
 40
1.0
 40
1.0
 40
1.0
 10
4.951291232638888
 20
2.5324896918402775
 30
0.0
 10
4.9097778320312493
 20
2.5324896918402775
 30
0.0
 10
4.8761881510416663
 20
2.4990722656249997
 30
0.0
 10
4.8761881510416663
 20
2.4577311197916663
 30
0.0
  0
SPLINE
  5
10E
100
AcDbEntity
  8
0
 62
     7
100
AcDbSpline
210
0.0
220
0.0
230
1.0
 70
     8
 71
     3
 72
     8
 73
     4
 74
     0
 42
0.00000001
 43
0.00000001
 40
0.0
 40
0.0
 40
0.0
 40
0.0
 40
1.0
 40
1.0
 40
1.0
 40
1.0
 10
-14.18121880425347
 20
2.5324896918402775
 30
0.0
 10
-14.222559950086804
 20
2.5324896918402775
 30
0.0
 10
-14.256321885850694
 20
2.4990722656249997
 30
0.0
 10
-14.256321885850694
 20
2.4577311197916663
 30
0.0
  0
SPLINE
  5
10D
100
AcDbEntity
  8
0
 62
     7
100
AcDbSpline
210
0.0
220
0.0
230
1.0
 70
     8
 71
     3
 72
     8
 73
     4
 74
     0
 42
0.00000001
 43
0.00000001
 40
0.0
 40
0.0
 40
0.0
 40
0.0
 40
1.0
 40
1.0
 40
1.0
 40
1.0
 10
-4.8760158962673605
 20
2.4577311197916663
 30
0.0
 10
-4.8760158962673605
 20
2.4990722656249997
 30
0.0
 10
-4.9097778320312493
 20
2.5324896918402775
 30
0.0
 10
-4.9511189778645832
 20
2.5324896918402775
 30
0.0
  0
SPLINE
  5
10C
100
AcDbEntity
  8
0
 62
     7
100
AcDbSpline
210
0.0
220
0.0
230
1.0
 70
     8
 71
     3
 72
     8
 73
     4
 74
     0
 42
0.00000001
 43
0.00000001
 40
0.0
 40
0.0
 40
0.0
 40
0.0
 40
1.0
 40
1.0
 40
1.0
 40
1.0
 10
-13.958837890624999
 20
-2.2606716579861108
 30
0.0
 10
-13.912845865885416
 20
-2.4215576171874997
 30
0.0
 10
-13.765568033854166
 20
-2.5324896918402775
 30
0.0
 10
-13.598136393229165
 20
-2.5324896918402775
 30
0.0
  0
SPLINE
  5
10B
100
AcDbEntity
  8
0
 62
     7
100
AcDbSpline
210
0.0
220
0.0
230
1.0
 70
     8
 71
     3
 72
     8
 73
     4
 74
     0
 42
0.00000001
 43
0.00000001
 40
0.0
 40
0.0
 40
0.0
 40
0.0
 40
1.0
 40
1.0
 40
1.0
 40
1.0
 10
-5.5343736436631943
 20
-2.5324896918402775
 30
0.0
 10
-5.3667697482638888
 20
-2.5324896918402775
 30
0.0
 10
-5.2196641710069436
 20
-2.4215576171874997
 30
0.0
 10
-5.173499891493055
 20
-2.2606716579861108
 30
0.0
  0
ENDBLK
  5
121
100
AcDbEntity
  8
0
100
AcDbBlockEnd
  0
BLOCK
  5
125
100
AcDbEntity
  8
1
 62
     7
100
AcDbBlockBegin
  2
AI9-BLK4
 70
     0
 10
0.0
 20
0.0
 30
0.0
  3
AI9-BLK4
  1

  0
LINE
  5
135
100
AcDbEntity
  8
1
 62
     7
100
AcDbLine
 10
6.8473
 20
-9.232511
 30
0.0
 11
6.8473
 21
8.027072
 31
0.0
  0
LINE
  5
134
100
AcDbEntity
  8
1
 62
     7
100
AcDbLine
 10
-7.785399
 20
8.027072
 30
0.0
 11
7.785399
 21
8.027072
 31
0.0
  0
LINE
  5
133
100
AcDbEntity
  8
1
 62
     7
100
AcDbLine
 10
-7.785399
 20
-9.232511
 30
0.0
 11
7.785399
 21
-9.232511
 31
0.0
  0
POLYLINE
  5
12E
100
AcDbEntity
  8
1
 62
     7
100
AcDb2dPolyline
 66
     1
 10
0.0
 20
0.0
 30
0.0
 70
     1
  0
VERTEX
  5
12F
100
AcDbEntity
  8
1
 62
     7
100
AcDbVertex
100
AcDb2dVertex
 10
6.415285
 20
-5.949335
 30
0.0
  0
VERTEX
  5
130
100
AcDbEntity
  8
1
 62
     7
100
AcDbVertex
100
AcDb2dVertex
 10
7.279659
 20
-5.949335
 30
0.0
  0
VERTEX
  5
131
100
AcDbEntity
  8
1
 62
     7
100
AcDbVertex
100
AcDb2dVertex
 10
6.8473
 20
-9.232511
 30
0.0
  0
SEQEND
  5
132
100
AcDbEntity
  8
1
 62
     7
  0
HATCH
  5
12D
100
AcDbEntity
  8
1
 62
     2
100
AcDbHatch
 10
0.0
 20
0.0
 30
0.0
210
0.0
220
0.0
230
1.0
  2
SOLID
 70
     1
 71
     0
 91
        1
 92
        3
 72
     0
 73
     1
 93
        3
 10
6.4152845594618046
 20
-5.949335394965277
 10
7.2796590169270825
 20
-5.949335394965277
 10
6.8472995334201379
 20
-9.2325113932291654
 97
        0
 75
     0
 76
     1
 98
        1
 10
0.0
 20
0.0
  0
POLYLINE
  5
128
100
AcDbEntity
  8
1
 62
     7
100
AcDb2dPolyline
 66
     1
 10
0.0
 20
0.0
 30
0.0
 70
     1
  0
VERTEX
  5
129
100
AcDbEntity
  8
1
 62
     7
100
AcDbVertex
100
AcDb2dVertex
 10
7.279659
 20
4.743896
 30
0.0
  0
VERTEX
  5
12A
100
AcDbEntity
  8
1
 62
     7
100
AcDbVertex
100
AcDb2dVertex
 10
6.415285
 20
4.743896
 30
0.0
  0
VERTEX
  5
12B
100
AcDbEntity
  8
1
 62
     7
100
AcDbVertex
100
AcDb2dVertex
 10
6.8473
 20
8.027072
 30
0.0
  0
SEQEND
  5
12C
100
AcDbEntity
  8
1
 62
     7
  0
HATCH
  5
127
100
AcDbEntity
  8
1
 62
     2
100
AcDbHatch
 10
0.0
 20
0.0
 30
0.0
210
0.0
220
0.0
230
1.0
  2
SOLID
 70
     1
 71
     0
 91
        1
 92
        3
 72
     0
 73
     1
 93
        3
 10
7.2796590169270825
 20
4.743896484375
 10
6.4152845594618046
 20
4.743896484375
 10
6.8472995334201379
 20
8.0270724826388875
 97
        0
 75
     0
 76
     1
 98
        1
 10
0.0
 20
0.0
  0
MTEXT
  5
126
100
AcDbEntity
  8
1
 62
     7
100
AcDbMText
 10
1.771427
 20
-3.841282
 30
0.0
 40
3.283045
 41
0.0
 71
     1
 72
     2
  1
\W0.90;\fMS Gothic|b0|i0|c128;n46
  7
STD
210
0.0
220
0.0
230
1.0
 11
0.0
 21
1.0
 31
0.0
 73
     1
 44
1.0
  0
ENDBLK
  5
136
100
AcDbEntity
  8
1
100
AcDbBlockEnd
  0
BLOCK
  5
139
100
AcDbEntity
  8
1
 62
     7
100
AcDbBlockBegin
  2
AI9-BLK5
 70
     0
 10
0.0
 20
0.0
 30
0.0
  3
AI9-BLK5
  1

  0
LINE
  5
144
100
AcDbEntity
  8
1
 62
     7
100
AcDbLine
 10
-0.656635
 20
-16.133727
 30
0.0
 11
5.909372
 21
-16.133727
 31
0.0
  0
LINE
  5
143
100
AcDbEntity
  8
1
 62
     7
100
AcDbLine
 10
-5.909372
 20
-16.133727
 30
0.0
 11
-0.656635
 21
-16.133727
 31
0.0
  0
LINE
  5
142
100
AcDbEntity
  8
1
 62
     7
100
AcDbLine
 10
-0.656635
 20
17.071826
 30
0.0
 11
-0.656635
 21
-17.071826
 31
0.0
  0
LINE
  5
141
100
AcDbEntity
  8
1
 62
     7
100
AcDbLine
 10
-5.909372
 20
12.006502
 30
0.0
 11
-5.909372
 21
-17.071826
 31
0.0
  0
POLYLINE
  5
13C
100
AcDbEntity
  8
1
 62
     7
100
AcDb2dPolyline
 66
     1
 10
0.0
 20
0.0
 30
0.0
 70
     1
  0
VERTEX
  5
13D
100
AcDbEntity
  8
1
 62
     7
100
AcDbVertex
100
AcDb2dVertex
 10
2.626196
 20
-15.701367
 30
0.0
  0
VERTEX
  5
13E
100
AcDbEntity
  8
1
 62
     7
100
AcDbVertex
100
AcDb2dVertex
 10
2.626196
 20
-16.565742
 30
0.0
  0
VERTEX
  5
13F
100
AcDbEntity
  8
1
 62
     7
100
AcDbVertex
100
AcDb2dVertex
 10
-0.656635
 20
-16.133727
 30
0.0
  0
SEQEND
  5
140
100
AcDbEntity
  8
1
 62
     7
  0
HATCH
  5
13B
100
AcDbEntity
  8
1
 62
     2
100
AcDbHatch
 10
0.0
 20
0.0
 30
0.0
210
0.0
220
0.0
230
1.0
  2
SOLID
 70
     1
 71
     0
 91
        1
 92
        3
 72
     0
 73
     1
 93
        3
 10
2.6261962890624999
 20
-15.701367187499999
 10
2.6261962890624999
 20
-16.565741644965275
 10
-0.6566351996527777
 20
-16.133726671006944
 97
        0
 75
     0
 76
     1
 98
        1
 10
0.0
 20
0.0
  0
MTEXT
  5
13A
100
AcDbEntity
  8
1
 62
     7
100
AcDbMText
 10
-5.253082
 20
-11.057854
 30
0.0
 40
3.283045
 41
0.0
 71
     1
 72
     2
  1
\W0.90;\fMS Gothic|b0|i0|c128;14
  7
STD
210
0.0
220
0.0
230
1.0
 11
1.000001
 21
0.0
 31
0.0
 73
     1
 44
1.0
  0
ENDBLK
  5
145
100
AcDbEntity
  8
1
100
AcDbBlockEnd
  0
BLOCK
  5
148
100
AcDbEntity
  8
1
 62
     7
100
AcDbBlockBegin
  2
AI9-BLK6
 70
     0
 10
0.0
 20
0.0
 30
0.0
  3
AI9-BLK6
  1

  0
LINE
  5
159
100
AcDbEntity
  8
1
 62
     7
100
AcDbLine
 10
-2.641355
 20
-4.03748
 30
0.0
 11
11.442196
 21
-4.03748
 31
0.0
  0
LINE
  5
158
100
AcDbEntity
  8
1
 62
     7
100
AcDbLine
 10
-16.899055
 20
-4.03748
 30
0.0
 11
-2.641355
 21
-4.03748
 31
0.0
  0
LINE
  5
157
100
AcDbEntity
  8
1
 62
     7
100
AcDbLine
 10
-2.641355
 20
4.975235
 30
0.0
 11
-2.641355
 21
-4.975235
 31
0.0
  0
LINE
  5
156
100
AcDbEntity
  8
1
 62
     7
100
AcDbLine
 10
-16.899055
 20
4.975235
 30
0.0
 11
-16.899055
 21
-4.975235
 31
0.0
  0
POLYLINE
  5
151
100
AcDbEntity
  8
1
 62
     7
100
AcDb2dPolyline
 66
     1
 10
0.0
 20
0.0
 30
0.0
 70
     1
  0
VERTEX
  5
152
100
AcDbEntity
  8
1
 62
     7
100
AcDbVertex
100
AcDb2dVertex
 10
-13.616051
 20
-3.60512
 30
0.0
  0
VERTEX
  5
153
100
AcDbEntity
  8
1
 62
     7
100
AcDbVertex
100
AcDb2dVertex
 10
-13.616051
 20
-4.469495
 30
0.0
  0
VERTEX
  5
154
100
AcDbEntity
  8
1
 62
     7
100
AcDbVertex
100
AcDb2dVertex
 10
-16.899055
 20
-4.03748
 30
0.0
  0
SEQEND
  5
155
100
AcDbEntity
  8
1
 62
     7
  0
HATCH
  5
150
100
AcDbEntity
  8
1
 62
     2
100
AcDbHatch
 10
0.0
 20
0.0
 30
0.0
210
0.0
220
0.0
230
1.0
  2
SOLID
 70
     1
 71
     0
 91
        1
 92
        3
 72
     0
 73
     1
 93
        3
 10
-13.616050889756943
 20
-3.605120171440972
 10
-13.616050889756943
 20
-4.4694946289062498
 10
-16.899054633246525
 20
-4.0374796549479166
 97
        0
 75
     0
 76
     1
 98
        1
 10
0.0
 20
0.0
  0
POLYLINE
  5
14B
100
AcDbEntity
  8
1
 62
     7
100
AcDb2dPolyline
 66
     1
 10
0.0
 20
0.0
 30
0.0
 70
     1
  0
VERTEX
  5
14C
100
AcDbEntity
  8
1
 62
     7
100
AcDbVertex
100
AcDb2dVertex
 10
-5.924358
 20
-4.469495
 30
0.0
  0
VERTEX
  5
14D
100
AcDbEntity
  8
1
 62
     7
100
AcDbVertex
100
AcDb2dVertex
 10
-5.924358
 20
-3.60512
 30
0.0
  0
VERTEX
  5
14E
100
AcDbEntity
  8
1
 62
     7
100
AcDbVertex
100
AcDb2dVertex
 10
-2.641355
 20
-4.03748
 30
0.0
  0
SEQEND
  5
14F
100
AcDbEntity
  8
1
 62
     7
  0
HATCH
  5
14A
100
AcDbEntity
  8
1
 62
     2
100
AcDbHatch
 10
0.0
 20
0.0
 30
0.0
210
0.0
220
0.0
230
1.0
  2
SOLID
 70
     1
 71
     0
 91
        1
 92
        3
 72
     0
 73
     1
 93
        3
 10
-5.9243584526909716
 20
-4.4694946289062498
 10
-5.9243584526909716
 20
-3.605120171440972
 10
-2.6413547092013885
 20
-4.0374796549479166
 97
        0
 75
     0
 76
     1
 98
        1
 10
0.0
 20
0.0
  0
MTEXT
  5
149
100
AcDbEntity
  8
1
 62
     7
100
AcDbMText
 10
3.825434
 20
1.038737
 30
0.0
 40
3.283045
 41
0.0
 71
     1
 72
     2
  1
\W0.90;\fMS Gothic|b0|i0|c128;n38
  7
STD
210
0.0
220
0.0
230
1.0
 11
1.000001
 21
0.0
 31
0.0
 73
     1
 44
1.0
  0
ENDBLK
  5
15A
100
AcDbEntity
  8
1
100
AcDbBlockEnd
  0
BLOCK
  5
15D
100
AcDbEntity
  8
1
 62
     7
100
AcDbBlockBegin
  2
AI9-BLK7
 70
     0
 10
0.0
 20
0.0
 30
0.0
  3
AI9-BLK7
  1

  0
LINE
  5
16D
100
AcDbEntity
  8
1
 62
     7
100
AcDbLine
 10
12.006675
 20
-13.601065
 30
0.0
 11
-12.006675
 21
-13.601065
 31
0.0
  0
LINE
  5
16C
100
AcDbEntity
  8
1
 62
     7
100
AcDbLine
 10
-12.006675
 20
-1.406805
 30
0.0
 11
-12.006675
 21
-14.539164
 31
0.0
  0
LINE
  5
16B
100
AcDbEntity
  8
1
 62
     7
100
AcDbLine
 10
12.006675
 20
14.539164
 30
0.0
 11
12.006675
 21
-14.539164
 31
0.0
  0
POLYLINE
  5
166
100
AcDbEntity
  8
1
 62
     7
100
AcDb2dPolyline
 66
     1
 10
0.0
 20
0.0
 30
0.0
 70
     1
  0
VERTEX
  5
167
100
AcDbEntity
  8
1
 62
     7
100
AcDbVertex
100
AcDb2dVertex
 10
8.723499
 20
-14.03308
 30
0.0
  0
VERTEX
  5
168
100
AcDbEntity
  8
1
 62
     7
100
AcDbVertex
100
AcDb2dVertex
 10
8.723499
 20
-13.168705
 30
0.0
  0
VERTEX
  5
169
100
AcDbEntity
  8
1
 62
     7
100
AcDbVertex
100
AcDb2dVertex
 10
12.006675
 20
-13.601065
 30
0.0
  0
SEQEND
  5
16A
100
AcDbEntity
  8
1
 62
     7
  0
HATCH
  5
165
100
AcDbEntity
  8
1
 62
     2
100
AcDbHatch
 10
0.0
 20
0.0
 30
0.0
210
0.0
220
0.0
230
1.0
  2
SOLID
 70
     1
 71
     0
 91
        1
 92
        3
 72
     0
 73
     1
 93
        3
 10
8.7234985351562493
 20
-14.033079698350694
 10
8.7234985351562493
 20
-13.168705240885416
 10
12.006674533420139
 20
-13.60106472439236
 97
        0
 75
     0
 76
     1
 98
        1
 10
0.0
 20
0.0
  0
POLYLINE
  5
160
100
AcDbEntity
  8
1
 62
     7
100
AcDb2dPolyline
 66
     1
 10
0.0
 20
0.0
 30
0.0
 70
     1
  0
VERTEX
  5
161
100
AcDbEntity
  8
1
 62
     7
100
AcDbVertex
100
AcDb2dVertex
 10
-8.723499
 20
-13.168705
 30
0.0
  0
VERTEX
  5
162
100
AcDbEntity
  8
1
 62
     7
100
AcDbVertex
100
AcDb2dVertex
 10
-8.723499
 20
-14.03308
 30
0.0
  0
VERTEX
  5
163
100
AcDbEntity
  8
1
 62
     7
100
AcDbVertex
100
AcDb2dVertex
 10
-12.006675
 20
-13.601065
 30
0.0
  0
SEQEND
  5
164
100
AcDbEntity
  8
1
 62
     7
  0
HATCH
  5
15F
100
AcDbEntity
  8
1
 62
     2
100
AcDbHatch
 10
0.0
 20
0.0
 30
0.0
210
0.0
220
0.0
230
1.0
  2
SOLID
 70
     1
 71
     0
 91
        1
 92
        3
 72
     0
 73
     1
 93
        3
 10
-8.7234985351562493
 20
-13.168705240885416
 10
-8.7234985351562493
 20
-14.033079698350694
 10
-12.006674533420139
 20
-13.60106472439236
 97
        0
 75
     0
 76
     1
 98
        1
 10
0.0
 20
0.0
  0
MTEXT
  5
15E
100
AcDbEntity
  8
1
 62
     7
100
AcDbMText
 10
-2.413806
 20
-8.525192
 30
0.0
 40
3.283045
 41
0.0
 71
     1
 72
     2
  1
\W0.90;\fMS Gothic|b0|i0|c128;64
  7
STD
210
0.0
220
0.0
230
1.0
 11
1.000001
 21
0.0
 31
0.0
 73
     1
 44
1.0
  0
ENDBLK
  5
16E
100
AcDbEntity
  8
1
100
AcDbBlockEnd
  0
BLOCK
  5
171
100
AcDbEntity
  8
1
 62
     7
100
AcDbBlockBegin
  2
AI9-BLK8
 70
     0
 10
0.0
 20
0.0
 30
0.0
  3
AI9-BLK8
  1

  0
LINE
  5
181
100
AcDbEntity
  8
1
 62
     7
100
AcDbLine
 10
31.89211
 20
-5.62808
 30
0.0
 11
-31.891938
 21
-5.62808
 31
0.0
  0
LINE
  5
180
100
AcDbEntity
  8
1
 62
     7
100
AcDbLine
 10
-31.891938
 20
0.937927
 30
0.0
 11
-31.891938
 21
-6.56618
 31
0.0
  0
LINE
  5
17F
100
AcDbEntity
  8
1
 62
     7
100
AcDbLine
 10
31.89211
 20
6.56618
 30
0.0
 11
31.89211
 21
-6.56618
 31
0.0
  0
POLYLINE
  5
17A
100
AcDbEntity
  8
1
 62
     7
100
AcDb2dPolyline
 66
     1
 10
0.0
 20
0.0
 30
0.0
 70
     1
  0
VERTEX
  5
17B
100
AcDbEntity
  8
1
 62
     7
100
AcDbVertex
100
AcDb2dVertex
 10
28.609279
 20
-6.060095
 30
0.0
  0
VERTEX
  5
17C
100
AcDbEntity
  8
1
 62
     7
100
AcDbVertex
100
AcDb2dVertex
 10
28.609279
 20
-5.195721
 30
0.0
  0
VERTEX
  5
17D
100
AcDbEntity
  8
1
 62
     7
100
AcDbVertex
100
AcDb2dVertex
 10
31.89211
 20
-5.62808
 30
0.0
  0
SEQEND
  5
17E
100
AcDbEntity
  8
1
 62
     7
  0
HATCH
  5
179
100
AcDbEntity
  8
1
 62
     2
100
AcDbHatch
 10
0.0
 20
0.0
 30
0.0
210
0.0
220
0.0
230
1.0
  2
SOLID
 70
     1
 71
     0
 91
        1
 92
        3
 72
     0
 73
     1
 93
        3
 10
28.609278700086804
 20
-6.0600952148437495
 10
28.609278700086804
 20
-5.1957207573784716
 10
31.892110188802082
 20
-5.6280802408854163
 97
        0
 75
     0
 76
     1
 98
        1
 10
0.0
 20
0.0
  0
POLYLINE
  5
174
100
AcDbEntity
  8
1
 62
     7
100
AcDb2dPolyline
 66
     1
 10
0.0
 20
0.0
 30
0.0
 70
     1
  0
VERTEX
  5
175
100
AcDbEntity
  8
1
 62
     7
100
AcDbVertex
100
AcDb2dVertex
 10
-28.608934
 20
-5.195721
 30
0.0
  0
VERTEX
  5
176
100
AcDbEntity
  8
1
 62
     7
100
AcDbVertex
100
AcDb2dVertex
 10
-28.608934
 20
-6.060095
 30
0.0
  0
VERTEX
  5
177
100
AcDbEntity
  8
1
 62
     7
100
AcDbVertex
100
AcDb2dVertex
 10
-31.891938
 20
-5.62808
 30
0.0
  0
SEQEND
  5
178
100
AcDbEntity
  8
1
 62
     7
  0
HATCH
  5
173
100
AcDbEntity
  8
1
 62
     2
100
AcDbHatch
 10
0.0
 20
0.0
 30
0.0
210
0.0
220
0.0
230
1.0
  2
SOLID
 70
     1
 71
     0
 91
        1
 92
        3
 72
     0
 73
     1
 93
        3
 10
-28.608934190538193
 20
-5.1957207573784716
 10
-28.608934190538193
 20
-6.0600952148437495
 10
-31.891937934027776
 20
-5.6280802408854163
 97
        0
 75
     0
 76
     1
 98
        1
 10
0.0
 20
0.0
  0
MTEXT
  5
172
100
AcDbEntity
  8
1
 62
     7
100
AcDbMText
 10
-6.319511
 20
-0.552208
 30
0.0
 40
3.283045
 41
0.0
 71
     1
 72
     2
  1
\W0.90;\fMS Gothic|b0|i0|c128;170
  7
STD
210
0.0
220
0.0
230
1.0
 11
1.000001
 21
0.0
 31
0.0
 73
     1
 44
1.0
  0
ENDBLK
  5
182
100
AcDbEntity
  8
1
100
AcDbBlockEnd
  0
BLOCK
  5
185
100
AcDbEntity
  8
1
 62
     7
100
AcDbBlockBegin
  2
AI9-BLK9
 70
     0
 10
0.0
 20
0.0
 30
0.0
  3
AI9-BLK9
  1

  0
LINE
  5
195
100
AcDbEntity
  8
1
 62
     7
100
AcDbLine
 10
-6.124691
 20
18.760267
 30
0.0
 11
-6.124691
 21
-18.760267
 31
0.0
  0
LINE
  5
194
100
AcDbEntity
  8
1
 62
     7
100
AcDbLine
 10
1.567002
 20
-18.760267
 30
0.0
 11
-7.06279
 21
-18.760267
 31
0.0
  0
LINE
  5
193
100
AcDbEntity
  8
1
 62
     7
100
AcDbLine
 10
11.885235
 20
18.760267
 30
0.0
 11
-7.06279
 21
18.760267
 31
0.0
  0
POLYLINE
  5
18E
100
AcDbEntity
  8
1
 62
     7
100
AcDb2dPolyline
 66
     1
 10
0.0
 20
0.0
 30
0.0
 70
     1
  0
VERTEX
  5
18F
100
AcDbEntity
  8
1
 62
     7
100
AcDbVertex
100
AcDb2dVertex
 10
-5.692504
 20
15.477091
 30
0.0
  0
VERTEX
  5
190
100
AcDbEntity
  8
1
 62
     7
100
AcDbVertex
100
AcDb2dVertex
 10
-6.556878
 20
15.477091
 30
0.0
  0
VERTEX
  5
191
100
AcDbEntity
  8
1
 62
     7
100
AcDbVertex
100
AcDb2dVertex
 10
-6.124691
 20
18.760267
 30
0.0
  0
SEQEND
  5
192
100
AcDbEntity
  8
1
 62
     7
  0
HATCH
  5
18D
100
AcDbEntity
  8
1
 62
     2
100
AcDbHatch
 10
0.0
 20
0.0
 30
0.0
210
0.0
220
0.0
230
1.0
  2
SOLID
 70
     1
 71
     0
 91
        1
 92
        3
 72
     0
 73
     1
 93
        3
 10
-5.6925035264756936
 20
15.477091471354166
 10
-6.5568779839409714
 20
15.477091471354166
 10
-6.1246907552083325
 20
18.760267469618054
 97
        0
 75
     0
 76
     1
 98
        1
 10
0.0
 20
0.0
  0
POLYLINE
  5
188
100
AcDbEntity
  8
1
 62
     7
100
AcDb2dPolyline
 66
     1
 10
0.0
 20
0.0
 30
0.0
 70
     1
  0
VERTEX
  5
189
100
AcDbEntity
  8
1
 62
     7
100
AcDbVertex
100
AcDb2dVertex
 10
-6.556878
 20
-15.477436
 30
0.0
  0
VERTEX
  5
18A
100
AcDbEntity
  8
1
 62
     7
100
AcDbVertex
100
AcDb2dVertex
 10
-5.692504
 20
-15.477436
 30
0.0
  0
VERTEX
  5
18B
100
AcDbEntity
  8
1
 62
     7
100
AcDbVertex
100
AcDb2dVertex
 10
-6.124691
 20
-18.760267
 30
0.0
  0
SEQEND
  5
18C
100
AcDbEntity
  8
1
 62
     7
  0
HATCH
  5
187
100
AcDbEntity
  8
1
 62
     2
100
AcDbHatch
 10
0.0
 20
0.0
 30
0.0
210
0.0
220
0.0
230
1.0
  2
SOLID
 70
     1
 71
     0
 91
        1
 92
        3
 72
     0
 73
     1
 93
        3
 10
-6.5568779839409714
 20
-15.477435980902776
 10
-5.6925035264756936
 20
-15.477435980902776
 10
-6.1246907552083325
 20
-18.760267469618054
 97
        0
 75
     0
 76
     1
 98
        1
 10
0.0
 20
0.0
  0
MTEXT
  5
186
100
AcDbEntity
  8
1
 62
     7
100
AcDbMText
 10
-11.200735
 20
-3.160531
 30
0.0
 40
3.283045
 41
0.0
 71
     1
 72
     2
  1
\W0.90;\fMS Gothic|b0|i0|c128;100
  7
STD
210
0.0
220
0.0
230
1.0
 11
0.0
 21
1.0
 31
0.0
 73
     1
 44
1.0
  0
ENDBLK
  5
196
100
AcDbEntity
  8
1
100
AcDbBlockEnd
  0
BLOCK
  5
199
100
AcDbEntity
  8
1
 62
     7
100
AcDbBlockBegin
  2
AI9-BLK10
 70
     0
 10
0.0
 20
0.0
 30
0.0
  3
AI9-BLK10
  1

  0
LINE
  5
1A9
100
AcDbEntity
  8
1
 62
     7
100
AcDbLine
 10
-4.110171
 20
13.694944
 30
0.0
 11
-4.110171
 21
-13.694944
 31
0.0
  0
LINE
  5
1A8
100
AcDbEntity
  8
1
 62
     7
100
AcDbLine
 10
9.870715
 20
-13.694944
 30
0.0
 11
-5.048271
 21
-13.694944
 31
0.0
  0
LINE
  5
1A7
100
AcDbEntity
  8
1
 62
     7
100
AcDbLine
 10
3.581521
 20
13.694944
 30
0.0
 11
-5.048271
 21
13.694944
 31
0.0
  0
POLYLINE
  5
1A2
100
AcDbEntity
  8
1
 62
     7
100
AcDb2dPolyline
 66
     1
 10
0.0
 20
0.0
 30
0.0
 70
     1
  0
VERTEX
  5
1A3
100
AcDbEntity
  8
1
 62
     7
100
AcDbVertex
100
AcDb2dVertex
 10
-3.677984
 20
10.411768
 30
0.0
  0
VERTEX
  5
1A4
100
AcDbEntity
  8
1
 62
     7
100
AcDbVertex
100
AcDb2dVertex
 10
-4.542358
 20
10.411768
 30
0.0
  0
VERTEX
  5
1A5
100
AcDbEntity
  8
1
 62
     7
100
AcDbVertex
100
AcDb2dVertex
 10
-4.110171
 20
13.694944
 30
0.0
  0
SEQEND
  5
1A6
100
AcDbEntity
  8
1
 62
     7
  0
HATCH
  5
1A1
100
AcDbEntity
  8
1
 62
     2
100
AcDbHatch
 10
0.0
 20
0.0
 30
0.0
210
0.0
220
0.0
230
1.0
  2
SOLID
 70
     1
 71
     0
 91
        1
 92
        3
 72
     0
 73
     1
 93
        3
 10
-3.6779839409722217
 20
10.411767578125
 10
-4.5423583984375
 20
10.411767578125
 10
-4.1101711697048611
 20
13.694943576388887
 97
        0
 75
     0
 76
     1
 98
        1
 10
0.0
 20
0.0
  0
POLYLINE
  5
19C
100
AcDbEntity
  8
1
 62
     7
100
AcDb2dPolyline
 66
     1
 10
0.0
 20
0.0
 30
0.0
 70
     1
  0
VERTEX
  5
19D
100
AcDbEntity
  8
1
 62
     7
100
AcDbVertex
100
AcDb2dVertex
 10
-4.542358
 20
-10.412112
 30
0.0
  0
VERTEX
  5
19E
100
AcDbEntity
  8
1
 62
     7
100
AcDbVertex
100
AcDb2dVertex
 10
-3.677984
 20
-10.412112
 30
0.0
  0
VERTEX
  5
19F
100
AcDbEntity
  8
1
 62
     7
100
AcDbVertex
100
AcDb2dVertex
 10
-4.110171
 20
-13.694944
 30
0.0
  0
SEQEND
  5
1A0
100
AcDbEntity
  8
1
 62
     7
  0
HATCH
  5
19B
100
AcDbEntity
  8
1
 62
     2
100
AcDbHatch
 10
0.0
 20
0.0
 30
0.0
210
0.0
220
0.0
230
1.0
  2
SOLID
 70
     1
 71
     0
 91
        1
 92
        3
 72
     0
 73
     1
 93
        3
 10
-4.5423583984375
 20
-10.412112087673609
 10
-3.6779839409722217
 20
-10.412112087673609
 10
-4.1101711697048611
 20
-13.694943576388887
 97
        0
 75
     0
 76
     1
 98
        1
 10
0.0
 20
0.0
  0
MTEXT
  5
19A
100
AcDbEntity
  8
1
 62
     7
100
AcDbMText
 10
-9.186216
 20
-2.104609
 30
0.0
 40
3.283045
 41
0.0
 71
     1
 72
     2
  1
\W0.90;\fMS Gothic|b0|i0|c128;73
  7
STD
210
0.0
220
0.0
230
1.0
 11
0.0
 21
1.0
 31
0.0
 73
     1
 44
1.0
  0
ENDBLK
  5
1AA
100
AcDbEntity
  8
1
100
AcDbBlockEnd
  0
BLOCK
  5
1AD
100
AcDbEntity
  8
1
 62
     7
100
AcDbBlockBegin
  2
AI9-BLK11
 70
     0
 10
0.0
 20
0.0
 30
0.0
  3
AI9-BLK11
  1

  0
LINE
  5
1BD
100
AcDbEntity
  8
1
 62
     7
100
AcDbLine
 10
8.442206
 20
16.25508
 30
0.0
 11
-8.442206
 21
16.25508
 31
0.0
  0
LINE
  5
1BC
100
AcDbEntity
  8
1
 62
     7
100
AcDbLine
 10
-8.442206
 20
-4.5688
 30
0.0
 11
-8.442206
 21
17.19318
 31
0.0
  0
LINE
  5
1BB
100
AcDbEntity
  8
1
 62
     7
100
AcDbLine
 10
8.442206
 20
-22.015797
 30
0.0
 11
8.442206
 21
17.19318
 31
0.0
  0
POLYLINE
  5
1B6
100
AcDbEntity
  8
1
 62
     7
100
AcDb2dPolyline
 66
     1
 10
0.0
 20
0.0
 30
0.0
 70
     1
  0
VERTEX
  5
1B7
100
AcDbEntity
  8
1
 62
     7
100
AcDbVertex
100
AcDb2dVertex
 10
5.15903
 20
15.822893
 30
0.0
  0
VERTEX
  5
1B8
100
AcDbEntity
  8
1
 62
     7
100
AcDbVertex
100
AcDb2dVertex
 10
5.15903
 20
16.68744
 30
0.0
  0
VERTEX
  5
1B9
100
AcDbEntity
  8
1
 62
     7
100
AcDbVertex
100
AcDb2dVertex
 10
8.442206
 20
16.25508
 30
0.0
  0
SEQEND
  5
1BA
100
AcDbEntity
  8
1
 62
     7
  0
HATCH
  5
1B5
100
AcDbEntity
  8
1
 62
     2
100
AcDbHatch
 10
0.0
 20
0.0
 30
0.0
210
0.0
220
0.0
230
1.0
  2
SOLID
 70
     1
 71
     0
 91
        1
 92
        3
 72
     0
 73
     1
 93
        3
 10
5.1590304904513884
 20
15.822892930772568
 10
5.1590304904513884
 20
16.687439643012151
 10
8.4422064887152768
 20
16.255080159505209
 97
        0
 75
     0
 76
     1
 98
        1
 10
0.0
 20
0.0
  0
POLYLINE
  5
1B0
100
AcDbEntity
  8
1
 62
     7
100
AcDb2dPolyline
 66
     1
 10
0.0
 20
0.0
 30
0.0
 70
     1
  0
VERTEX
  5
1B1
100
AcDbEntity
  8
1
 62
     7
100
AcDbVertex
100
AcDb2dVertex
 10
-5.15903
 20
16.68744
 30
0.0
  0
VERTEX
  5
1B2
100
AcDbEntity
  8
1
 62
     7
100
AcDbVertex
100
AcDb2dVertex
 10
-5.15903
 20
15.822893
 30
0.0
  0
VERTEX
  5
1B3
100
AcDbEntity
  8
1
 62
     7
100
AcDbVertex
100
AcDb2dVertex
 10
-8.442206
 20
16.25508
 30
0.0
  0
SEQEND
  5
1B4
100
AcDbEntity
  8
1
 62
     7
  0
HATCH
  5
1AF
100
AcDbEntity
  8
1
 62
     2
100
AcDbHatch
 10
0.0
 20
0.0
 30
0.0
210
0.0
220
0.0
230
1.0
  2
SOLID
 70
     1
 71
     0
 91
        1
 92
        3
 72
     0
 73
     1
 93
        3
 10
-5.1590304904513884
 20
16.687439643012151
 10
-5.1590304904513884
 20
15.822892930772568
 10
-8.4422064887152768
 20
16.255080159505209
 97
        0
 75
     0
 76
     1
 98
        1
 10
0.0
 20
0.0
  0
MTEXT
  5
1AE
100
AcDbEntity
  8
1
 62
     7
100
AcDbMText
 10
-3.114366
 20
21.331125
 30
0.0
 40
3.283045
 41
0.0
 71
     1
 72
     2
  1
\W0.90;\fMS Gothic|b0|i0|c128;45
  7
STD
210
0.0
220
0.0
230
1.0
 11
1.000001
 21
0.0
 31
0.0
 73
     1
 44
1.0
  0
ENDBLK
  5
1BE
100
AcDbEntity
  8
1
100
AcDbBlockEnd
  0
BLOCK
  5
1C1
100
AcDbEntity
  8
1
 62
     7
100
AcDbBlockBegin
  2
AI9-BLK12
 70
     0
 10
0.0
 20
0.0
 30
0.0
  3
AI9-BLK12
  1

  0
LINE
  5
1D1
100
AcDbEntity
  8
1
 62
     7
100
AcDbLine
 10
19.323024
 20
7.531582
 30
0.0
 11
-19.323024
 21
7.531582
 31
0.0
  0
LINE
  5
1D0
100
AcDbEntity
  8
1
 62
     7
100
AcDbLine
 10
-19.323024
 20
-7.101461
 30
0.0
 11
-19.323024
 21
8.469681
 31
0.0
  0
LINE
  5
1CF
100
AcDbEntity
  8
1
 62
     7
100
AcDbLine
 10
19.323024
 20
-13.292298
 30
0.0
 11
19.323024
 21
8.469681
 31
0.0
  0
POLYLINE
  5
1CA
100
AcDbEntity
  8
1
 62
     7
100
AcDb2dPolyline
 66
     1
 10
0.0
 20
0.0
 30
0.0
 70
     1
  0
VERTEX
  5
1CB
100
AcDbEntity
  8
1
 62
     7
100
AcDbVertex
100
AcDb2dVertex
 10
16.039848
 20
7.099394
 30
0.0
  0
VERTEX
  5
1CC
100
AcDbEntity
  8
1
 62
     7
100
AcDbVertex
100
AcDb2dVertex
 10
16.039848
 20
7.963941
 30
0.0
  0
VERTEX
  5
1CD
100
AcDbEntity
  8
1
 62
     7
100
AcDbVertex
100
AcDb2dVertex
 10
19.323024
 20
7.531582
 30
0.0
  0
SEQEND
  5
1CE
100
AcDbEntity
  8
1
 62
     7
  0
HATCH
  5
1C9
100
AcDbEntity
  8
1
 62
     2
100
AcDbHatch
 10
0.0
 20
0.0
 30
0.0
210
0.0
220
0.0
230
1.0
  2
SOLID
 70
     1
 71
     0
 91
        1
 92
        3
 72
     0
 73
     1
 93
        3
 10
16.039847819010415
 20
7.0993943956163186
 10
16.039847819010415
 20
7.9639411078559021
 10
19.323023817274304
 20
7.5315816243489575
 97
        0
 75
     0
 76
     1
 98
        1
 10
0.0
 20
0.0
  0
POLYLINE
  5
1C4
100
AcDbEntity
  8
1
 62
     7
100
AcDb2dPolyline
 66
     1
 10
0.0
 20
0.0
 30
0.0
 70
     1
  0
VERTEX
  5
1C5
100
AcDbEntity
  8
1
 62
     7
100
AcDbVertex
100
AcDb2dVertex
 10
-16.040192
 20
7.963941
 30
0.0
  0
VERTEX
  5
1C6
100
AcDbEntity
  8
1
 62
     7
100
AcDbVertex
100
AcDb2dVertex
 10
-16.040192
 20
7.099394
 30
0.0
  0
VERTEX
  5
1C7
100
AcDbEntity
  8
1
 62
     7
100
AcDbVertex
100
AcDb2dVertex
 10
-19.323024
 20
7.531582
 30
0.0
  0
SEQEND
  5
1C8
100
AcDbEntity
  8
1
 62
     7
  0
HATCH
  5
1C3
100
AcDbEntity
  8
1
 62
     2
100
AcDbHatch
 10
0.0
 20
0.0
 30
0.0
210
0.0
220
0.0
230
1.0
  2
SOLID
 70
     1
 71
     0
 91
        1
 92
        3
 72
     0
 73
     1
 93
        3
 10
-16.040192328559026
 20
7.9639411078559021
 10
-16.040192328559026
 20
7.0993943956163186
 10
-19.323023817274304
 20
7.5315816243489575
 97
        0
 75
     0
 76
     1
 98
        1
 10
0.0
 20
0.0
  0
MTEXT
  5
1C2
100
AcDbEntity
  8
1
 62
     7
100
AcDbMText
 10
-2.778297
 20
12.607626
 30
0.0
 40
3.283045
 41
0.0
 71
     1
 72
     2
  1
\W0.90;\fMS Gothic|b0|i0|c128;103
  7
STD
210
0.0
220
0.0
230
1.0
 11
1.000001
 21
0.0
 31
0.0
 73
     1
 44
1.0
  0
ENDBLK
  5
1D2
100
AcDbEntity
  8
1
100
AcDbBlockEnd
  0
BLOCK
  5
261
100
AcDbEntity
  8
1
 62
     7
100
AcDbBlockBegin
  2
AI9-BLK13
 70
     0
 10
0.0
 20
0.0
 30
0.0
  3
AI9-BLK13
  1

  0
CIRCLE
  5
262
100
AcDbEntity
  8
1
 62
     7
100
AcDbCircle
 10
0.0
 20
0.0
 30
0.0
 40
0.012058
  0
ENDBLK
  5
263
100
AcDbEntity
  8
1
100
AcDbBlockEnd
  0
BLOCK
  5
266
100
AcDbEntity
  8
1
 62
     7
100
AcDbBlockBegin
  2
AI9-BLK14
 70
     0
 10
0.0
 20
0.0
 30
0.0
  3
AI9-BLK14
  1

  0
CIRCLE
  5
267
100
AcDbEntity
  8
1
 62
     7
100
AcDbCircle
 10
0.0
 20
0.0
 30
0.0
 40
0.012058
  0
ENDBLK
  5
268
100
AcDbEntity
  8
1
100
AcDbBlockEnd
  0
BLOCK
  5
26B
100
AcDbEntity
  8
1
 62
     7
100
AcDbBlockBegin
  2
AI9-BLK15
 70
     0
 10
0.0
 20
0.0
 30
0.0
  3
AI9-BLK15
  1

  0
CIRCLE
  5
26C
100
AcDbEntity
  8
1
 62
     7
100
AcDbCircle
 10
0.0
 20
0.0
 30
0.0
 40
0.012058
  0
ENDBLK
  5
26D
100
AcDbEntity
  8
1
100
AcDbBlockEnd
  0
BLOCK
  5
270
100
AcDbEntity
  8
1
 62
     7
100
AcDbBlockBegin
  2
AI9-BLK16
 70
     0
 10
0.0
 20
0.0
 30
0.0
  3
AI9-BLK16
  1

  0
CIRCLE
  5
271
100
AcDbEntity
  8
1
 62
     7
100
AcDbCircle
 10
0.0
 20
0.0
 30
0.0
 40
0.012058
  0
ENDBLK
  5
272
100
AcDbEntity
  8
1
100
AcDbBlockEnd
  0
BLOCK
  5
275
100
AcDbEntity
  8
1
 62
     7
100
AcDbBlockBegin
  2
AI9-BLK17
 70
     0
 10
0.0
 20
0.0
 30
0.0
  3
AI9-BLK17
  1

  0
ELLIPSE
  5
276
100
AcDbEntity
  8
1
 62
     7
100
AcDbEllipse
 10
0.0
 20
-0.000345
 30
0.0
 11
0.0120578342013889
 21
0.0
 31
0.0
210
0.0
220
0.0
230
1.0
 40
0.971429
 41
0.0
 42
6.2831853071795862
  0
ENDBLK
  5
277
100
AcDbEntity
  8
1
100
AcDbBlockEnd
  0
BLOCK
  5
27A
100
AcDbEntity
  8
1
 62
     7
100
AcDbBlockBegin
  2
AI9-BLK18
 70
     0
 10
0.0
 20
0.0
 30
0.0
  3
AI9-BLK18
  1

  0
CIRCLE
  5
27B
100
AcDbEntity
  8
1
 62
     7
100
AcDbCircle
 10
0.0
 20
0.0
 30
0.0
 40
0.012058
  0
ENDBLK
  5
27C
100
AcDbEntity
  8
1
100
AcDbBlockEnd
  0
BLOCK
  5
27F
100
AcDbEntity
  8
1
 62
     7
100
AcDbBlockBegin
  2
AI9-BLK19
 70
     0
 10
0.0
 20
0.0
 30
0.0
  3
AI9-BLK19
  1

  0
CIRCLE
  5
280
100
AcDbEntity
  8
1
 62
     7
100
AcDbCircle
 10
0.0
 20
0.0
 30
0.0
 40
0.012058
  0
ENDBLK
  5
281
100
AcDbEntity
  8
1
100
AcDbBlockEnd
  0
BLOCK
  5
284
100
AcDbEntity
  8
1
 62
     7
100
AcDbBlockBegin
  2
AI9-BLK20
 70
     0
 10
0.0
 20
0.0
 30
0.0
  3
AI9-BLK20
  1

  0
ELLIPSE
  5
285
100
AcDbEntity
  8
1
 62
     7
100
AcDbEllipse
 10
0.0
 20
-0.000172
 30
0.0
 11
0.0120578342013889
 21
0.0
 31
0.0
210
0.0
220
0.0
230
1.0
 40
0.971429
 41
0.0
 42
6.2831853071795862
  0
ENDBLK
  5
286
100
AcDbEntity
  8
1
100
AcDbBlockEnd
  0
BLOCK
  5
289
100
AcDbEntity
  8
1
 62
     7
100
AcDbBlockBegin
  2
AI9-BLK21
 70
     0
 10
0.0
 20
0.0
 30
0.0
  3
AI9-BLK21
  1

  0
CIRCLE
  5
28A
100
AcDbEntity
  8
1
 62
     7
100
AcDbCircle
 10
0.0
 20
0.0
 30
0.0
 40
0.012058
  0
ENDBLK
  5
28B
100
AcDbEntity
  8
1
100
AcDbBlockEnd
  0
BLOCK
  5
28E
100
AcDbEntity
  8
1
 62
     7
100
AcDbBlockBegin
  2
AI9-BLK22
 70
     0
 10
0.0
 20
0.0
 30
0.0
  3
AI9-BLK22
  1

  0
CIRCLE
  5
28F
100
AcDbEntity
  8
1
 62
     7
100
AcDbCircle
 10
0.0
 20
0.0
 30
0.0
 40
0.012058
  0
ENDBLK
  5
290
100
AcDbEntity
  8
1
100
AcDbBlockEnd
  0
BLOCK
  5
293
100
AcDbEntity
  8
1
 62
     7
100
AcDbBlockBegin
  2
AI9-BLK23
 70
     0
 10
0.0
 20
0.0
 30
0.0
  3
AI9-BLK23
  1

  0
ELLIPSE
  5
294
100
AcDbEntity
  8
1
 62
     7
100
AcDbEllipse
 10
0.0
 20
0.0
 30
0.0
 11
0.0001722547743056
 21
-0.0120578342013889
 31
0.0
210
0.0
220
0.0
230
1.0
 40
0.985614
 41
0.0
 42
6.2831853071795862
  0
ENDBLK
  5
295
100
AcDbEntity
  8
1
100
AcDbBlockEnd
  0
BLOCK
  5
298
100
AcDbEntity
  8
1
 62
     7
100
AcDbBlockBegin
  2
AI9-BLK24
 70
     0
 10
0.0
 20
0.0
 30
0.0
  3
AI9-BLK24
  1

  0
CIRCLE
  5
299
100
AcDbEntity
  8
1
 62
     7
100
AcDbCircle
 10
0.0
 20
0.0
 30
0.0
 40
0.012058
  0
ENDBLK
  5
29A
100
AcDbEntity
  8
1
100
AcDbBlockEnd
  0
BLOCK
  5
29D
100
AcDbEntity
  8
1
 62
     7
100
AcDbBlockBegin
  2
AI9-BLK25
 70
     0
 10
0.0
 20
0.0
 30
0.0
  3
AI9-BLK25
  1

  0
CIRCLE
  5
29E
100
AcDbEntity
  8
1
 62
     7
100
AcDbCircle
 10
0.0
 20
0.0
 30
0.0
 40
0.012058
  0
ENDBLK
  5
29F
100
AcDbEntity
  8
1
100
AcDbBlockEnd
  0
BLOCK
  5
2A2
100
AcDbEntity
  8
1
 62
     7
100
AcDbBlockBegin
  2
AI9-BLK26
 70
     0
 10
0.0
 20
0.0
 30
0.0
  3
AI9-BLK26
  1

  0
CIRCLE
  5
2A3
100
AcDbEntity
  8
1
 62
     7
100
AcDbCircle
 10
0.0
 20
0.0
 30
0.0
 40
0.012058
  0
ENDBLK
  5
2A4
100
AcDbEntity
  8
1
100
AcDbBlockEnd
  0
BLOCK
  5
2A7
100
AcDbEntity
  8
1
 62
     7
100
AcDbBlockBegin
  2
AI9-BLK27
 70
     0
 10
0.0
 20
0.0
 30
0.0
  3
AI9-BLK27
  1

  0
CIRCLE
  5
2A8
100
AcDbEntity
  8
1
 62
     7
100
AcDbCircle
 10
0.0
 20
0.0
 30
0.0
 40
0.012058
  0
ENDBLK
  5
2A9
100
AcDbEntity
  8
1
100
AcDbBlockEnd
  0
BLOCK
  5
2AC
100
AcDbEntity
  8
1
 62
     7
100
AcDbBlockBegin
  2
AI9-BLK28
 70
     0
 10
0.0
 20
0.0
 30
0.0
  3
AI9-BLK28
  1

  0
CIRCLE
  5
2AD
100
AcDbEntity
  8
1
 62
     7
100
AcDbCircle
 10
0.0
 20
0.0
 30
0.0
 40
0.012058
  0
ENDBLK
  5
2AE
100
AcDbEntity
  8
1
100
AcDbBlockEnd
  0
BLOCK
  5
2B1
100
AcDbEntity
  8
1
 62
     7
100
AcDbBlockBegin
  2
AI9-BLK29
 70
     0
 10
0.0
 20
0.0
 30
0.0
  3
AI9-BLK29
  1

  0
ELLIPSE
  5
2B2
100
AcDbEntity
  8
1
 62
     7
100
AcDbEllipse
 10
0.0
 20
0.0
 30
0.0
 11
0.0001722547743056
 21
-0.0120578342013889
 31
0.0
210
0.0
220
0.0
230
1.0
 40
0.985614
 41
0.0
 42
6.2831853071795862
  0
ENDBLK
  5
2B3
100
AcDbEntity
  8
1
100
AcDbBlockEnd
  0
BLOCK
  5
2B6
100
AcDbEntity
  8
1
 62
     7
100
AcDbBlockBegin
  2
AI9-BLK30
 70
     0
 10
0.0
 20
0.0
 30
0.0
  3
AI9-BLK30
  1

  0
CIRCLE
  5
2B7
100
AcDbEntity
  8
1
 62
     7
100
AcDbCircle
 10
0.0
 20
0.0
 30
0.0
 40
0.012058
  0
ENDBLK
  5
2B8
100
AcDbEntity
  8
1
100
AcDbBlockEnd
  0
BLOCK
  5
2BB
100
AcDbEntity
  8
1
 62
     7
100
AcDbBlockBegin
  2
AI9-BLK31
 70
     0
 10
0.0
 20
0.0
 30
0.0
  3
AI9-BLK31
  1

  0
CIRCLE
  5
2BC
100
AcDbEntity
  8
1
 62
     7
100
AcDbCircle
 10
0.0
 20
0.0
 30
0.0
 40
0.012058
  0
ENDBLK
  5
2BD
100
AcDbEntity
  8
1
100
AcDbBlockEnd
  0
BLOCK
  5
2C0
100
AcDbEntity
  8
1
 62
     7
100
AcDbBlockBegin
  2
AI9-BLK32
 70
     0
 10
0.0
 20
0.0
 30
0.0
  3
AI9-BLK32
  1

  0
CIRCLE
  5
2C1
100
AcDbEntity
  8
1
 62
     7
100
AcDbCircle
 10
0.0
 20
0.0
 30
0.0
 40
0.012058
  0
ENDBLK
  5
2C2
100
AcDbEntity
  8
1
100
AcDbBlockEnd
  0
BLOCK
  5
2C5
100
AcDbEntity
  8
1
 62
     7
100
AcDbBlockBegin
  2
AI9-BLK33
 70
     0
 10
0.0
 20
0.0
 30
0.0
  3
AI9-BLK33
  1

  0
CIRCLE
  5
2C6
100
AcDbEntity
  8
1
 62
     7
100
AcDbCircle
 10
0.0
 20
0.0
 30
0.0
 40
0.012058
  0
ENDBLK
  5
2C7
100
AcDbEntity
  8
1
100
AcDbBlockEnd
  0
BLOCK
  5
2CA
100
AcDbEntity
  8
1
 62
     7
100
AcDbBlockBegin
  2
AI9-BLK34
 70
     0
 10
0.0
 20
0.0
 30
0.0
  3
AI9-BLK34
  1

  0
CIRCLE
  5
2CB
100
AcDbEntity
  8
1
 62
     7
100
AcDbCircle
 10
0.0
 20
0.0
 30
0.0
 40
0.012058
  0
ENDBLK
  5
2CC
100
AcDbEntity
  8
1
100
AcDbBlockEnd
  0
BLOCK
  5
2CF
100
AcDbEntity
  8
1
 62
     7
100
AcDbBlockBegin
  2
AI9-BLK35
 70
     0
 10
0.0
 20
0.0
 30
0.0
  3
AI9-BLK35
  1

  0
CIRCLE
  5
2D0
100
AcDbEntity
  8
1
 62
     7
100
AcDbCircle
 10
0.0
 20
0.0
 30
0.0
 40
0.012058
  0
ENDBLK
  5
2D1
100
AcDbEntity
  8
1
100
AcDbBlockEnd
  0
BLOCK
  5
2D4
100
AcDbEntity
  8
1
 62
     7
100
AcDbBlockBegin
  2
AI9-BLK36
 70
     0
 10
0.0
 20
0.0
 30
0.0
  3
AI9-BLK36
  1

  0
CIRCLE
  5
2D5
100
AcDbEntity
  8
1
 62
     7
100
AcDbCircle
 10
0.0
 20
0.0
 30
0.0
 40
0.012058
  0
ENDBLK
  5
2D6
100
AcDbEntity
  8
1
100
AcDbBlockEnd
  0
BLOCK
  5
2D9
100
AcDbEntity
  8
1
 62
     7
100
AcDbBlockBegin
  2
AI9-BLK37
 70
     0
 10
0.0
 20
0.0
 30
0.0
  3
AI9-BLK37
  1

  0
CIRCLE
  5
2DA
100
AcDbEntity
  8
1
 62
     7
100
AcDbCircle
 10
0.0
 20
0.0
 30
0.0
 40
0.012058
  0
ENDBLK
  5
2DB
100
AcDbEntity
  8
1
100
AcDbBlockEnd
  0
BLOCK
  5
2DE
100
AcDbEntity
  8
1
 62
     7
100
AcDbBlockBegin
  2
AI9-BLK38
 70
     0
 10
0.0
 20
0.0
 30
0.0
  3
AI9-BLK38
  1

  0
CIRCLE
  5
2DF
100
AcDbEntity
  8
1
 62
     7
100
AcDbCircle
 10
0.0
 20
0.0
 30
0.0
 40
0.012058
  0
ENDBLK
  5
2E0
100
AcDbEntity
  8
1
100
AcDbBlockEnd
  0
BLOCK
  5
2E3
100
AcDbEntity
  8
1
 62
     7
100
AcDbBlockBegin
  2
AI9-BLK39
 70
     0
 10
0.0
 20
0.0
 30
0.0
  3
AI9-BLK39
  1

  0
LINE
  5
323
100
AcDbEntity
  8
1
 62
     7
100
AcDbLine
 10
-40.483059
 20
1.61351
 30
0.0
 11
-42.718409
 21
1.61351
 31
0.0
  0
LINE
  5
322
100
AcDbEntity
  8
1
 62
     7
100
AcDbLine
 10
-40.483059
 20
-0.926214
 30
0.0
 11
-42.718409
 21
-0.926214
 31
0.0
  0
LINE
  5
321
100
AcDbEntity
  8
1
 62
     7
100
AcDbLine
 10
-46.853557
 20
1.61351
 30
0.0
 11
-45.73614
 21
1.61351
 31
0.0
  0
LINE
  5
320
100
AcDbEntity
  8
1
 62
     7
100
AcDbLine
 10
-46.853557
 20
-0.926214
 30
0.0
 11
-45.73614
 21
-0.926214
 31
0.0
  0
LINE
  5
31F
100
AcDbEntity
  8
1
 62
     7
100
AcDbLine
 10
-45.73614
 20
1.61351
 30
0.0
 11
-45.73614
 21
-0.926214
 31
0.0
  0
LINE
  5
31E
100
AcDbEntity
  8
1
 62
     7
100
AcDbLine
 10
-42.718409
 20
1.61351
 30
0.0
 11
-42.718409
 21
-0.926214
 31
0.0
  0
LINE
  5
31D
100
AcDbEntity
  8
1
 62
     7
100
AcDbLine
 10
-37.4655
 20
1.61351
 30
0.0
 11
-36.347911
 21
1.61351
 31
0.0
  0
LINE
  5
31C
100
AcDbEntity
  8
1
 62
     7
100
AcDbLine
 10
-37.4655
 20
-0.926214
 30
0.0
 11
-36.347911
 21
-0.926214
 31
0.0
  0
LINE
  5
31B
100
AcDbEntity
  8
1
 62
     7
100
AcDbLine
 10
-40.483059
 20
-0.926214
 30
0.0
 11
-40.483059
 21
1.61351
 31
0.0
  0
LINE
  5
31A
100
AcDbEntity
  8
1
 62
     7
100
AcDbLine
 10
-37.4655
 20
-0.926214
 30
0.0
 11
-37.4655
 21
1.61351
 31
0.0
  0
LINE
  5
319
100
AcDbEntity
  8
1
 62
     7
100
AcDbLine
 10
-36.347911
 20
1.61351
 30
0.0
 11
-36.347911
 21
2.030712
 31
0.0
  0
LINE
  5
318
100
AcDbEntity
  8
1
 62
     7
100
AcDbLine
 10
-36.347911
 20
-0.926214
 30
0.0
 11
-36.347911
 21
1.61351
 31
0.0
  0
LINE
  5
317
100
AcDbEntity
  8
1
  6
AI9-LType3
 62
     7
100
AcDbLine
 10
-46.103215
 20
-2.063784
 30
0.0
 11
-46.052917
 21
-2.063784
 31
0.0
  0
LINE
  5
316
100
AcDbEntity
  8
1
  6
AI9-LType3
 62
     7
100
AcDbLine
 10
-46.146623
 20
-2.038291
 30
0.0
 11
-46.103215
 21
-2.063784
 31
0.0
  0
LINE
  5
315
100
AcDbEntity
  8
1
 62
     7
100
AcDbLine
 10
-46.665972
 20
-1.738567
 30
0.0
 11
-46.146623
 21
-2.038291
 31
0.0
  0
LINE
  5
314
100
AcDbEntity
  8
1
 62
     7
100
AcDbLine
 10
-46.853557
 20
2.030712
 30
0.0
 11
-46.853557
 21
-1.596285
 31
0.0
  0
LINE
  5
313
100
AcDbEntity
  8
1
 62
     7
100
AcDbLine
 10
-36.347911
 20
-1.596285
 30
0.0
 11
-36.347911
 21
-0.926214
 31
0.0
  0
LINE
  5
312
100
AcDbEntity
  8
1
 62
     7
100
AcDbLine
 10
-37.054672
 20
-2.038291
 30
0.0
 11
-36.535496
 21
-1.738567
 31
0.0
  0
LINE
  5
311
100
AcDbEntity
  8
1
  6
AI9-LType3
 62
     7
100
AcDbLine
 10
-37.098252
 20
-2.063784
 30
0.0
 11
-37.054672
 21
-2.038291
 31
0.0
  0
LINE
  5
310
100
AcDbEntity
  8
1
  6
AI9-LType3
 62
     7
100
AcDbLine
 10
-37.148551
 20
-2.063784
 30
0.0
 11
-37.098252
 21
-2.063784
 31
0.0
  0
LINE
  5
30F
100
AcDbEntity
  8
1
 62
     7
100
AcDbLine
 10
-46.052917
 20
-2.063784
 30
0.0
 11
-37.148551
 21
-2.063784
 31
0.0
  0
LINE
  5
30E
100
AcDbEntity
  8
1
 62
     7
100
AcDbLine
 10
-36.51672
 20
2.063784
 30
0.0
 11
-46.684747
 21
2.063784
 31
0.0
  0
LINE
  5
30D
100
AcDbEntity
  8
1
 62
     7
100
AcDbLine
 10
39.577343
 20
1.61351
 30
0.0
 11
39.577343
 21
-0.926214
 31
0.0
  0
LINE
  5
30C
100
AcDbEntity
  8
1
 62
     7
100
AcDbLine
 10
39.577343
 20
-0.926214
 30
0.0
 11
37.641544
 21
-0.926214
 31
0.0
  0
LINE
  5
30B
100
AcDbEntity
  8
1
 62
     7
100
AcDbLine
 10
35.899359
 20
1.61351
 30
0.0
 11
35.899359
 21
-0.926214
 31
0.0
  0
LINE
  5
30A
100
AcDbEntity
  8
1
 62
     7
100
AcDbLine
 10
35.899359
 20
-0.926214
 30
0.0
 11
35.785326
 21
-0.926214
 31
0.0
  0
LINE
  5
309
100
AcDbEntity
  8
1
 62
     7
100
AcDbLine
 10
35.785326
 20
1.61351
 30
0.0
 11
35.899359
 21
1.61351
 31
0.0
  0
LINE
  5
308
100
AcDbEntity
  8
1
 62
     7
100
AcDbLine
 10
37.641544
 20
-0.926214
 30
0.0
 11
37.641544
 21
1.61351
 31
0.0
  0
LINE
  5
307
100
AcDbEntity
  8
1
 62
     7
100
AcDbLine
 10
39.577343
 20
1.61351
 30
0.0
 11
37.641544
 21
1.61351
 31
0.0
  0
LINE
  5
306
100
AcDbEntity
  8
1
 62
     7
100
AcDbLine
 10
36.254548
 20
-1.738567
 30
0.0
 11
36.773724
 21
-2.038291
 31
0.0
  0
LINE
  5
305
100
AcDbEntity
  8
1
 62
     7
100
AcDbLine
 10
35.785326
 20
1.61351
 30
0.0
 11
35.785326
 21
-0.926214
 31
0.0
  0
LINE
  5
304
100
AcDbEntity
  8
1
 62
     7
100
AcDbLine
 10
46.853729
 20
-0.926214
 30
0.0
 11
46.853729
 21
1.61351
 31
0.0
  0
LINE
  5
303
100
AcDbEntity
  8
1
 62
     7
100
AcDbLine
 10
36.867431
 20
-2.063784
 30
0.0
 11
45.771625
 21
-2.063784
 31
0.0
  0
LINE
  5
302
100
AcDbEntity
  8
1
 62
     7
100
AcDbLine
 10
45.865676
 20
-2.038291
 30
0.0
 11
46.384852
 21
-1.738567
 31
0.0
  0
LINE
  5
301
100
AcDbEntity
  8
1
 62
     7
100
AcDbLine
 10
44.997512
 20
1.61351
 30
0.0
 11
43.062057
 21
1.61351
 31
0.0
  0
LINE
  5
300
100
AcDbEntity
  8
1
 62
     7
100
AcDbLine
 10
44.997512
 20
1.61351
 30
0.0
 11
44.997512
 21
-0.926214
 31
0.0
  0
LINE
  5
2FF
100
AcDbEntity
  8
1
 62
     7
100
AcDbLine
 10
46.739697
 20
1.61351
 30
0.0
 11
46.853729
 21
1.61351
 31
0.0
  0
LINE
  5
2FE
100
AcDbEntity
  8
1
 62
     7
100
AcDbLine
 10
46.853729
 20
-0.926214
 30
0.0
 11
46.739697
 21
-0.926214
 31
0.0
  0
LINE
  5
2FD
100
AcDbEntity
  8
1
 62
     7
100
AcDbLine
 10
46.739697
 20
-0.926214
 30
0.0
 11
46.739697
 21
1.61351
 31
0.0
  0
LINE
  5
2FC
100
AcDbEntity
  8
1
 62
     7
100
AcDbLine
 10
44.997512
 20
-0.926214
 30
0.0
 11
43.062057
 21
-0.926214
 31
0.0
  0
LINE
  5
2FB
100
AcDbEntity
  8
1
 62
     7
100
AcDbLine
 10
43.062057
 20
-0.926214
 30
0.0
 11
43.062057
 21
1.61351
 31
0.0
  0
LINE
  5
2FA
100
AcDbEntity
  8
1
 62
     7
100
AcDbLine
 10
46.403455
 20
2.063784
 30
0.0
 11
36.2356
 21
2.063784
 31
0.0
  0
SPLINE
  5
2F9
100
AcDbEntity
  8
1
 62
     7
100
AcDbSpline
210
0.0
220
0.0
230
1.0
 70
     8
 71
     3
 72
     8
 73
     4
 74
     0
 42
0.00000001
 43
0.00000001
 40
0.0
 40
0.0
 40
0.0
 40
0.0
 40
1.0
 40
1.0
 40
1.0
 40
1.0
 10
-42.718408881293399
 20
1.6135104709201387
 30
0.0
 10
-43.647206624348954
 20
2.1698933919270833
 30
0.0
 10
-44.807170274522562
 20
2.1698933919270833
 30
0.0
 10
-45.736140272352429
 20
1.6135104709201387
 30
0.0
  0
SPLINE
  5
2F8
100
AcDbEntity
  8
1
 62
     7
100
AcDbSpline
210
0.0
220
0.0
230
1.0
 70
     8
 71
     3
 72
    11
 73
     7
 74
     0
 42
0.00000001
 43
0.00000001
 40
0.0
 40
0.0
 40
0.0
 40
0.0
 40
1.0
 40
1.0
 40
1.0
 40
2.0
 40
2.0
 40
2.0
 40
2.0
 10
-45.736140272352429
 20
-0.9262139214409721
 30
0.0
 10
-44.971329074435758
 20
-1.7595825195312498
 30
0.0
 10
-43.675800916883674
 20
-1.8153930664062499
 30
0.0
 10
-42.842604573567705
 20
-1.0505818684895833
 30
0.0
 10
-42.799368625217006
 20
-1.0109632703993054
 30
0.0
 10
-42.758027479383678
 20
-0.9696221245659722
 30
0.0
 10
-42.718408881293399
 20
-0.9262139214409721
 30
0.0
  0
SPLINE
  5
2F7
100
AcDbEntity
  8
1
 62
     7
100
AcDbSpline
210
0.0
220
0.0
230
1.0
 70
     8
 71
     3
 72
     8
 73
     4
 74
     0
 42
0.00000001
 43
0.00000001
 40
0.0
 40
0.0
 40
0.0
 40
0.0
 40
1.0
 40
1.0
 40
1.0
 40
1.0
 10
-37.465499538845485
 20
1.6135104709201387
 30
0.0
 10
-38.394297281901039
 20
2.1698933919270833
 30
0.0
 10
-39.554260932074648
 20
2.1698933919270833
 30
0.0
 10
-40.483058675130202
 20
1.6135104709201387
 30
0.0
  0
SPLINE
  5
2F6
100
AcDbEntity
  8
1
 62
     7
100
AcDbSpline
210
0.0
220
0.0
230
1.0
 70
     8
 71
     3
 72
    11
 73
     7
 74
     0
 42
0.00000001
 43
0.00000001
 40
0.0
 40
0.0
 40
0.0
 40
0.0
 40
1.0
 40
1.0
 40
1.0
 40
2.0
 40
2.0
 40
2.0
 40
2.0
 10
-40.483058675130202
 20
-0.9262139214409721
 30
0.0
 10
-39.718419731987844
 20
-1.7595825195312498
 30
0.0
 10
-38.423063829210065
 20
-1.8153930664062499
 30
0.0
 10
-37.589695231119791
 20
-1.0505818684895833
 30
0.0
 10
-37.546459282769092
 20
-1.0109632703993054
 30
0.0
 10
-37.505118136935764
 20
-0.9696221245659722
 30
0.0
 10
-37.465499538845485
 20
-0.9262139214409721
 30
0.0
  0
SPLINE
  5
2F5
100
AcDbEntity
  8
1
 62
     7
100
AcDbSpline
210
0.0
220
0.0
230
1.0
 70
     8
 71
     3
 72
     8
 73
     4
 74
     0
 42
0.00000001
 43
0.00000001
 40
0.0
 40
0.0
 40
0.0
 40
0.0
 40
1.0
 40
1.0
 40
1.0
 40
1.0
 10
-46.684747314453119
 20
2.0637844509548611
 30
0.0
 10
-46.742624918619789
 20
2.0637844509548611
 30
0.0
 10
-46.799985758463535
 20
2.0524156358506942
 30
0.0
 10
-46.853556993272562
 20
2.0307115342881943
 30
0.0
  0
SPLINE
  5
2F4
100
AcDbEntity
  8
1
 62
     7
100
AcDbSpline
210
0.0
220
0.0
230
1.0
 70
     8
 71
     3
 72
     8
 73
     4
 74
     0
 42
0.00000001
 43
0.00000001
 40
0.0
 40
0.0
 40
0.0
 40
0.0
 40
1.0
 40
1.0
 40
1.0
 40
1.0
 10
-36.347910563151039
 20
2.0307115342881943
 30
0.0
 10
-36.401481797960066
 20
2.0524156358506942
 30
0.0
 10
-36.458842637803819
 20
2.0637844509548611
 30
0.0
 10
-36.516720241970482
 20
2.0637844509548611
 30
0.0
  0
SPLINE
  5
2F3
100
AcDbEntity
  8
1
 62
     7
100
AcDbSpline
210
0.0
220
0.0
230
1.0
 70
     8
 71
     3
 72
    11
 73
     7
 74
     0
 42
0.00000001
 43
0.00000001
 40
0.0
 40
0.0
 40
0.0
 40
0.0
 40
1.0
 40
1.0
 40
1.0
 40
2.0
 40
2.0
 40
2.0
 40
2.0
 10
35.899359130859374
 20
-0.9262139214409721
 30
0.0
 10
36.031995307074652
 20
-1.4074937608506943
 30
0.0
 10
36.529811604817702
 20
-1.6899915907118055
 30
0.0
 10
37.010746934678814
 20
-1.5570109049479166
 30
0.0
 10
37.317704942491318
 20
-1.4722615559895833
 30
0.0
 10
37.557139078776039
 20
-1.232827419704861
 30
0.0
 10
37.641543918185761
 20
-0.9262139214409721
 30
0.0
  0
SPLINE
  5
2F2
100
AcDbEntity
  8
1
 62
     7
100
AcDbSpline
210
0.0
220
0.0
230
1.0
 70
     8
 71
     3
 72
    11
 73
     7
 74
     0
 42
0.00000001
 43
0.00000001
 40
0.0
 40
0.0
 40
0.0
 40
0.0
 40
1.0
 40
1.0
 40
1.0
 40
2.0
 40
2.0
 40
2.0
 40
2.0
 10
37.641543918185761
 20
1.6135104709201387
 30
0.0
 10
37.255004204644095
 20
2.0944458007812496
 30
0.0
 10
36.551171196831596
 20
2.1709269205729163
 30
0.0
 10
36.070235866970485
 20
1.7840426974826387
 30
0.0
 10
36.007190619574651
 20
1.7337443033854165
 30
0.0
 10
35.950002034505204
 20
1.6762112087673608
 30
0.0
 10
35.899359130859374
 20
1.6135104709201387
 30
0.0
  0
SPLINE
  5
2F1
100
AcDbEntity
  8
1
 62
     7
100
AcDbSpline
210
0.0
220
0.0
230
1.0
 70
     8
 71
     3
 72
     8
 73
     4
 74
     0
 42
0.00000001
 43
0.00000001
 40
0.0
 40
0.0
 40
0.0
 40
0.0
 40
1.0
 40
1.0
 40
1.0
 40
1.0
 10
36.235600450303814
 20
2.0637844509548611
 30
0.0
 10
35.986864556206591
 20
2.0637844509548611
 30
0.0
 10
35.785326470269091
 20
1.8619018554687499
 30
0.0
 10
35.785326470269091
 20
1.6135104709201387
 30
0.0
  0
SPLINE
  5
2F0
100
AcDbEntity
  8
1
 62
     7
100
AcDbSpline
210
0.0
220
0.0
230
1.0
 70
     8
 71
     3
 72
     8
 73
     4
 74
     0
 42
0.00000001
 43
0.00000001
 40
0.0
 40
0.0
 40
0.0
 40
0.0
 40
1.0
 40
1.0
 40
1.0
 40
1.0
 10
46.853729248046868
 20
1.6135104709201387
 30
0.0
 10
46.853729248046868
 20
1.8619018554687499
 30
0.0
 10
46.652191162109368
 20
2.0637844509548611
 30
0.0
 10
46.403455268012145
 20
2.0637844509548611
 30
0.0
  0
SPLINE
  5
2EF
100
AcDbEntity
  8
1
 62
     7
100
AcDbSpline
210
0.0
220
0.0
230
1.0
 70
     8
 71
     3
 72
     8
 73
     4
 74
     0
 42
0.00000001
 43
0.00000001
 40
0.0
 40
0.0
 40
0.0
 40
0.0
 40
1.0
 40
1.0
 40
1.0
 40
1.0
 10
43.062057156032985
 20
1.6135104709201387
 30
0.0
 10
41.966861300998261
 20
2.1698933919270833
 30
0.0
 10
40.672194417317705
 20
2.1698933919270833
 30
0.0
 10
39.577343071831592
 20
1.6135104709201387
 30
0.0
  0
SPLINE
  5
2EE
100
AcDbEntity
  8
1
 62
     7
100
AcDbSpline
210
0.0
220
0.0
230
1.0
 70
     8
 71
     3
 72
    11
 73
     7
 74
     0
 42
0.00000001
 43
0.00000001
 40
0.0
 40
0.0
 40
0.0
 40
0.0
 40
1.0
 40
1.0
 40
1.0
 40
2.0
 40
2.0
 40
2.0
 40
2.0
 10
46.739696587456592
 20
1.6135104709201387
 30
0.0
 10
46.353156873914926
 20
2.0944458007812496
 30
0.0
 10
45.649323866102428
 20
2.1709269205729163
 30
0.0
 10
45.168388536241316
 20
1.7840426974826387
 30
0.0
 10
45.105343288845482
 20
1.7337443033854165
 30
0.0
 10
45.048154703776035
 20
1.6762112087673608
 30
0.0
 10
44.997511800130205
 20
1.6135104709201387
 30
0.0
  0
SPLINE
  5
2ED
100
AcDbEntity
  8
1
 62
     7
100
AcDbSpline
210
0.0
220
0.0
230
1.0
 70
     8
 71
     3
 72
    11
 73
     7
 74
     0
 42
0.00000001
 43
0.00000001
 40
0.0
 40
0.0
 40
0.0
 40
0.0
 40
1.0
 40
1.0
 40
1.0
 40
2.0
 40
2.0
 40
2.0
 40
2.0
 10
44.997511800130205
 20
-0.9262139214409721
 30
0.0
 10
45.130492485894095
 20
-1.4074937608506943
 30
0.0
 10
45.627964274088541
 20
-1.6899915907118055
 30
0.0
 10
46.109244113498256
 20
-1.5570109049479166
 30
0.0
 10
46.415857611762149
 20
-1.4722615559895833
 30
0.0
 10
46.655291748046871
 20
-1.232827419704861
 30
0.0
 10
46.739696587456592
 20
-0.9262139214409721
 30
0.0
  0
SPLINE
  5
2EC
100
AcDbEntity
  8
1
 62
     7
100
AcDbSpline
210
0.0
220
0.0
230
1.0
 70
     8
 71
     3
 72
     8
 73
     4
 74
     0
 42
0.00000001
 43
0.00000001
 40
0.0
 40
0.0
 40
0.0
 40
0.0
 40
1.0
 40
1.0
 40
1.0
 40
1.0
 10
39.577343071831592
 20
-0.9262139214409721
 30
0.0
 10
40.570564100477426
 20
-1.8105699327256943
 30
0.0
 10
42.068836127387151
 20
-1.8105699327256943
 30
0.0
 10
43.062057156032985
 20
-0.9262139214409721
 30
0.0
  0
SPLINE
  5
2EB
100
AcDbEntity
  8
1
 62
     7
100
AcDbSpline
210
0.0
220
0.0
230
1.0
 70
     8
 71
     3
 72
     8
 73
     4
 74
     0
 42
0.00000001
 43
0.00000001
 40
0.0
 40
0.0
 40
0.0
 40
0.0
 40
1.0
 40
1.0
 40
1.0
 40
1.0
 10
-46.853556993272562
 20
-1.5962849934895831
 30
0.0
 10
-46.797401936848956
 20
-1.651406521267361
 30
0.0
 10
-46.734356689453122
 20
-1.6992933485243054
 30
0.0
 10
-46.665971544053818
 20
-1.7385674370659721
 30
0.0
  0
SPLINE
  5
2EA
100
AcDbEntity
  8
1
 62
     7
100
AcDbSpline
210
0.0
220
0.0
230
1.0
 70
     8
 71
     3
 72
     8
 73
     4
 74
     0
 42
0.00000001
 43
0.00000001
 40
0.0
 40
0.0
 40
0.0
 40
0.0
 40
1.0
 40
1.0
 40
1.0
 40
1.0
 10
-46.146623399522568
 20
-2.0382907443576386
 30
0.0
 10
-46.118201361762146
 20
-2.054827202690972
 30
0.0
 10
-46.085817464192701
 20
-2.0637844509548611
 30
0.0
 10
-46.052916802300345
 20
-2.0637844509548611
 30
0.0
  0
SPLINE
  5
2E9
100
AcDbEntity
  8
1
 62
     7
100
AcDbSpline
210
0.0
220
0.0
230
1.0
 70
     8
 71
     3
 72
     8
 73
     4
 74
     0
 42
0.00000001
 43
0.00000001
 40
0.0
 40
0.0
 40
0.0
 40
0.0
 40
1.0
 40
1.0
 40
1.0
 40
1.0
 10
-37.148550754123264
 20
-2.0637844509548611
 30
0.0
 10
-37.115477837456595
 20
-2.0637844509548611
 30
0.0
 10
-37.083266194661455
 20
-2.054827202690972
 30
0.0
 10
-37.054671902126735
 20
-2.0382907443576386
 30
0.0
  0
SPLINE
  5
2E8
100
AcDbEntity
  8
1
 62
     7
100
AcDbSpline
210
0.0
220
0.0
230
1.0
 70
     8
 71
     3
 72
     8
 73
     4
 74
     0
 42
0.00000001
 43
0.00000001
 40
0.0
 40
0.0
 40
0.0
 40
0.0
 40
1.0
 40
1.0
 40
1.0
 40
1.0
 10
-36.535496012369791
 20
-1.7385674370659721
 30
0.0
 10
-36.467110866970479
 20
-1.6992933485243054
 30
0.0
 10
-36.404237874348958
 20
-1.651406521267361
 30
0.0
 10
-36.347910563151039
 20
-1.5962849934895831
 30
0.0
  0
SPLINE
  5
2E7
100
AcDbEntity
  8
1
 62
     7
100
AcDbSpline
210
0.0
220
0.0
230
1.0
 70
     8
 71
     3
 72
     8
 73
     4
 74
     0
 42
0.00000001
 43
0.00000001
 40
0.0
 40
0.0
 40
0.0
 40
0.0
 40
1.0
 40
1.0
 40
1.0
 40
1.0
 10
35.785326470269091
 20
-0.9262139214409721
 30
0.0
 10
35.785326470269091
 20
-1.2614217122395832
 30
0.0
 10
35.964126925998258
 20
-1.571135796440972
 30
0.0
 10
36.254548475477428
 20
-1.7385674370659721
 30
0.0
  0
SPLINE
  5
2E6
100
AcDbEntity
  8
1
 62
     7
100
AcDbSpline
210
0.0
220
0.0
230
1.0
 70
     8
 71
     3
 72
     8
 73
     4
 74
     0
 42
0.00000001
 43
0.00000001
 40
0.0
 40
0.0
 40
0.0
 40
0.0
 40
1.0
 40
1.0
 40
1.0
 40
1.0
 10
36.773724365234372
 20
-2.0382907443576386
 30
0.0
 10
36.801974148220481
 20
-2.054827202690972
 30
0.0
 10
36.834358045789926
 20
-2.0637844509548611
 30
0.0
 10
36.867430962456595
 20
-2.0637844509548611
 30
0.0
  0
SPLINE
  5
2E5
100
AcDbEntity
  8
1
 62
     7
100
AcDbSpline
210
0.0
220
0.0
230
1.0
 70
     8
 71
     3
 72
     8
 73
     4
 74
     0
 42
0.00000001
 43
0.00000001
 40
0.0
 40
0.0
 40
0.0
 40
0.0
 40
1.0
 40
1.0
 40
1.0
 40
1.0
 10
45.771624755859371
 20
-2.0637844509548611
 30
0.0
 10
45.804697672526039
 20
-2.0637844509548611
 30
0.0
 10
45.837081570095485
 20
-2.054827202690972
 30
0.0
 10
45.865675862630205
 20
-2.0382907443576386
 30
0.0
  0
SPLINE
  5
2E4
100
AcDbEntity
  8
1
 62
     7
100
AcDbSpline
210
0.0
220
0.0
230
1.0
 70
     8
 71
     3
 72
     8
 73
     4
 74
     0
 42
0.00000001
 43
0.00000001
 40
0.0
 40
0.0
 40
0.0
 40
0.0
 40
1.0
 40
1.0
 40
1.0
 40
1.0
 10
46.384851752387149
 20
-1.7385674370659721
 30
0.0
 10
46.674928792317701
 20
-1.571135796440972
 30
0.0
 10
46.853729248046868
 20
-1.2614217122395832
 30
0.0
 10
46.853729248046868
 20
-0.9262139214409721
 30
0.0
  0
ENDBLK
  5
324
100
AcDbEntity
  8
1
100
AcDbBlockEnd
  0
BLOCK
  5
327
100
AcDbEntity
  8
1
 62
     7
100
AcDbBlockBegin
  2
AI9-BLK40
 70
     0
 10
0.0
 20
0.0
 30
0.0
  3
AI9-BLK40
  1

  0
LINE
  5
34B
100
AcDbEntity
  8
1
 62
     7
100
AcDbLine
 10
-36.209245
 20
-62.6302
 30
0.0
 11
-36.209245
 21
-55.36346
 31
0.0
  0
LINE
  5
34A
100
AcDbEntity
  8
1
 62
     7
100
AcDbLine
 10
-46.71093
 20
-55.36346
 30
0.0
 11
-46.71093
 21
-62.6302
 31
0.0
  0
LINE
  5
349
100
AcDbEntity
  8
1
 62
     7
100
AcDbLine
 10
-46.150241
 20
-54.753333
 30
0.0
 11
-36.770107
 21
-54.753333
 31
0.0
  0
LINE
  5
348
100
AcDbEntity
  8
1
 62
     7
100
AcDbLine
 10
-38.477152
 20
-54.56592
 30
0.0
 11
-38.477152
 21
-54.753333
 31
0.0
  0
LINE
  5
347
100
AcDbEntity
  8
1
 62
     7
100
AcDbLine
 10
-44.443024
 20
-54.753333
 30
0.0
 11
-44.443024
 21
-54.56592
 31
0.0
  0
LINE
  5
346
100
AcDbEntity
  8
1
 62
     7
100
AcDbLine
 10
-18.572596
 20
-66.009494
 30
0.0
 11
-18.572596
 21
-66.197251
 31
0.0
  0
LINE
  5
345
100
AcDbEntity
  8
1
 62
     7
100
AcDbLine
 10
38.477324
 20
-54.753333
 30
0.0
 11
38.477324
 21
-54.56592
 31
0.0
  0
LINE
  5
344
100
AcDbEntity
  8
1
 62
     7
100
AcDbLine
 10
-27.577559
 20
-66.009494
 30
0.0
 11
-27.577559
 21
-61.882269
 31
0.0
  0
LINE
  5
343
100
AcDbEntity
  8
1
 62
     7
100
AcDbLine
 10
-46.712997
 20
7.396017
 30
0.0
 11
-46.712997
 21
66.197079
 31
0.0
  0
LINE
  5
342
100
AcDbEntity
  8
1
 62
     7
100
AcDbLine
 10
-17.070362
 20
-66.009494
 30
0.0
 11
-17.070362
 21
-65.634323
 31
0.0
  0
LINE
  5
341
100
AcDbEntity
  8
1
 62
     7
100
AcDbLine
 10
-26.076875
 20
-66.197251
 30
0.0
 11
-26.076875
 21
-66.009494
 31
0.0
  0
LINE
  5
340
100
AcDbEntity
  8
1
 62
     7
100
AcDbLine
 10
-17.070362
 20
-66.009494
 30
0.0
 11
-27.577559
 21
-66.009494
 31
0.0
  0
LINE
  5
33F
100
AcDbEntity
  8
1
 62
     7
100
AcDbLine
 10
-36.207351
 20
66.197079
 30
0.0
 11
-36.207351
 21
7.396017
 31
0.0
  0
LINE
  5
33E
100
AcDbEntity
  8
1
 62
     7
100
AcDbLine
 10
-25.326361
 20
-59.630899
 30
0.0
 11
36.207351
 21
-59.630899
 31
0.0
  0
LINE
  5
33D
100
AcDbEntity
  8
1
 62
     7
100
AcDbLine
 10
36.207351
 20
-59.630899
 30
0.0
 11
36.207351
 21
-55.316262
 31
0.0
  0
LINE
  5
33C
100
AcDbEntity
  8
1
 62
     7
100
AcDbLine
 10
44.442851
 20
-54.56592
 30
0.0
 11
44.442851
 21
-54.753333
 31
0.0
  0
LINE
  5
33B
100
AcDbEntity
  8
1
 62
     7
100
AcDbLine
 10
-17.070362
 20
-65.634323
 30
0.0
 11
44.83697
 21
-65.634323
 31
0.0
  0
LINE
  5
33A
100
AcDbEntity
  8
1
 62
     7
100
AcDbLine
 10
36.770279
 20
-54.753333
 30
0.0
 11
46.150241
 21
-54.753333
 31
0.0
  0
LINE
  5
339
100
AcDbEntity
  8
1
 62
     7
100
AcDbLine
 10
46.713169
 20
-63.758124
 30
0.0
 11
46.713169
 21
-55.316262
 31
0.0
  0
LINE
  5
338
100
AcDbEntity
  8
1
 62
     7
100
AcDbLine
 10
-45.21128
 20
-66.197251
 30
0.0
 11
-45.21128
 21
-66.009494
 31
0.0
  0
LINE
  5
337
100
AcDbEntity
  8
1
 62
     7
100
AcDbLine
 10
-37.707001
 20
-66.009494
 30
0.0
 11
-37.707001
 21
-66.197251
 31
0.0
  0
LINE
  5
336
100
AcDbEntity
  8
1
 62
     7
100
AcDbLine
 10
-36.209245
 20
-66.009494
 30
0.0
 11
-36.209245
 21
-62.481027
 31
0.0
  0
LINE
  5
335
100
AcDbEntity
  8
1
 62
     7
100
AcDbLine
 10
-46.71093
 20
-66.009494
 30
0.0
 11
-46.71093
 21
-62.6302
 31
0.0
  0
LINE
  5
334
100
AcDbEntity
  8
1
 62
     7
100
AcDbLine
 10
-46.71093
 20
-66.009494
 30
0.0
 11
-36.209245
 21
-66.009494
 31
0.0
  0
LINE
  5
333
100
AcDbEntity
  8
1
 62
     7
100
AcDbLine
 10
36.582522
 20
-59.630899
 30
0.0
 11
41.460088
 21
-59.630899
 31
0.0
  0
SPLINE
  5
332
100
AcDbEntity
  8
1
 62
     7
100
AcDbSpline
210
0.0
220
0.0
230
1.0
 70
     8
 71
     3
 72
    11
 73
     7
 74
     0
 42
0.00000001
 43
0.00000001
 40
0.0
 40
0.0
 40
0.0
 40
0.0
 40
1.0
 40
1.0
 40
1.0
 40
2.0
 40
2.0
 40
2.0
 40
2.0
 10
-46.712997097439235
 20
7.3960171169704854
 30
0.0
 10
-46.712997097439235
 20
4.4949022081163195
 30
0.0
 10
-44.361202663845482
 20
2.1431077745225693
 30
0.0
 10
-41.460087754991314
 20
2.1431077745225693
 30
0.0
 10
-38.559145100911458
 20
2.1431077745225693
 30
0.0
 10
-36.207350667317705
 20
4.4949022081163195
 30
0.0
 10
-36.207350667317705
 20
7.3960171169704854
 30
0.0
  0
SPLINE
  5
331
100
AcDbEntity
  8
1
 62
     7
100
AcDbSpline
210
0.0
220
0.0
230
1.0
 70
     8
 71
     3
 72
     8
 73
     4
 74
     0
 42
0.00000001
 43
0.00000001
 40
0.0
 40
0.0
 40
0.0
 40
0.0
 40
1.0
 40
1.0
 40
1.0
 40
1.0
 10
-39.115528021918401
 20
-59.722194417317702
 30
0.0
 10
-39.894636366102425
 20
-59.661560736762148
 30
0.0
 10
-40.675811767578118
 20
-59.631243896484371
 30
0.0
 10
-41.457159423828124
 20
-59.630899386935759
 30
0.0
  0
SPLINE
  5
330
100
AcDbEntity
  8
1
 62
     7
100
AcDbSpline
210
0.0
220
0.0
230
1.0
 70
     8
 71
     3
 72
     8
 73
     4
 74
     0
 42
0.00000001
 43
0.00000001
 40
0.0
 40
0.0
 40
0.0
 40
0.0
 40
1.0
 40
1.0
 40
1.0
 40
1.0
 10
-43.798101806640624
 20
-59.720127360026034
 30
0.0
 10
-45.406100124782981
 20
-59.719438340928811
 30
0.0
 10
-46.710241021050344
 20
-61.022373453776034
 30
0.0
 10
-46.710930040147566
 20
-62.630199517144092
 30
0.0
  0
SPLINE
  5
32F
100
AcDbEntity
  8
1
 62
     7
100
AcDbSpline
210
0.0
220
0.0
230
1.0
 70
     8
 71
     3
 72
     8
 73
     4
 74
     0
 42
0.00000001
 43
0.00000001
 40
0.0
 40
0.0
 40
0.0
 40
0.0
 40
1.0
 40
1.0
 40
1.0
 40
1.0
 10
-41.457159423828124
 20
-59.630899386935759
 30
0.0
 10
-42.238334825303816
 20
-59.630554877387148
 30
0.0
 10
-43.019337972005204
 20
-59.660182698567702
 30
0.0
 10
-43.798101806640624
 20
-59.720127360026034
 30
0.0
  0
SPLINE
  5
32E
100
AcDbEntity
  8
1
 62
     7
100
AcDbSpline
210
0.0
220
0.0
230
1.0
 70
     8
 71
     3
 72
     8
 73
     4
 74
     0
 42
0.00000001
 43
0.00000001
 40
0.0
 40
0.0
 40
0.0
 40
0.0
 40
1.0
 40
1.0
 40
1.0
 40
1.0
 10
-36.209245469835068
 20
-62.481026882595479
 30
0.0
 10
-36.290377468532981
 20
-60.934868028428816
 30
0.0
 10
-37.567474365234375
 20
-59.722883436414925
 30
0.0
 10
-39.115528021918401
 20
-59.722194417317702
 30
0.0
  0
SPLINE
  5
32D
100
AcDbEntity
  8
1
 62
     7
100
AcDbSpline
210
0.0
220
0.0
230
1.0
 70
     8
 71
     3
 72
    11
 73
     7
 74
     0
 42
0.00000001
 43
0.00000001
 40
0.0
 40
0.0
 40
0.0
 40
0.0
 40
1.0
 40
1.0
 40
1.0
 40
2.0
 40
2.0
 40
2.0
 40
2.0
 10
-46.150240749782981
 20
-54.753333197699646
 30
0.0
 10
-46.460988362630204
 20
-54.753333197699646
 30
0.0
 10
-46.712997097439235
 20
-55.005169677734372
 30
0.0
 10
-46.712997097439235
 20
-55.316261800130206
 30
0.0
 10
-46.712997097439235
 20
-55.332109239366318
 30
0.0
 10
-46.712480333116318
 20
-55.347956678602422
 30
0.0
 10
-46.710930040147566
 20
-55.363459608289922
 30
0.0
  0
SPLINE
  5
32C
100
AcDbEntity
  8
1
 62
     7
100
AcDbSpline
210
0.0
220
0.0
230
1.0
 70
     8
 71
     3
 72
     8
 73
     4
 74
     0
 42
0.00000001
 43
0.00000001
 40
0.0
 40
0.0
 40
0.0
 40
0.0
 40
1.0
 40
1.0
 40
1.0
 40
1.0
 10
-36.207350667317705
 20
-55.316261800130206
 30
0.0
 10
-36.207350667317705
 20
-55.005169677734372
 30
0.0
 10
-36.459187147352431
 20
-54.753333197699646
 30
0.0
 10
-36.770107014973952
 20
-54.753333197699646
 30
0.0
  0
SPLINE
  5
32B
100
AcDbEntity
  8
1
 62
     7
100
AcDbSpline
210
0.0
220
0.0
230
1.0
 70
     8
 71
     3
 72
     8
 73
     4
 74
     0
 42
0.00000001
 43
0.00000001
 40
0.0
 40
0.0
 40
0.0
 40
0.0
 40
1.0
 40
1.0
 40
1.0
 40
1.0
 10
-25.326361083984374
 20
-59.630899386935759
 30
0.0
 10
-26.569696044921873
 20
-59.630899386935759
 30
0.0
 10
-27.577558729383679
 20
-60.638934326171871
 30
0.0
 10
-27.577558729383679
 20
-61.882269287109366
 30
0.0
  0
SPLINE
  5
32A
100
AcDbEntity
  8
1
 62
     7
100
AcDbSpline
210
0.0
220
0.0
230
1.0
 70
     8
 71
     3
 72
     8
 73
     4
 74
     0
 42
0.00000001
 43
0.00000001
 40
0.0
 40
0.0
 40
0.0
 40
0.0
 40
1.0
 40
1.0
 40
1.0
 40
1.0
 10
36.770279269748258
 20
-54.753333197699646
 30
0.0
 10
36.459187147352431
 20
-54.753333197699646
 30
0.0
 10
36.207350667317705
 20
-55.005169677734372
 30
0.0
 10
36.207350667317705
 20
-55.316261800130206
 30
0.0
  0
SPLINE
  5
329
100
AcDbEntity
  8
1
 62
     7
100
AcDbSpline
210
0.0
220
0.0
230
1.0
 70
     8
 71
     3
 72
     8
 73
     4
 74
     0
 42
0.00000001
 43
0.00000001
 40
0.0
 40
0.0
 40
0.0
 40
0.0
 40
1.0
 40
1.0
 40
1.0
 40
1.0
 10
46.713169352213541
 20
-55.316261800130206
 30
0.0
 10
46.713169352213541
 20
-55.005169677734372
 30
0.0
 10
46.460988362630204
 20
-54.753333197699646
 30
0.0
 10
46.150240749782981
 20
-54.753333197699646
 30
0.0
  0
SPLINE
  5
328
100
AcDbEntity
  8
1
 62
     7
100
AcDbSpline
210
0.0
220
0.0
230
1.0
 70
     8
 71
     3
 72
     8
 73
     4
 74
     0
 42
0.00000001
 43
0.00000001
 40
0.0
 40
0.0
 40
0.0
 40
0.0
 40
1.0
 40
1.0
 40
1.0
 40
1.0
 10
44.836970350477429
 20
-65.634322781032978
 30
0.0
 10
45.873255072699649
 20
-65.634322781032978
 30
0.0
 10
46.713169352213541
 20
-64.794408501519086
 30
0.0
 10
46.713169352213541
 20
-63.758123779296866
 30
0.0
  0
ENDBLK
  5
34C
100
AcDbEntity
  8
1
100
AcDbBlockEnd
  0
ENDSEC
  0
SECTION
  2
ENTITIES
  0
INSERT
  5
326
100
AcDbEntity
  8
1
 62
     7
100
AcDbBlockReference
  2
AI9-BLK40
 10
102.916974
 20
148.798583
 30
0.0
  0
INSERT
  5
2E2
100
AcDbEntity
  8
1
 62
     7
100
AcDbBlockReference
  2
AI9-BLK39
 10
103.057534
 20
96.296448
 30
0.0
  0
INSERT
  5
2DD
100
AcDbEntity
  8
1
 62
     7
100
AcDbBlockReference
  2
AI9-BLK38
 10
92.171979
 20
24.818123
 30
0.0
  0
INSERT
  5
2D8
100
AcDbEntity
  8
1
 62
     7
100
AcDbBlockReference
  2
AI9-BLK37
 10
84.198995
 20
24.818123
 30
0.0
  0
INSERT
  5
2D3
100
AcDbEntity
  8
1
 62
     7
100
AcDbBlockReference
  2
AI9-BLK36
 10
104.131628
 20
26.693978
 30
0.0
  0
INSERT
  5
2CE
100
AcDbEntity
  8
1
 62
     7
100
AcDbBlockReference
  2
AI9-BLK35
 10
104.131628
 20
20.596848
 30
0.0
  0
INSERT
  5
2C9
100
AcDbEntity
  8
1
 62
     7
100
AcDbBlockReference
  2
AI9-BLK34
 10
109.525442
 20
20.596848
 30
0.0
  0
INSERT
  5
2C4
100
AcDbEntity
  8
1
 62
     7
100
AcDbBlockReference
  2
AI9-BLK33
 10
98.738159
 20
20.596848
 30
0.0
  0
INSERT
  5
2BF
100
AcDbEntity
  8
1
 62
     7
100
AcDbBlockReference
  2
AI9-BLK32
 10
120.07777
 20
26.693978
 30
0.0
  0
INSERT
  5
2BA
100
AcDbEntity
  8
1
 62
     7
100
AcDbBlockReference
  2
AI9-BLK31
 10
120.07777
 20
20.596848
 30
0.0
  0
INSERT
  5
2B5
100
AcDbEntity
  8
1
 62
     7
100
AcDbBlockReference
  2
AI9-BLK30
 10
125.471411
 20
20.596848
 30
0.0
  0
INSERT
  5
2B0
100
AcDbEntity
  8
1
 62
     7
100
AcDbBlockReference
  2
AI9-BLK29
 10
114.6843
 20
20.596848
 30
0.0
  0
INSERT
  5
2AB
100
AcDbEntity
  8
1
 62
     7
100
AcDbBlockReference
  2
AI9-BLK28
 10
136.024083
 20
26.693978
 30
0.0
  0
INSERT
  5
2A6
100
AcDbEntity
  8
1
 62
     7
100
AcDbBlockReference
  2
AI9-BLK27
 10
136.024083
 20
20.596848
 30
0.0
  0
INSERT
  5
2A1
100
AcDbEntity
  8
1
 62
     7
100
AcDbBlockReference
  2
AI9-BLK26
 10
141.417725
 20
20.596848
 30
0.0
  0
INSERT
  5
29C
100
AcDbEntity
  8
1
 62
     7
100
AcDbBlockReference
  2
AI9-BLK25
 10
130.630442
 20
20.596848
 30
0.0
  0
INSERT
  5
297
100
AcDbEntity
  8
1
 62
     7
100
AcDbBlockReference
  2
AI9-BLK24
 10
146.576755
 20
20.596848
 30
0.0
  0
INSERT
  5
292
100
AcDbEntity
  8
1
 62
     7
100
AcDbBlockReference
  2
AI9-BLK23
 10
157.363866
 20
20.596848
 30
0.0
  0
INSERT
  5
28D
100
AcDbEntity
  8
1
 62
     7
100
AcDbBlockReference
  2
AI9-BLK22
 10
151.970397
 20
20.596848
 30
0.0
  0
INSERT
  5
288
100
AcDbEntity
  8
1
 62
     7
100
AcDbBlockReference
  2
AI9-BLK21
 10
57.700009
 20
22.238436
 30
0.0
  0
INSERT
  5
283
100
AcDbEntity
  8
1
 62
     7
100
AcDbBlockReference
  2
AI9-BLK20
 10
57.700009
 20
30.211593
 30
0.0
  0
INSERT
  5
27E
100
AcDbEntity
  8
1
 62
     7
100
AcDbBlockReference
  2
AI9-BLK19
 10
48.788926
 20
273.391409
 30
0.0
  0
INSERT
  5
279
100
AcDbEntity
  8
1
 62
     7
100
AcDbBlockReference
  2
AI9-BLK18
 10
151.970397
 20
26.693978
 30
0.0
  0
INSERT
  5
274
100
AcDbEntity
  8
1
 62
     7
100
AcDbBlockReference
  2
AI9-BLK17
 10
57.700009
 20
24.114635
 30
0.0
  0
INSERT
  5
26F
100
AcDbEntity
  8
1
 62
     7
100
AcDbBlockReference
  2
AI9-BLK16
 10
57.700009
 20
32.087619
 30
0.0
  0
INSERT
  5
26A
100
AcDbEntity
  8
1
 62
     7
100
AcDbBlockReference
  2
AI9-BLK15
 10
57.700009
 20
28.335566
 30
0.0
  0
INSERT
  5
265
100
AcDbEntity
  8
1
 62
     7
100
AcDbBlockReference
  2
AI9-BLK14
 10
57.700009
 20
20.362581
 30
0.0
  0
INSERT
  5
260
100
AcDbEntity
  8
1
 62
     7
100
AcDbBlockReference
  2
AI9-BLK13
 10
36.125788
 20
40.764092
 30
0.0
  0
LINE
  5
25E
100
AcDbEntity
  8
1
 62
     7
100
AcDbLine
 10
102.724651
 20
18.251771
 30
0.0
 11
191.836008
 21
18.251771
 31
0.0
  0
LINE
  5
25D
100
AcDbEntity
  8
1
 62
     7
100
AcDbLine
 10
102.724651
 20
18.251771
 30
0.0
 11
102.724651
 21
13.561963
 31
0.0
  0
LINE
  5
25C
100
AcDbEntity
  8
1
 62
     7
100
AcDbLine
 10
191.836008
 20
148.166667
 30
0.0
 11
191.836008
 21
278.08139
 31
0.0
  0
LINE
  5
25B
100
AcDbEntity
  8
1
 62
     7
100
AcDbLine
 10
191.836008
 20
148.166667
 30
0.0
 11
196.526161
 21
148.166667
 31
0.0
  0
LINE
  5
25A
100
AcDbEntity
  8
1
 62
     7
100
AcDbLine
 10
27.683754
 20
148.166667
 30
0.0
 11
27.683754
 21
278.08139
 31
0.0
  0
LINE
  5
259
100
AcDbEntity
  8
1
 62
     7
100
AcDbLine
 10
27.683754
 20
148.166667
 30
0.0
 11
22.993601
 21
148.166667
 31
0.0
  0
LINE
  5
258
100
AcDbEntity
  8
1
 62
     7
100
AcDbLine
 10
102.724651
 20
278.08139
 30
0.0
 11
27.683754
 21
278.08139
 31
0.0
  0
LINE
  5
257
100
AcDbEntity
  8
1
 62
     7
100
AcDbLine
 10
102.724651
 20
278.08139
 30
0.0
 11
102.724651
 21
282.771543
 31
0.0
  0
LINE
  5
256
100
AcDbEntity
  8
1
 62
     7
100
AcDbLine
 10
159.943381
 20
27.632077
 30
0.0
 11
191.836008
 21
27.632077
 31
0.0
  0
LINE
  5
255
100
AcDbEntity
  8
1
 62
     7
100
AcDbLine
 10
96.158644
 20
34.198085
 30
0.0
 11
96.158644
 21
18.251771
 31
0.0
  0
LINE
  5
254
100
AcDbEntity
  8
1
 62
     7
100
AcDbLine
 10
112.104785
 20
34.198085
 30
0.0
 11
112.104785
 21
18.251771
 31
0.0
  0
LINE
  5
253
100
AcDbEntity
  8
1
 62
     7
100
AcDbLine
 10
143.997412
 20
34.198085
 30
0.0
 11
143.997412
 21
18.251771
 31
0.0
  0
LINE
  5
252
100
AcDbEntity
  8
1
 62
     7
100
AcDbLine
 10
128.051099
 20
34.198085
 30
0.0
 11
128.051099
 21
18.251771
 31
0.0
  0
LINE
  5
251
100
AcDbEntity
  8
1
 62
     7
100
AcDbLine
 10
159.943381
 20
34.198085
 30
0.0
 11
159.943381
 21
18.251771
 31
0.0
  0
LINE
  5
250
100
AcDbEntity
  8
1
 62
     7
100
AcDbLine
 10
55.823983
 20
268.701256
 30
0.0
 11
27.683754
 21
268.701256
 31
0.0
  0
LINE
  5
24F
100
AcDbEntity
  8
1
 62
     7
100
AcDbLine
 10
27.683754
 20
18.251771
 30
0.0
 11
27.683754
 21
148.166667
 31
0.0
  0
LINE
  5
24E
100
AcDbEntity
  8
1
 62
     7
100
AcDbLine
 10
41.753868
 20
278.08139
 30
0.0
 11
41.753868
 21
268.701256
 31
0.0
  0
LINE
  5
24D
100
AcDbEntity
  8
1
 62
     7
100
AcDbLine
 10
55.823983
 20
278.08139
 30
0.0
 11
55.823983
 21
268.701256
 31
0.0
  0
LINE
  5
24C
100
AcDbEntity
  8
1
 62
     7
100
AcDbLine
 10
35.187689
 20
47.3301
 30
0.0
 11
35.187689
 21
34.198085
 31
0.0
  0
LINE
  5
24B
100
AcDbEntity
  8
1
 62
     7
100
AcDbLine
 10
191.836008
 20
34.198085
 30
0.0
 11
27.683754
 21
34.198085
 31
0.0
  0
LINE
  5
24A
100
AcDbEntity
  8
1
 62
     7
100
AcDbLine
 10
27.683754
 20
47.3301
 30
0.0
 11
191.836008
 21
47.3301
 31
0.0
  0
LINE
  5
249
100
AcDbEntity
  8
1
  6
AI9-LType3
 62
     7
100
AcDbLine
 10
4.233333
 20
8.87181
 30
0.0
 11
201.21597
 21
8.87181
 31
0.0
  0
LINE
  5
248
100
AcDbEntity
  8
1
  6
AI9-LType3
 62
     7
100
AcDbLine
 10
201.21597
 20
8.87181
 30
0.0
 11
201.21597
 21
287.461523
 31
0.0
  0
LINE
  5
247
100
AcDbEntity
  8
1
  6
AI9-LType3
 62
     7
100
AcDbLine
 10
201.21597
 20
287.461523
 30
0.0
 11
4.233333
 21
287.461523
 31
0.0
  0
LINE
  5
246
100
AcDbEntity
  8
1
  6
AI9-LType3
 62
     7
100
AcDbLine
 10
4.233333
 20
287.461523
 30
0.0
 11
4.233333
 21
8.87181
 31
0.0
  0
LINE
  5
245
100
AcDbEntity
  8
1
 62
     7
100
AcDbLine
 10
27.683754
 20
18.251771
 30
0.0
 11
102.724651
 21
18.251771
 31
0.0
  0
LINE
  5
244
100
AcDbEntity
  8
1
 62
     7
100
AcDbLine
 10
191.836008
 20
18.251771
 30
0.0
 11
191.836008
 21
148.166667
 31
0.0
  0
LINE
  5
243
100
AcDbEntity
  8
1
 62
     7
100
AcDbLine
 10
191.836008
 20
278.08139
 30
0.0
 11
102.724651
 21
278.08139
 31
0.0
  0
LINE
  5
242
100
AcDbEntity
  8
1
 62
     7
100
AcDbLine
 10
27.683754
 20
26.2251
 30
0.0
 11
80.21233
 21
26.2251
 31
0.0
  0
LINE
  5
241
100
AcDbEntity
  8
1
 62
     7
100
AcDbLine
 10
35.187689
 20
34.198085
 30
0.0
 11
35.187689
 21
18.251771
 31
0.0
  0
LINE
  5
240
100
AcDbEntity
  8
1
 62
     7
100
AcDbLine
 10
183.393802
 20
32.040766
 30
0.0
 11
183.393802
 21
29.789396
 31
0.0
  0
LINE
  5
23F
100
AcDbEntity
  8
1
 62
     7
100
AcDbLine
 10
183.393802
 20
32.040766
 30
0.0
 11
188.083955
 21
32.791108
 31
0.0
  0
LINE
  5
23E
100
AcDbEntity
  8
1
 62
     7
100
AcDbLine
 10
188.083955
 20
32.791108
 30
0.0
 11
188.083955
 21
29.039054
 31
0.0
  0
LINE
  5
23D
100
AcDbEntity
  8
1
 62
     7
100
AcDbLine
 10
188.083955
 20
29.039054
 30
0.0
 11
183.393802
 21
29.789396
 31
0.0
  0
LINE
  5
23C
100
AcDbEntity
  8
1
  6
AI9-LType23
 62
     7
100
AcDbLine
 10
176.827794
 20
30.914909
 30
0.0
 11
189.02171
 21
30.914909
 31
0.0
  0
LINE
  5
23A
100
AcDbEntity
  8
1
  6
AI9-LType22
 62
     7
100
AcDbLine
 10
179.641748
 20
33.729207
 30
0.0
 11
179.641748
 21
28.100955
 31
0.0
  0
LINE
  5
238
100
AcDbEntity
  8
1
 62
     7
100
AcDbLine
 10
80.21233
 20
34.198085
 30
0.0
 11
80.21233
 21
18.251771
 31
0.0
  0
CIRCLE
  5
237
100
AcDbEntity
  8
1
 62
     7
100
AcDbCircle
 10
101.317588
 20
20.596848
 30
0.0
 40
0.281378
  0
CIRCLE
  5
236
100
AcDbEntity
  8
1
 62
     7
100
AcDbCircle
 10
106.945755
 20
20.596848
 30
0.0
 40
0.281464
  0
CIRCLE
  5
235
100
AcDbEntity
  8
1
 62
     7
100
AcDbCircle
 10
117.263816
 20
20.596848
 30
0.0
 40
0.281464
  0
CIRCLE
  5
234
100
AcDbEntity
  8
1
 62
     7
100
AcDbCircle
 10
122.891896
 20
20.596848
 30
0.0
 40
0.281292
  0
CIRCLE
  5
233
100
AcDbEntity
  8
1
 62
     7
100
AcDbCircle
 10
133.210129
 20
20.596848
 30
0.0
 40
0.281464
  0
CIRCLE
  5
232
100
AcDbEntity
  8
1
 62
     7
100
AcDbCircle
 10
138.838209
 20
20.596848
 30
0.0
 40
0.281292
  0
CIRCLE
  5
231
100
AcDbEntity
  8
1
 62
     7
100
AcDbCircle
 10
154.784351
 20
20.596848
 30
0.0
 40
0.281464
  0
CIRCLE
  5
230
100
AcDbEntity
  8
1
 62
     7
100
AcDbCircle
 10
149.15627
 20
20.596848
 30
0.0
 40
0.281292
  0
CIRCLE
  5
22F
100
AcDbEntity
  8
1
 62
     7
100
AcDbCircle
 10
179.641748
 20
30.914909
 30
0.0
 40
1.125513
  0
CIRCLE
  5
22E
100
AcDbEntity
  8
1
 62
     7
100
AcDbCircle
 10
179.641576
 20
30.914909
 30
0.0
 40
1.876027
  0
CIRCLE
  5
22D
100
AcDbEntity
  8
1
  6
AI9-LType21
 62
     7
100
AcDbCircle
 10
88.185487
 20
23.880024
 30
0.0
 40
0.093879
  0
CIRCLE
  5
22B
100
AcDbEntity
  8
1
  6
AI9-LType20
 62
     7
100
AcDbCircle
 10
88.185487
 20
25.756223
 30
0.0
 40
0.093879
  0
MTEXT
  5
229
100
AcDbEntity
  8
1
  6
AI9-LType19
 62
     7
100
AcDbMText
 10
29.108818
 20
275.835787
 30
0.0
 40
4.690064
 41
0.0
 71
     1
 72
     2
  1
\W0.89;\fMS Mincho|b0|i0|c128;図番
  7
KANJISTD
210
0.0
220
0.0
230
1.0
 11
1.000001
 21
0.0
 31
0.0
 73
     1
 44
1.0
  0
MTEXT
  5
228
100
AcDbEntity
  8
1
  6
AI9-LType19
 62
     7
100
AcDbMText
 10
27.508743
 20
42.475484
 30
0.0
 40
3.283045
 41
0.0
 71
     1
 72
     2
  1
\W0.89;\fMS Mincho|b0|i0|c128;備考
  7
KANJISTD
210
0.0
220
0.0
230
1.0
 11
1.000001
 21
0.0
 31
0.0
 73
     1
 44
1.0
  0
MTEXT
  5
227
100
AcDbEntity
  8
1
  6
AI9-LType19
 62
     7
100
AcDbMText
 10
27.508743
 20
31.922812
 30
0.0
 40
3.283045
 41
0.0
 71
     1
 72
     2
  1
\W0.89;\fMS Mincho|b0|i0|c128;品名
  7
KANJISTD
210
0.0
220
0.0
230
1.0
 11
1.000001
 21
0.0
 31
0.0
 73
     1
 44
1.0
  0
MTEXT
  5
226
100
AcDbEntity
  8
1
  6
AI9-LType19
 62
     7
100
AcDbMText
 10
27.508743
 20
23.949483
 30
0.0
 40
3.283045
 41
0.0
 71
     1
 72
     2
  1
\W0.89;\fMS Mincho|b0|i0|c128;品番
  7
KANJISTD
210
0.0
220
0.0
230
1.0
 11
1.000001
 21
0.0
 31
0.0
 73
     1
 44
1.0
  0
MTEXT
  5
225
100
AcDbEntity
  8
1
  6
AI9-LType19
 62
     7
100
AcDbMText
 10
96.075617
 20
33.788547
 30
0.0
 40
2.814038
 41
0.0
 71
     1
 72
     2
  1
\W0.89;\fMS Mincho|b0|i0|c128;承認
  7
KANJISTD
210
0.0
220
0.0
230
1.0
 11
1.000001
 21
0.0
 31
0.0
 73
     1
 44
1.0
  0
MTEXT
  5
224
100
AcDbEntity
  8
1
  6
AI9-LType19
 62
     7
100
AcDbMText
 10
160.531459
 20
32.626301
 30
0.0
 40
3.283045
 41
0.0
 71
     1
 72
     2
  1
\W0.89;\fMS Mincho|b0|i0|c128;第三角法
  7
KANJISTD
210
0.0
220
0.0
230
1.0
 11
1.000001
 21
0.0
 31
0.0
 73
     1
 44
1.0
  0
MTEXT
  5
223
100
AcDbEntity
  8
1
  6
AI9-LType19
 62
     7
100
AcDbMText
 10
112.021758
 20
33.788547
 30
0.0
 40
2.814038
 41
0.0
 71
     1
 72
     2
  1
\W0.89;\fMS Mincho|b0|i0|c128;検図
  7
KANJISTD
210
0.0
220
0.0
230
1.0
 11
1.000001
 21
0.0
 31
0.0
 73
     1
 44
1.0
  0
MTEXT
  5
222
100
AcDbEntity
  8
1
  6
AI9-LType19
 62
     7
100
AcDbMText
 10
143.914041
 20
33.788547
 30
0.0
 40
2.814038
 41
0.0
 71
     1
 72
     2
  1
\W0.89;\fMS Mincho|b0|i0|c128;設計
  7
KANJISTD
210
0.0
220
0.0
230
1.0
 11
1.000001
 21
0.0
 31
0.0
 73
     1
 44
1.0
  0
MTEXT
  5
221
100
AcDbEntity
  8
1
  6
AI9-LType19
 62
     7
100
AcDbMText
 10
127.968072
 20
33.788547
 30
0.0
 40
2.814038
 41
0.0
 71
     1
 72
     2
  1
\W0.89;\fMS Mincho|b0|i0|c128;製図
  7
KANJISTD
210
0.0
220
0.0
230
1.0
 11
1.000001
 21
0.0
 31
0.0
 73
     1
 44
1.0
  0
MTEXT
  5
220
100
AcDbEntity
  8
1
  6
AI9-LType19
 62
     7
100
AcDbMText
 10
84.258423
 20
33.095178
 30
0.0
 40
3.283045
 41
0.0
 71
     1
 72
     2
  1
\W0.89;\fMS Mincho|b0|i0|c128;尺度
  7
KANJISTD
210
0.0
220
0.0
230
1.0
 11
1.000001
 21
0.0
 31
0.0
 73
     1
 44
1.0
  0
MTEXT
  5
21F
100
AcDbEntity
  8
1
  6
AI9-LType19
 62
     7
100
AcDbMText
 10
27.683754
 20
15.27301
 30
0.0
 40
3.283045
 41
0.0
 71
     1
 72
     2
  1
\W0.89;\fMS Mincho|b0|i0|c128;備考欄の文字列 原点位置=4
  7
KANJISTD
210
0.0
220
0.0
230
1.0
 11
1.000001
 21
0.0
 31
0.0
 73
     1
 44
1.0
  0
LINE
  5
21E
100
AcDbEntity
  8
1
  6
AI9-LType19
 62
     7
100
AcDbLine
 10
80.593014
 20
91.981638
 30
0.0
 11
80.593014
 21
74.722054
 31
0.0
  0
LINE
  5
21C
100
AcDbEntity
  8
1
  6
AI9-LType18
 62
     7
100
AcDbLine
 10
152.493362
 20
86.165972
 30
0.0
 11
72.525289
 21
86.165972
 31
0.0
  0
LINE
  5
21A
100
AcDbEntity
  8
1
 62
     7
100
AcDbLine
 10
83.444175
 20
211.298214
 30
0.0
 11
90.232735
 21
211.298214
 31
0.0
  0
LINE
  5
219
100
AcDbEntity
  8
1
 62
     7
100
AcDbLine
 10
67.632048
 20
199.211785
 30
0.0
 11
74.097803
 21
199.211785
 31
0.0
  0
LINE
  5
218
100
AcDbEntity
  8
1
  6
AI9-LType17
 62
     7
100
AcDbLine
 10
159.932357
 20
104.92624
 30
0.0
 11
138.373983
 21
104.92624
 31
0.0
  0
LINE
  5
216
100
AcDbEntity
  8
1
  6
AI9-LType16
 62
     7
100
AcDbLine
 10
151.505998
 20
131.002856
 30
0.0
 11
151.505998
 21
97.59611
 31
0.0
  0
LINE
  5
214
100
AcDbEntity
  8
1
  6
AI9-LType15
 62
     7
100
AcDbLine
 10
174.39349
 20
104.92624
 30
0.0
 11
173.643148
 21
104.92624
 31
0.0
  0
LINE
  5
212
100
AcDbEntity
  8
1
  6
AI9-LType14
 62
     7
100
AcDbLine
 10
51.138653
 20
104.92624
 30
0.0
 11
71.774947
 21
104.92624
 31
0.0
  0
LINE
  5
210
100
AcDbEntity
  8
1
  6
AI9-LType13
 62
     7
100
AcDbLine
 10
51.138653
 20
219.97951
 30
0.0
 11
71.774947
 21
219.97951
 31
0.0
  0
LINE
  5
20E
100
AcDbEntity
  8
1
  6
AI9-LType12
 62
     7
100
AcDbLine
 10
69.711335
 20
227.108446
 30
0.0
 11
68.960821
 21
227.108446
 31
0.0
  0
LINE
  5
20C
100
AcDbEntity
  8
1
  6
AI9-LType11
 62
     7
100
AcDbLine
 10
61.456886
 20
147.283689
 30
0.0
 11
61.456886
 21
252.05955
 31
0.0
  0
LINE
  5
20A
100
AcDbEntity
  8
1
  6
AI9-LType10
 62
     7
100
AcDbLine
 10
176.457102
 20
104.92624
 30
0.0
 11
159.932357
 21
104.92624
 31
0.0
  0
LINE
  5
208
100
AcDbEntity
  8
1
  6
AI9-LType9
 62
     7
100
AcDbLine
 10
173.643148
 20
104.92624
 30
0.0
 11
167.452311
 21
104.92624
 31
0.0
  0
LINE
  5
206
100
AcDbEntity
  8
1
  6
AI9-LType8
 62
     7
100
AcDbLine
 10
61.456886
 20
145.260729
 30
0.0
 11
61.456886
 21
74.722054
 31
0.0
  0
LINE
  5
204
100
AcDbEntity
  8
1
  6
AI9-LType7
 62
     7
100
AcDbLine
 10
53.952779
 20
227.108446
 30
0.0
 11
53.202265
 21
227.108446
 31
0.0
  0
LINE
  5
202
100
AcDbEntity
  8
1
  6
AI9-LType6
 62
     7
100
AcDbLine
 10
51.138653
 20
227.108446
 30
0.0
 11
71.774947
 21
227.108446
 31
0.0
  0
LINE
  5
200
100
AcDbEntity
  8
1
  6
AI9-LType5
 62
     7
100
AcDbLine
 10
144.377062
 20
80.350307
 30
0.0
 11
144.377062
 21
101.174186
 31
0.0
  0
SPLINE
  5
1FE
100
AcDbEntity
  8
1
 62
     7
100
AcDbSpline
210
0.0
220
0.0
230
1.0
 70
     8
 71
     3
 72
     8
 73
     4
 74
     0
 42
0.00000001
 43
0.00000001
 40
0.0
 40
0.0
 40
0.0
 40
0.0
 40
1.0
 40
1.0
 40
1.0
 40
1.0
 10
67.81756591796875
 20
207.47691379123262
 30
0.0
 10
72.726654730902766
 20
209.06751437717011
 30
0.0
 10
76.861802842881943
 20
212.43974609374999
 30
0.0
 10
79.407383897569431
 20
216.92853325737846
 30
0.0
  0
POLYLINE
  5
1F9
100
AcDbEntity
  8
1
 62
     7
100
AcDb2dPolyline
 66
     1
 10
0.0
 20
0.0
 30
0.0
 70
     1
  0
VERTEX
  5
1FA
100
AcDbEntity
  8
1
 62
     7
100
AcDbVertex
100
AcDb2dVertex
 10
70.228099
 20
236.96917
 30
0.0
  0
VERTEX
  5
1FB
100
AcDbEntity
  8
1
 62
     7
100
AcDbVertex
100
AcDb2dVertex
 10
70.976718
 20
236.536983
 30
0.0
  0
VERTEX
  5
1FC
100
AcDbEntity
  8
1
 62
     7
100
AcDbVertex
100
AcDb2dVertex
 10
68.960821
 20
233.909926
 30
0.0
  0
SEQEND
  5
1FD
100
AcDbEntity
  8
1
 62
     7
  0
HATCH
  5
1F8
100
AcDbEntity
  8
1
 62
     2
100
AcDbHatch
 10
0.0
 20
0.0
 30
0.0
210
0.0
220
0.0
230
1.0
  2
SOLID
 70
     1
 71
     0
 91
        1
 92
        3
 72
     0
 73
     1
 93
        3
 10
70.228099229600687
 20
236.9691704644097
 10
70.976718478732636
 20
236.53698323567707
 10
68.960820855034711
 20
233.90992567274304
 97
        0
 75
     0
 76
     1
 98
        1
 10
0.0
 20
0.0
  0
POLYLINE
  5
1F3
100
AcDbEntity
  8
1
 62
     7
100
AcDb2dPolyline
 66
     1
 10
0.0
 20
0.0
 30
0.0
  0
VERTEX
  5
1F4
100
AcDbEntity
  8
1
 62
     7
100
AcDbVertex
100
AcDb2dVertex
 10
68.994583
 20
233.968492
 30
0.0
  0
VERTEX
  5
1F5
100
AcDbEntity
  8
1
 62
     7
100
AcDbVertex
100
AcDb2dVertex
 10
74.532402
 20
243.55981
 30
0.0
  0
VERTEX
  5
1F6
100
AcDbEntity
  8
1
 62
     7
100
AcDbVertex
100
AcDb2dVertex
 10
93.26528
 20
243.55981
 30
0.0
  0
SEQEND
  5
1F7
100
AcDbEntity
  8
1
 62
     7
  0
POLYLINE
  5
1EE
100
AcDbEntity
  8
1
 62
     7
100
AcDb2dPolyline
 66
     1
 10
0.0
 20
0.0
 30
0.0
 70
     1
  0
VERTEX
  5
1EF
100
AcDbEntity
  8
1
 62
     7
100
AcDbVertex
100
AcDb2dVertex
 10
172.844919
 20
98.359543
 30
0.0
  0
VERTEX
  5
1F0
100
AcDbEntity
  8
1
 62
     7
100
AcDbVertex
100
AcDb2dVertex
 10
172.0963
 20
97.927184
 30
0.0
  0
VERTEX
  5
1F1
100
AcDbEntity
  8
1
 62
     7
100
AcDbVertex
100
AcDb2dVertex
 10
170.829194
 20
100.986428
 30
0.0
  0
SEQEND
  5
1F2
100
AcDbEntity
  8
1
 62
     7
  0
HATCH
  5
1ED
100
AcDbEntity
  8
1
 62
     2
100
AcDbHatch
 10
0.0
 20
0.0
 30
0.0
210
0.0
220
0.0
230
1.0
  2
SOLID
 70
     1
 71
     0
 91
        1
 92
        3
 72
     0
 73
     1
 93
        3
 10
172.84491916232636
 20
98.359543185763883
 10
172.09629991319443
 20
97.92718370225694
 10
170.82919379340277
 20
100.9864284939236
 97
        0
 75
     0
 76
     1
 98
        1
 10
0.0
 20
0.0
  0
POLYLINE
  5
1E8
100
AcDbEntity
  8
1
 62
     7
100
AcDb2dPolyline
 66
     1
 10
0.0
 20
0.0
 30
0.0
  0
VERTEX
  5
1E9
100
AcDbEntity
  8
1
 62
     7
100
AcDbVertex
100
AcDb2dVertex
 10
170.862956
 20
100.928206
 30
0.0
  0
VERTEX
  5
1EA
100
AcDbEntity
  8
1
 62
     7
100
AcDbVertex
100
AcDb2dVertex
 10
177.731443
 20
89.031258
 30
0.0
  0
VERTEX
  5
1EB
100
AcDbEntity
  8
1
 62
     7
100
AcDbVertex
100
AcDb2dVertex
 10
190.284337
 20
89.031258
 30
0.0
  0
SEQEND
  5
1EC
100
AcDbEntity
  8
1
 62
     7
  0
POLYLINE
  5
1E3
100
AcDbEntity
  8
1
 62
     7
100
AcDb2dPolyline
 66
     1
 10
0.0
 20
0.0
 30
0.0
 70
     1
  0
VERTEX
  5
1E4
100
AcDbEntity
  8
1
 62
     7
100
AcDbVertex
100
AcDb2dVertex
 10
69.330135
 20
208.649452
 30
0.0
  0
VERTEX
  5
1E5
100
AcDbEntity
  8
1
 62
     7
100
AcDbVertex
100
AcDb2dVertex
 10
69.637954
 20
207.841577
 30
0.0
  0
VERTEX
  5
1E6
100
AcDbEntity
  8
1
 62
     7
100
AcDbVertex
100
AcDb2dVertex
 10
66.415929
 20
207.076938
 30
0.0
  0
SEQEND
  5
1E7
100
AcDbEntity
  8
1
 62
     7
  0
HATCH
  5
1E2
100
AcDbEntity
  8
1
 62
     2
100
AcDbHatch
 10
0.0
 20
0.0
 30
0.0
210
0.0
220
0.0
230
1.0
  2
SOLID
 70
     1
 71
     0
 91
        1
 92
        3
 72
     0
 73
     1
 93
        3
 10
69.33013509114582
 20
208.64945203993054
 10
69.637954372829853
 20
207.84157714843749
 10
66.415928819444431
 20
207.07693820529511
 97
        0
 75
     0
 76
     1
 98
        1
 10
0.0
 20
0.0
  0
LINE
  5
1E1
100
AcDbEntity
  8
1
 62
     7
100
AcDbLine
 10
66.479146
 20
207.100882
 30
0.0
 11
67.271691
 21
207.402844
 31
0.0
  0
POLYLINE
  5
1DC
100
AcDbEntity
  8
1
 62
     7
100
AcDb2dPolyline
 66
     1
 10
0.0
 20
0.0
 30
0.0
 70
     1
  0
VERTEX
  5
1DD
100
AcDbEntity
  8
1
 62
     7
100
AcDbVertex
100
AcDb2dVertex
 10
78.849967
 20
215.27661
 30
0.0
  0
VERTEX
  5
1DE
100
AcDbEntity
  8
1
 62
     7
100
AcDbVertex
100
AcDb2dVertex
 10
78.108755
 20
215.721372
 30
0.0
  0
VERTEX
  5
1DF
100
AcDbEntity
  8
1
 62
     7
100
AcDbVertex
100
AcDb2dVertex
 10
80.16875
 20
218.313978
 30
0.0
  0
SEQEND
  5
1E0
100
AcDbEntity
  8
1
 62
     7
  0
HATCH
  5
1DB
100
AcDbEntity
  8
1
 62
     2
100
AcDbHatch
 10
0.0
 20
0.0
 30
0.0
210
0.0
220
0.0
230
1.0
  2
SOLID
 70
     1
 71
     0
 91
        1
 92
        3
 72
     0
 73
     1
 93
        3
 10
78.849967447916654
 20
215.27660997178816
 10
78.108755154079859
 20
215.72137179904513
 10
80.168749999999989
 20
218.31397840711804
 97
        0
 75
     0
 76
     1
 98
        1
 10
0.0
 20
0.0
  0
LINE
  5
1DA
100
AcDbEntity
  8
1
 62
     7
100
AcDbLine
 10
80.134127
 20
218.256101
 30
0.0
 11
79.593419
 21
217.355208
 31
0.0
  0
MTEXT
  5
1D9
100
AcDbEntity
  8
1
 62
     7
100
AcDbMText
 10
78.650669
 20
248.108239
 30
0.0
 40
3.283045
 41
0.0
 71
     1
 72
     2
  1
\W0.90;\fMS Gothic|b0|i0|c128;ADVAN
  7
STD
210
0.0
220
0.0
230
1.0
 11
1.000001
 21
0.0
 31
0.0
 73
     1
 44
1.0
  0
MTEXT
  5
1D8
100
AcDbEntity
  8
1
 62
     7
100
AcDbMText
 10
66.812804
 20
203.736959
 30
0.0
 40
3.283045
 41
0.0
 71
     1
 72
     2
  1
\W0.89;\fMS Mincho|b0|i0|c128;止水
  7
KANJISTD
210
0.0
220
0.0
230
1.0
 11
1.000001
 21
0.0
 31
0.0
 73
     1
 44
1.0
  0
MTEXT
  5
1D7
100
AcDbEntity
  8
1
 62
     7
100
AcDbMText
 10
82.88917
 20
215.823388
 30
0.0
 40
3.283045
 41
0.0
 71
     1
 72
     2
  1
\W0.89;\fMS Mincho|b0|i0|c128;吐水
  7
KANJISTD
210
0.0
220
0.0
230
1.0
 11
1.000001
 21
0.0
 31
0.0
 73
     1
 44
1.0
  0
MTEXT
  5
1D6
100
AcDbEntity
  8
1
 62
     7
100
AcDbMText
 10
179.044024
 20
93.556604
 30
0.0
 40
3.283045
 41
0.0
 71
     1
 72
     2
  1
\W0.90;\fMS Gothic|b0|i0|c128;PJ1/2
  7
STD
210
0.0
220
0.0
230
1.0
 11
1.000001
 21
0.0
 31
0.0
 73
     1
 44
1.0
  0
MTEXT
  5
1D5
100
AcDbEntity
  8
1
 62
     7
100
AcDbMText
 10
83.206118
 20
26.529171
 30
0.0
 40
3.283045
 41
0.0
 71
     1
 72
     2
  1
\W0.90;\fMS Gothic|b0|i0|c128;1
  7
STD
210
0.0
220
0.0
230
1.0
 11
1.000001
 21
0.0
 31
0.0
 73
     1
 44
1.0
  0
MTEXT
  5
1D4
100
AcDbEntity
  8
1
 62
     7
100
AcDbMText
 10
89.193522
 20
26.529171
 30
0.0
 40
3.283045
 41
0.0
 71
     1
 72
     2
  1
\W0.90;\fMS Gothic|b0|i0|c128;2,5
  7
STD
210
0.0
220
0.0
230
1.0
 11
1.000001
 21
0.0
 31
0.0
 73
     1
 44
1.0
  0
MTEXT
  5
1D3
100
AcDbEntity
  8
1
 62
     7
100
AcDbMText
 10
36.125788
 20
42.475484
 30
0.0
 40
3.283045
 41
0.0
 71
     1
 72
     2
  1
\W0.90;\fMS Gothic|b0|i0|c128;JIS
  7
STD
210
0.0
220
0.0
230
1.0
 11
1.000001
 21
0.0
 31
0.0
 73
     1
 44
1.0
  0
INSERT
  5
1C0
100
AcDbEntity
  8
1
 62
     7
100
AcDbBlockReference
  2
AI9-BLK12
 10
132.182974
 20
144.295154
 30
0.0
  0
INSERT
  5
1AC
100
AcDbEntity
  8
1
 62
     7
100
AcDbBlockReference
  2
AI9-BLK11
 10
159.948204
 20
135.571656
 30
0.0
  0
INSERT
  5
198
100
AcDbEntity
  8
1
 62
     7
100
AcDbBlockReference
  2
AI9-BLK10
 10
47.557132
 20
91.231296
 30
0.0
  0
INSERT
  5
184
100
AcDbEntity
  8
1
 62
     7
100
AcDbBlockReference
  2
AI9-BLK9
 10
49.571651
 20
123.686507
 30
0.0
  0
INSERT
  5
170
100
AcDbEntity
  8
1
 62
     7
100
AcDbBlockReference
  2
AI9-BLK8
 10
112.484951
 20
73.784127
 30
0.0
  0
INSERT
  5
15C
100
AcDbEntity
  8
1
 62
     7
100
AcDbBlockReference
  2
AI9-BLK7
 10
156.383736
 20
81.757111
 30
0.0
  0
INSERT
  5
147
100
AcDbEntity
  8
1
 62
     7
100
AcDbBlockReference
  2
AI9-BLK6
 10
71.227005
 20
122.22148
 30
0.0
  0
INSERT
  5
138
100
AcDbEntity
  8
1
 62
     7
100
AcDbBlockReference
  2
AI9-BLK5
 10
174.299783
 20
84.289773
 30
0.0
  0
INSERT
  5
124
100
AcDbEntity
  8
1
 62
     7
100
AcDbBlockReference
  2
AI9-BLK4
 10
176.17581
 20
105.528787
 30
0.0
  0
INSERT
  5
109
100
AcDbEntity
  8
0
 62
     7
100
AcDbBlockReference
  2
AI9-BLK3
 10
71.025983
 20
80.068842
 30
0.0
  0
INSERT
  5
AB
100
AcDbEntity
  8
0
 62
     7
100
AcDbBlockReference
  2
AI9-BLK2
 10
106.480322
 20
173.240761
 30
0.0
  0
INSERT
  5
2D
100
AcDbEntity
  8
0
 62
     7
100
AcDbBlockReference
  2
AI9-BLK1
 10
113.235035
 20
172.771022
 30
0.0
  0
MTEXT
  5
2B
100
AcDbEntity
  8
0
 62
     7
100
AcDbMText
 10
47.772106
 20
23.949483
 30
0.0
 40
3.283045
 41
0.0
 71
     1
 72
     2
  1
\W0.90;\fMS Gothic|b0|i0|c128;GS-SEJA102
  7
STD
210
0.0
220
0.0
230
1.0
 11
1.000001
 21
0.0
 31
0.0
 73
     1
 44
1.0
  0
MTEXT
  5
2A
100
AcDbEntity
  8
0
 62
     7
100
AcDbMText
 10
43.955284
 20
31.922812
 30
0.0
 40
3.283045
 41
0.0
 71
     1
 72
     2
  1
\W0.89;\fMS Mincho|b0|i0|c128;スロップ単水栓
  7
KANJISTD
210
0.0
220
0.0
230
1.0
 11
1.000001
 21
0.0
 31
0.0
 73
     1
 44
1.0
  0
ENDSEC
  0
SECTION
  2
OBJECTS
  0
DICTIONARY
  5
19
100
AcDbDictionary
280
     0
281
     1
  3
ACAD_GROUP
350
1A
  3
ACAD_MLINESTYLE
350
1B
  3
ACAD_LAYOUT
350
1E
  3
ACAD_PLOTSETTINGS
350
22
  3
ACAD_PLOTSTYLENAME
350
1F
  3
ACAD_WIPEOUT_VARS
350
23
  0
DICTIONARY
  5
1A
102
{ACAD_REACTORS
330
19
102
}
100
AcDbDictionary
280
     0
281
     1
  0
DICTIONARY
  5
1B
102
{ACAD_REACTORS
330
19
102
}
100
AcDbDictionary
280
     0
281
     1
  3
Standard
350
1C
  0
MLINESTYLE
  5
1C
102
{ACAD_REACTORS
330
1B
102
}
100
AcDbMlineStyle
  2
Standard
 70
     0
  3

 62
     0
 51
90.0
 52
90.0
 71
     2
 49
0.5
 62
   256
  6
BYLAYER
 49
-0.5
 62
   256
  6
BYLAYER
  0
ACDBDICTIONARYWDFLT
  5
1F
102
{ACAD_REACTORS
330
19
102
}
100
AcDbDictionary
281
     1
  3
Normal
350
1D
100
AcDbDictionaryWithDefault
340
1D
  0
ACDBPLACEHOLDER
  5
1D
102
{ACAD_REACTORS
330
1F
102
}
  0
LAYOUT
  5
20
102
{ACAD_REACTORS
330
1E
102
}
100
AcDbPlotSettings
  1

  2

  4

  6

 40
0.0
 41
0.0
 42
0.0
 43
0.0
 44
0.0
 45
0.0
 46
0.0
 47
0.0
 48
0.0
 49
0.0
140
0.0
141
0.0
142
1.0
143
1.0
 70
  1024
 72
     0
 73
     0
 74
     0
  7

 75
     0
147
1.0
148
0.0
149
0.0
100
AcDbLayout
  1
Model
 70
     0
 71
     0
 10
0.0
 20
0.0
 11
0.0
 21
0.0
 12
0.0
 22
0.0
 32
0.0
 14
0.0
 24
0.0
 34
0.0
 15
0.0
 25
0.0
 35
0.0
146
0.0
 13
0.0
 23
0.0
 33
0.0
 16
0.0
 26
0.0
 36
0.0
 17
0.0
 27
0.0
 37
0.0
 76
     0
330
A
331
0
345
0
346
0
  0
LAYOUT
  5
21
102
{ACAD_REACTORS
330
1E
102
}
100
AcDbPlotSettings
  1

  2

  4

  6

 40
0.0
 41
0.0
 42
0.0
 43
0.0
 44
0.0
 45
0.0
 46
0.0
 47
0.0
 48
0.0
 49
0.0
140
0.0
141
0.0
142
1.0
143
1.0
 70
     0
 72
     0
 73
     0
 74
     0
  7

 75
     0
147
1.0
148
0.0
149
0.0
100
AcDbLayout
  1
Layout1
 70
     0
 71
     0
 10
0.0
 20
0.0
 11
0.0
 21
0.0
 12
0.0
 22
0.0
 32
0.0
 14
0.0
 24
0.0
 34
0.0
 15
0.0
 25
0.0
 35
0.0
146
0.0
 13
0.0
 23
0.0
 33
0.0
 16
0.0
 26
0.0
 36
0.0
 17
0.0
 27
0.0
 37
0.0
 76
     0
330
B
331
0
345
0
346
0
  0
DICTIONARY
  5
1E
102
{ACAD_REACTORS
330
19
102
}
100
AcDbDictionary
280
     0
281
     1
  3
Layout1
350
21
  3
Model
350
20
  0
DICTIONARY
  5
22
102
{ACAD_REACTORS
330
19
102
}
100
AcDbDictionary
280
     0
281
     1
  0
WIPEOUTVARIABLES
  5
23
100
AcDbWipeoutVariables
 70
     1
  0
ENDSEC
  0
EOF
